  0
SECTION
  2
HEADER
  9
$ACADVER
  1
AC1009
  9
$INSBASE
 10
0.0
 20
0.0
 30
0.0
  9
$EXTMIN
 10
19.300000000000001
 20
16.25
 30
0.0
  9
$EXTMAX
 10
1165.5
 20
830.74999999999989
 30
0.0
  9
$LIMMIN
 10
0.0
 20
0.0
  9
$LIMMAX
 10
1189.0
 20
841.0
  9
$ORTHOMODE
 70
     1
  9
$REGENMODE
 70
     1
  9
$FILLMODE
 70
     1
  9
$QTEXTMODE
 70
     0
  9
$MIRRTEXT
 70
     0
  9
$DRAGMODE
 70
     2
  9
$LTSCALE
 40
1.0
  9
$OSMODE
 70
  3071
  9
$ATTMODE
 70
     1
  9
$TEXTSIZE
 40
12.5
  9
$TRACEWID
 40
1.0
  9
$TEXTSTYLE
  7
STANDARD
  9
$CLAYER
  8
0
  9
$CELTYPE
  6
BYLAYER
  9
$CECOLOR
 62
   256
  9
$DIMSCALE
 40
1.0
  9
$DIMASZ
 40
7.0
  9
$DIMEXO
 40
1.0
  9
$DIMDLI
 40
7.0
  9
$DIMRND
 40
0.0
  9
$DIMDLE
 40
0.0
  9
$DIMEXE
 40
3.0
  9
$DIMTP
 40
0.1
  9
$DIMTM
 40
0.1
  9
$DIMTXT
 40
7.0
  9
$DIMCEN
 40
0.0
  9
$DIMTSZ
 40
0.0
  9
$DIMTOL
 70
     0
  9
$DIMLIM
 70
     0
  9
$DIMTIH
 70
     0
  9
$DIMTOH
 70
     0
  9
$DIMSE1
 70
     0
  9
$DIMSE2
 70
     0
  9
$DIMTAD
 70
     1
  9
$DIMZIN
 70
     8
  9
$DIMBLK
  1
DOTSMALL
  9
$DIMASO
 70
     1
  9
$DIMSHO
 70
     1
  9
$DIMPOST
  1

  9
$DIMAPOST
  1
"
  9
$DIMALT
 70
     0
  9
$DIMALTD
 70
     2
  9
$DIMALTF
 40
0.0393701
  9
$DIMLFAC
 40
1.0
  9
$DIMTOFL
 70
     1
  9
$DIMTVP
 40
0.0
  9
$DIMTIX
 70
     0
  9
$DIMSOXD
 70
     0
  9
$DIMSAH
 70
     0
  9
$DIMBLK1
  1

  9
$DIMBLK2
  1

  9
$DIMSTYLE
  2
SANKYO
  9
$DIMCLRD
 70
   256
  9
$DIMCLRE
 70
   256
  9
$DIMCLRT
 70
   256
  9
$DIMTFAC
 40
0.71
  9
$DIMGAP
 40
1.3
  9
$LUNITS
 70
     2
  9
$LUPREC
 70
     4
  9
$SKETCHINC
 40
1.0
  9
$FILLETRAD
 40
0.4
  9
$AUNITS
 70
     0
  9
$AUPREC
 70
     0
  9
$MENU
  1
.
  9
$ELEVATION
 40
0.0
  9
$PELEVATION
 40
0.0
  9
$THICKNESS
 40
0.0
  9
$LIMCHECK
 70
     0
  9
$BLIPMODE
 70
     0
  9
$CHAMFERA
 40
10.0
  9
$CHAMFERB
 40
10.0
  9
$SKPOLY
 70
     0
  9
$TDCREATE
 40
2455110.561913426
  9
$TDUPDATE
 40
2459033.4558293289
  9
$TDINDWG
 40
2.1051286227000001
  9
$TDUSRTIMER
 40
2.1049329745000001
  9
$USRTIMER
 70
     1
  9
$ANGBASE
 50
0.0
  9
$ANGDIR
 70
     0
  9
$PDMODE
 70
     0
  9
$PDSIZE
 40
0.0
  9
$PLINEWID
 40
0.0
  9
$COORDS
 70
     2
  9
$SPLFRAME
 70
     0
  9
$SPLINETYPE
 70
     6
  9
$SPLINESEGS
 70
     8
  9
$ATTDIA
 70
     1
  9
$ATTREQ
 70
     1
  9
$HANDLING
 70
     1
  9
$HANDSEED
  5
1EDFE
  9
$SURFTAB1
 70
     6
  9
$SURFTAB2
 70
     6
  9
$SURFTYPE
 70
     6
  9
$SURFU
 70
     6
  9
$SURFV
 70
     6
  9
$UCSNAME
  2

  9
$UCSORG
 10
0.0
 20
0.0
 30
0.0
  9
$UCSXDIR
 10
1.0
 20
0.0
 30
0.0
  9
$UCSYDIR
 10
0.0
 20
1.0
 30
0.0
  9
$PUCSNAME
  2

  9
$PUCSORG
 10
0.0
 20
0.0
 30
0.0
  9
$PUCSXDIR
 10
1.0
 20
0.0
 30
0.0
  9
$PUCSYDIR
 10
0.0
 20
1.0
 30
0.0
  9
$USERI1
 70
     0
  9
$USERI2
 70
     0
  9
$USERI3
 70
     0
  9
$USERI4
 70
     0
  9
$USERI5
 70
     0
  9
$USERR1
 40
0.0
  9
$USERR2
 40
0.0
  9
$USERR3
 40
0.0
  9
$USERR4
 40
0.0
  9
$USERR5
 40
0.0
  9
$WORLDVIEW
 70
     1
  9
$SHADEDGE
 70
     3
  9
$SHADEDIF
 70
    70
  9
$TILEMODE
 70
     1
  9
$MAXACTVP
 70
    48
  9
$PLIMCHECK
 70
     0
  9
$PEXTMIN
 10
1.0000000000000000E+020
 20
1.0000000000000000E+020
 30
1.0000000000000000E+020
  9
$PEXTMAX
 10
-1.0000000000000000E+020
 20
-1.0000000000000000E+020
 30
-1.0000000000000000E+020
  9
$PLIMMIN
 10
0.0
 20
0.0
  9
$PLIMMAX
 10
420.0
 20
297.0
  9
$UNITMODE
 70
     0
  9
$VISRETAIN
 70
     1
  9
$PLINEGEN
 70
     0
  9
$PSLTSCALE
 70
     1
  0
ENDSEC
  0
SECTION
  2
TABLES
  0
TABLE
  2
VPORT
 70
     1
  0
VPORT
  2
*ACTIVE
 70
     0
 10
0.0
 20
0.0
 11
1.0
 21
1.0
 12
592.4135922434665
 22
423.48359113394218
 13
0.0
 23
0.0
 14
2.5
 24
2.5
 15
10.0
 25
10.0
 16
0.0
 26
0.0
 36
1.0
 17
0.0
 27
0.0
 37
0.0
 40
820.92390940123255
 41
2.050913838120104
 42
50.0
 43
0.0
 44
0.0
 50
0.0
 51
0.0
 71
     0
 72
   100
 73
     1
 74
     1
 75
     0
 76
     0
 77
     0
 78
     0
  0
ENDTAB
  0
TABLE
  2
LTYPE
 70
    28
  0
LTYPE
  2
CONTINUOUS
 70
     0
  3
Solid line
 72
    65
 73
     0
 40
0.0
  0
LTYPE
  2
CENTER
 70
     0
  3
Center ____ _ ____ _ ____ _ ____ _ ____ _ ____
 72
    65
 73
     4
 40
50.799999999999997
 49
31.75
 49
-6.3499999999999988
 49
6.3499999999999988
 49
-6.3499999999999988
  0
LTYPE
  2
CENTER2
 70
     0
  3
Center (.5x) ___ _ ___ _ ___ _ ___ _ ___ _ ___
 72
    65
 73
     4
 40
28.574999999999999
 49
19.050000000000001
 49
-3.1749999999999989
 49
3.1749999999999989
 49
-3.1749999999999989
  0
LTYPE
  2
PHANTOM
 70
     0
  3
Phantom ______  __  __  ______  __  __  ______
 72
    65
 73
     6
 40
63.5
 49
31.75
 49
-6.3499999999999988
 49
6.3499999999999988
 49
-6.3499999999999988
 49
6.3499999999999988
 49
-6.3499999999999988
  0
LTYPE
  2
PHANTOM2
 70
     0
  3
Phantom (.5x) ___ _ _ ___ _ _ ___ _ _ ___ _ _
 72
    65
 73
     6
 40
31.75
 49
15.875
 49
-3.1749999999999989
 49
3.1749999999999989
 49
-3.1749999999999989
 49
3.1749999999999989
 49
-3.1749999999999989
  0
LTYPE
  2
DASHED
 70
     0
  3
Dashed __ __ __ __ __ __ __ __ __ __ __ __ __ _
 72
    65
 73
     2
 40
19.050000000000001
 49
12.699999999999999
 49
-6.3499999999999988
  0
LTYPE
  2
DASHED2
 70
     0
  3
Dashed (.5x) _ _ _ _ _ _ _ _ _ _ _ _ _ _ _ _ _
 72
    65
 73
     2
 40
9.5249999999999986
 49
6.3499999999999988
 49
-3.1749999999999989
  0
LTYPE
  2
ZIGZAG
 70
     0
  3
Zig zag /\/\/\/\/\/\/\/\/\/\/\/\/\/\/\/\/\/\/\/
 72
    65
 73
     4
 40
20.32254
 49
0.00254
 49
-5.0800000000000001
 49
-10.16
 49
-5.0800000000000001
  0
LTYPE
  2
AM_ISO02W050
 70
     0
  3
__ __ __ __ __ __ __ __ __ __ __ __ __ __ __
 72
    65
 73
     2
 40
7.5
 49
6.0
 49
-1.5
  0
LTYPE
  2
AMCONSTR
 70
     0
  3
_______________________
 72
    65
 73
     2
 40
9999.0
 49
9999.0
 49
0.0
  0
LTYPE
  2
AMZIGZAG
 70
     0
  3
/\/-/\/-/\/-/\/-/\/-/\/
 72
    65
 73
     2
 40
11.0001
 49
0.0001
 49
-11.0
  0
LTYPE
  2
ACJISTGB
 70
     0
  3
__ . . __ . .
 72
    65
 73
     6
 40
9.0
 49
4.0
 49
-1.0
 49
1.0
 49
-1.0
 49
1.0
 49
-1.0
  0
LTYPE
  2
ACJISTGL
 70
     0
  3
_ _ _ _ _
 72
    65
 73
     2
 40
3.0
 49
2.0
 49
-1.0
  0
LTYPE
  2
ACISOWELD
 70
     0
  3
_ _ _ _ _
 72
    65
 73
     2
 40
2.0
 49
2.0
 49
-1.0
  0
LTYPE
  2
ACISOTGB
 70
     0
  3
__ . . __ . .
 72
    65
 73
     6
 40
9.0
 49
4.0
 49
-1.0
 49
1.0
 49
-1.0
 49
1.0
 49
-1.0
  0
LTYPE
  2
ACISOTGL
 70
     0
  3
_ _ _ _ _
 72
    65
 73
     2
 40
3.0
 49
2.0
 49
-1.0
  0
LTYPE
  2
HIDDEN
 70
     0
  3
Hidden __ __ __ __ __ __ __ __ __ __ __ __ __ _
 72
    65
 73
     2
 40
9.5249999999999986
 49
6.3499999999999988
 49
-3.1749999999999989
  0
LTYPE
  2
AM_ISO08W050
 70
     0
  3
____ . ____ . ____ . ____ . ____ . ____ . ____
 72
    65
 73
     4
 40
18.0
 49
12.0
 49
-1.5
 49
3.0
 49
-1.5
  0
LTYPE
  2
AM_ISO09W050
 70
     0
  3
_____ . . _____ . . _____ . . ____ .. ____
 72
    65
 73
     6
 40
22.5
 49
12.0
 49
-1.5
 49
3.0
 49
-1.5
 49
3.0
 49
-1.5
  0
LTYPE
  2
AM_ISO08W050X2
 70
     0
  3
__ . __ . __ . __ . __ . __
 72
    65
 73
     4
 40
9.0
 49
6.0
 49
-0.75
 49
1.5
 49
-0.75
  0
LTYPE
  2
AM_ISO02W050X2
 70
     0
  3
 _ _ _ _ _ _ _ _ _ _ _ _
 72
    65
 73
     2
 40
3.75
 49
3.0
 49
-0.75
  0
LTYPE
  2
DDM
 70
     0
  3
中点線
 72
    65
 73
     2
 40
3.0
 49
2.0
 49
-1.0
  0
LTYPE
  2
DD1
 70
     0
  3
一点鎖線
 72
    65
 73
     4
 40
11.1
 49
7.5
 49
-1.1999999999999991
 49
1.1999999999999991
 49
-1.1999999999999991
  0
LTYPE
  2
DD2
 70
     0
  3
二点鎖線
 72
    65
 73
     6
 40
12.0
 49
6.0
 49
-1.1999999999999991
 49
1.1999999999999991
 49
-1.1999999999999991
 49
1.1999999999999991
 49
-1.1999999999999991
  0
LTYPE
  2
CENTER1
 70
     0
  3
----- - ----- - ----- - ----- - 
 72
    65
 73
     4
 40
10.0
 49
6.25
 49
-1.25
 49
1.25
 49
-1.25
  0
LTYPE
  2
HIDDEN2
 70
     0
  3
Hidden (.5x) _ _ _ _ _ _ _ _ _ _ _ _ _ _ _ _ _
 72
    65
 73
     2
 40
0.1875
 49
0.125
 49
-0.0625
  0
LTYPE
  2
ACANSTGB
 70
     0
  3
__ . . __ . .
 72
    65
 73
     6
 40
0.35433070866
 49
0.15748031496
 49
-0.03937007874
 49
0.03937007874
 49
-0.03937007874
 49
0.03937007874
 49
-0.03937007874
  0
LTYPE
  2
ACANSTGL
 70
     0
  3
_ _ _ _ _
 72
    65
 73
     2
 40
0.11811023622
 49
0.07874015748
 49
-0.03937007874
  0
ENDTAB
  0
TABLE
  2
LAYER
 70
    11
  0
LAYER
  2
0
 70
     0
 62
     7
  6
CONTINUOUS
  0
LAYER
  2
KI1
 70
     0
 62
     7
  6
CONTINUOUS
  0
LAYER
  2
SU
 70
     0
 62
     3
  6
CONTINUOUS
  0
LAYER
  2
MJ
 70
     0
 62
     2
  6
CONTINUOUS
  0
LAYER
  2
OS
 70
     0
 62
     2
  6
CONTINUOUS
  0
LAYER
  2
KI2
 70
     0
 62
     4
  6
CONTINUOUS
  0
LAYER
  2
PH
 70
     0
 62
     6
  6
PHANTOM2
  0
LAYER
  2
WK
 70
     4
 62
     7
  6
CONTINUOUS
  0
LAYER
  2
DEFPOINTS
 70
     1
 62
     7
  6
CONTINUOUS
  0
LAYER
  2
TS
 70
     0
 62
     6
  6
DASHED2
  0
LAYER
  2
CL
 70
     0
 62
     4
  6
CENTER2
  0
ENDTAB
  0
TABLE
  2
STYLE
 70
     4
  0
STYLE
  2
STANDARD
 70
     0
 40
0.0
 41
0.8299999999999999
 50
0.0
 71
     0
 42
12.5
  3
romans.shx
  4
extfont.shx
  0
STYLE
  2

 70
     1
 40
0.0
 41
1.0
 50
0.0
 71
     0
 42
2.5
  3
ltypeshp.shx
  4

  0
STYLE
  2
ACISOGDT
 70
     0
 40
0.0
 41
1.0
 50
0.0
 71
     0
 42
2.5
  3
amgdt.shx
  4

  0
STYLE
  2
ACANSGDT
 70
     0
 40
0.0
 41
1.0
 50
0.0
 71
     0
 42
12.5
  3
amgdt.shx
  4

  0
ENDTAB
  0
TABLE
  2
VIEW
 70
     6
  0
VIEW
  2
AM_VIEW1
 70
     0
 40
297.5
 10
-194.33547008547001
 20
148.25
 41
457.32905982905982
 11
0.0
 21
0.0
 31
1.0
 12
0.0
 22
0.0
 32
0.0
 42
50.0
 43
0.0
 44
0.0
 50
0.0
 71
     0
  0
VIEW
  2
AM_VIEW2
 70
     0
 40
297.5
 10
189.33547008547001
 20
148.25
 41
457.32905982905982
 11
0.0
 21
0.0
 31
1.0
 12
0.0
 22
0.0
 32
0.0
 42
50.0
 43
0.0
 44
0.0
 50
0.0
 71
     0
  0
VIEW
  2
AM_VIEW3
 70
     0
 40
297.5
 10
-194.33547008547001
 20
-149.25
 41
457.32905982905982
 11
0.0
 21
0.0
 31
1.0
 12
0.0
 22
0.0
 32
0.0
 42
50.0
 43
0.0
 44
0.0
 50
0.0
 71
     0
  0
VIEW
  2
AM_VIEW4
 70
     0
 40
297.5
 10
189.33547008547001
 20
-149.25
 41
457.32905982905982
 11
0.0
 21
0.0
 31
1.0
 12
0.0
 22
0.0
 32
0.0
 42
50.0
 43
0.0
 44
0.0
 50
0.0
 71
     0
  0
VIEW
  2
AM_VIEW5
 70
     0
 40
297.5
 10
-2.5
 20
-0.5
 41
457.32905982905982
 11
0.0
 21
0.0
 31
1.0
 12
0.0
 22
0.0
 32
0.0
 42
50.0
 43
0.0
 44
0.0
 50
0.0
 71
     0
  0
VIEW
  2
AM_VIEW6
 70
     0
 40
594.99405000000002
 10
-2.5
 20
-0.5
 41
914.6489730769232
 11
0.0
 21
0.0
 31
1.0
 12
0.0
 22
0.0
 32
0.0
 42
50.0
 43
0.0
 44
0.0
 50
0.0
 71
     0
  0
ENDTAB
  0
TABLE
  2
UCS
 70
     0
  0
ENDTAB
  0
TABLE
  2
APPID
 70
    48
  0
APPID
  2
ACAD
 70
     0
  0
APPID
  2
MCAD_NO_VIS
 70
     0
  0
APPID
  2
ACAD_TEMP_GRAPHIC
 70
     0
  0
APPID
  2
ACATTRIBSERVICES
 70
     0
  0
APPID
  2
GENIUS_GENDIMSH_14
 70
     0
  0
APPID
  2
GENIUS_GENODEF_13
 70
     0
  0
APPID
  2
GENIUS_GENOENT_13
 70
     0
  0
APPID
  2
GENIUS_GENOBJ-N-TIT_13
 70
     0
  0
APPID
  2
GENIUS_GENOLIS_13
 70
     0
  0
APPID
  2
GENIUS_GENTITLE_13
 70
     0
  0
APPID
  2
GENIUS_GENOREF_13
 70
     0
  0
APPID
  2
GENIUS_GENSCREG_15
 70
     0
  0
APPID
  2
GENIUS_GENOBJ-N-SDF_13
 70
     0
  0
APPID
  2
GENIUS_GENOBJ-N-REV_13
 70
     0
  0
APPID
  2
GENIUS_GENOBJ-N-RSSYM_13
 70
     0
  0
APPID
  2
GENIUS_GENSYMENT_13
 70
     0
  0
APPID
  2
GENIUS_GENSCSYM_13
 70
     0
  0
APPID
  2
GENIUS_GENOBJ-N-CEN_13
 70
     0
  0
APPID
  2
GENIUS_GENOBJ-N-FIL_13
 70
     0
  0
APPID
  2
GENIUS_GENBH_13
 70
     0
  0
APPID
  2
GENIUS_GENOBJ-NBEHI-BHF_13
 70
     0
  0
APPID
  2
GENIUS_GENFIL_13
 70
     0
  0
APPID
  2
GENIUS_GENOBJ-N-CHA_13
 70
     0
  0
APPID
  2
GENIUS_GENOBJ-NBEHI-BHB_13
 70
     0
  0
APPID
  2
GENIUS_GENOBJ-N-CRS_13
 70
     0
  0
APPID
  2
GENIUS_GENDTOL_13
 70
     0
  0
APPID
  2
AD_DRAW
 70
     0
  0
APPID
  2
DESIGNERASSEMBLIES
 70
     0
  0
APPID
  2
ACADM_DIM_EDIT
 70
     0
  0
APPID
  2
AMDT_DM_ADJ
 70
     0
  0
APPID
  2
ACAD_PSEXT
 70
     0
  0
APPID
  2
ACAECLAYERSTANDARD
 70
     0
  0
APPID
  2
DCO15
 70
     0
  0
APPID
  2
GENIUS_GENOBJ-N-HTC_13
 70
     0
  0
APPID
  2
GENIUS_GENHATCH_13
 70
     0
  0
APPID
  2
ACAD_NAV_VCDISPLAY
 70
     0
  0
APPID
  2
ACAD_DSTYLE_DIMARC_LENGTH_
 70
     0
  0
APPID
  2
GENIUS_GENREC_14
 70
     0
  0
APPID
  2
GENIUS_GENOBJ-N-REC_13
 70
     0
  0
APPID
  2
GENIUS_GENCEN_19
 70
     0
  0
APPID
  2
ACAD_DSTYLE_DIMBREAK
 70
     0
  0
APPID
  2
ACAD_DSTYLE_DIMJAG
 70
     0
  0
APPID
  2
ACAD_DSTYLE_DIMINSPECT
 70
     0
  0
APPID
  2
ACAD_EXEMPT_FROM_CAD_STANDARDS
 70
     0
  0
APPID
  2
ACADANNOTATIVE
 70
     0
  0
APPID
  2
ACADANNOMONITORALERTICONDI
 70
     0
  0
APPID
  2
CONTENTBLOCKICON
 70
     0
  0
APPID
  2
ACAD_MLEADERVER
 70
     0
  0
ENDTAB
  0
TABLE
  2
DIMSTYLE
 70
    18
  0
DIMSTYLE
  2
SANKYO
 70
     0
  3

  4
"
  5
DOTSMALL
  6

  7

 40
1.0
 41
7.0
 42
1.0
 43
7.0
 44
3.0
 45
0.0
 46
0.0
 47
0.1
 48
0.1
140
7.0
141
0.0
142
0.0
143
0.0393701
144
1.0
145
0.0
146
0.71
147
1.3
 71
     0
 72
     0
 73
     0
 74
     0
 75
     0
 76
     0
 77
     1
 78
     8
170
     0
171
     2
172
     1
173
     0
174
     0
175
     0
176
   256
177
   256
178
   256
  0
DIMSTYLE
  2
AM_ISO
 70
     0
  3

  4
"
  5

  6

  7

 40
1.0
 41
1.6000000000000001
 42
1.0
 43
7.0
 44
1.0
 45
0.0
 46
0.0
 47
0.1
 48
0.1
140
2.5
141
0.0
142
0.0
143
0.0393701
144
1.0
145
0.0
146
0.71
147
0.625
 71
     0
 72
     0
 73
     0
 74
     0
 75
     0
 76
     0
 77
     1
 78
     8
170
     0
171
     2
172
     1
173
     0
174
     0
175
     0
176
   256
177
   256
178
   256
  0
DIMSTYLE
  2
AM_ISO$3
 70
     0
  3

  4
"
  5

  6

  7

 40
1.0
 41
1.6000000000000001
 42
1.0
 43
7.0
 44
1.0
 45
0.0
 46
0.0
 47
0.1
 48
0.1
140
2.5
141
0.0
142
0.0
143
0.0393701
144
1.0
145
0.0
146
0.71
147
0.625
 71
     0
 72
     0
 73
     0
 74
     0
 75
     0
 76
     0
 77
     1
 78
     8
170
     0
171
     2
172
     1
173
     0
174
     0
175
     0
176
   256
177
   256
178
   256
  0
DIMSTYLE
  2
AM_ISO$4
 70
     0
  3

  4
"
  5

  6

  7

 40
1.0
 41
1.6000000000000001
 42
1.0
 43
7.0
 44
1.0
 45
0.0
 46
0.0
 47
0.1
 48
0.1
140
2.5
141
0.0
142
0.0
143
0.0393701
144
1.0
145
0.0
146
0.71
147
0.625
 71
     0
 72
     0
 73
     0
 74
     0
 75
     0
 76
     0
 77
     1
 78
     8
170
     0
171
     2
172
     1
173
     0
174
     0
175
     0
176
   256
177
   256
178
   256
  0
DIMSTYLE
  2
AM_ISO$6
 70
     0
  3

  4
"
  5

  6

  7

 40
1.0
 41
1.6000000000000001
 42
1.0
 43
7.0
 44
1.0
 45
0.0
 46
0.0
 47
0.1
 48
0.1
140
2.5
141
0.0
142
0.0
143
0.0393701
144
1.0
145
0.0
146
0.71
147
0.625
 71
     0
 72
     0
 73
     0
 74
     0
 75
     0
 76
     0
 77
     0
 78
     8
170
     0
171
     2
172
     1
173
     0
174
     0
175
     0
176
   256
177
   256
178
   256
  0
DIMSTYLE
  2
AM_ISO$7
 70
     0
  3

  4
"
  5

  6

  7

 40
1.0
 41
1.6000000000000001
 42
1.0
 43
7.0
 44
1.0
 45
0.0
 46
0.0
 47
0.1
 48
0.1
140
2.5
141
0.0
142
0.0
143
0.0393701
144
1.0
145
0.0
146
0.71
147
0.625
 71
     0
 72
     0
 73
     0
 74
     0
 75
     0
 76
     0
 77
     1
 78
     8
170
     0
171
     2
172
     1
173
     0
174
     0
175
     0
176
   256
177
   256
178
   256
  0
DIMSTYLE
  2
AM_ISO$SF
 70
     0
  3

  4
"
  5

  6

  7

 40
1.0
 41
2.5
 42
1.0
 43
10.0
 44
1.0
 45
0.0
 46
0.0
 47
0.1
 48
0.1
140
3.5
141
0.0
142
0.0
143
0.0393701
144
1.0
145
0.0
146
0.71
147
1.5
 71
     0
 72
     0
 73
     0
 74
     0
 75
     1
 76
     1
 77
     1
 78
     8
170
     0
171
     2
172
     1
173
     0
174
     0
175
     0
176
   256
177
   256
178
     2
  0
DIMSTYLE
  2
AM_ISO$SH
 70
     0
  3

  4
"
  5

  6
GENAXEH
  7

 40
1.0
 41
2.5
 42
1.0
 43
10.0
 44
1.0
 45
0.0
 46
0.0
 47
0.1
 48
0.1
140
3.5
141
0.0
142
0.0
143
0.0393701
144
2.0
145
0.0
146
0.71
147
1.5
 71
     0
 72
     0
 73
     0
 74
     0
 75
     1
 76
     1
 77
     1
 78
     8
170
     0
171
     2
172
     1
173
     1
174
     0
175
     0
176
   256
177
   256
178
     2
  0
DIMSTYLE
  2
AM_ISO$2
 70
     0
  3

  4
"
  5

  6

  7

 40
1.0
 41
1.6000000000000001
 42
1.0
 43
7.0
 44
1.0
 45
0.0
 46
0.0
 47
0.1
 48
0.1
140
2.5
141
0.0
142
0.0
143
0.0393701
144
1.0
145
0.0
146
0.71
147
0.625
 71
     0
 72
     0
 73
     0
 74
     0
 75
     0
 76
     0
 77
     1
 78
     8
170
     0
171
     2
172
     1
173
     0
174
     0
175
     0
176
   256
177
   256
178
   256
  0
DIMSTYLE
  2
AM_ISO$0
 70
     0
  3

  4
"
  5

  6

  7

 40
1.0
 41
1.6000000000000001
 42
1.0
 43
7.0
 44
1.0
 45
0.0
 46
0.0
 47
0.1
 48
0.1
140
2.5
141
0.0
142
0.0
143
0.0393701
144
1.0
145
0.0
146
0.71
147
0.625
 71
     0
 72
     0
 73
     0
 74
     0
 75
     0
 76
     0
 77
     1
 78
     8
170
     0
171
     2
172
     1
173
     0
174
     0
175
     0
176
   256
177
   256
178
   256
  0
DIMSTYLE
  2
STANDARD
 70
     0
  3

  4

  5

  6

  7

 40
1.0
 41
0.18
 42
0.0625
 43
0.38
 44
0.18
 45
0.0
 46
0.0
 47
0.0
 48
0.0
140
0.18
141
0.09
142
0.0
143
25.399999999999999
144
1.0
145
0.0
146
1.0
147
0.09
 71
     0
 72
     0
 73
     1
 74
     1
 75
     0
 76
     0
 77
     0
 78
     0
170
     0
171
     2
172
     0
173
     0
174
     0
175
     0
176
     0
177
     0
178
     0
  0
DIMSTYLE
  2
SANKYO$0
 70
     0
  3

  4
"
  5
DOTSMALL
  6

  7

 40
1.0
 41
7.0
 42
1.0
 43
7.0
 44
3.0
 45
0.0
 46
0.0
 47
0.1
 48
0.1
140
7.0
141
0.0
142
0.0
143
0.0393701
144
1.0
145
0.0
146
0.71
147
1.3
 71
     0
 72
     0
 73
     0
 74
     0
 75
     0
 76
     0
 77
     1
 78
     8
170
     0
171
     2
172
     1
173
     0
174
     0
175
     0
176
   256
177
   256
178
   256
  0
DIMSTYLE
  2
AM_ANSI
 70
     0
  3

  4
mm
  5

  6

  7

 40
1.0
 41
0.12
 42
0.05
 43
0.5
 44
0.1
 45
0.0
 46
0.0
 47
0.1
 48
0.1
140
0.12
141
0.0
142
0.0
143
25.399999999999999
144
1.0
145
0.0
146
0.71
147
0.06
 71
     0
 72
     0
 73
     1
 74
     1
 75
     0
 76
     0
 77
     0
 78
     7
170
     0
171
     2
172
     0
173
     0
174
     0
175
     0
176
   256
177
   256
178
     2
  0
DIMSTYLE
  2
AM_ANSI$3
 70
     0
  3

  4
mm
  5

  6

  7

 40
1.0
 41
0.12
 42
0.05
 43
0.5
 44
0.1
 45
0.0
 46
0.0
 47
0.1
 48
0.1
140
0.12
141
0.0
142
0.0
143
25.399999999999999
144
1.0
145
0.0
146
0.71
147
0.06
 71
     0
 72
     0
 73
     1
 74
     1
 75
     0
 76
     0
 77
     0
 78
     7
170
     0
171
     2
172
     0
173
     0
174
     0
175
     0
176
   256
177
   256
178
     2
  0
DIMSTYLE
  2
AM_ANSI$4
 70
     0
  3

  4
mm
  5

  6

  7

 40
1.0
 41
0.12
 42
0.05
 43
0.5
 44
0.1
 45
0.0
 46
0.0
 47
0.1
 48
0.1
140
0.12
141
0.0
142
0.0
143
25.399999999999999
144
1.0
145
0.0
146
0.71
147
0.06
 71
     0
 72
     0
 73
     1
 74
     1
 75
     0
 76
     0
 77
     0
 78
     7
170
     0
171
     2
172
     0
173
     0
174
     0
175
     0
176
   256
177
   256
178
     2
  0
DIMSTYLE
  2
AM_ANSI$7
 70
     0
  3

  4
mm
  5

  6

  7

 40
1.0
 41
0.12
 42
0.05
 43
0.5
 44
0.1
 45
0.0
 46
0.0
 47
0.1
 48
0.1
140
0.12
141
0.0
142
0.0
143
25.399999999999999
144
1.0
145
0.0
146
0.71
147
0.06
 71
     0
 72
     0
 73
     1
 74
     1
 75
     0
 76
     0
 77
     0
 78
     7
170
     0
171
     2
172
     0
173
     0
174
     0
175
     0
176
   256
177
   256
178
     2
  0
DIMSTYLE
  2
AM_ANSI$SF
 70
     0
  3

  4
mm
  5

  6

  7

 40
1.0
 41
0.12
 42
0.05
 43
0.5
 44
0.1
 45
0.0
 46
0.0
 47
0.1
 48
0.1
140
0.12
141
0.0
142
0.0
143
25.399999999999999
144
1.0
145
0.0
146
0.71
147
0.06
 71
     0
 72
     0
 73
     1
 74
     1
 75
     1
 76
     1
 77
     0
 78
     7
170
     0
171
     2
172
     0
173
     0
174
     0
175
     0
176
   256
177
   256
178
     2
  0
DIMSTYLE
  2
AM_ANSI$SH
 70
     0
  3

  4
mm
  5

  6
GENAXEH
  7

 40
1.0
 41
0.12
 42
0.05
 43
0.5
 44
0.1
 45
0.0
 46
0.0
 47
0.1
 48
0.1
140
0.12
141
0.0
142
0.0
143
25.399999999999999
144
1.0
145
0.0
146
0.71
147
0.06
 71
     0
 72
     0
 73
     1
 74
     1
 75
     1
 76
     1
 77
     0
 78
     7
170
     0
171
     2
172
     0
173
     1
174
     0
175
     0
176
   256
177
   256
178
     2
  0
ENDTAB
  0
ENDSEC
  0
SECTION
  2
BLOCKS
  0
BLOCK
  8
0
  2
$MODEL_SPACE
 70
     0
 10
0.0
 20
0.0
 30
0.0
  3
$MODEL_SPACE
  1

  0
ENDBLK
  5
1A
  8
0
  0
BLOCK
 67
     1
  8
0
  2
$PAPER_SPACE
 70
     0
 10
0.0
 20
0.0
 30
0.0
  3
$PAPER_SPACE
  1

  0
ENDBLK
  5
17
 67
     1
  8
0
  0
BLOCK
  8
0
  2
GENAXEH
 70
     0
 10
0.0
 20
0.0
 30
0.0
  3
GENAXEH
  1

  0
LINE
  5
102
  8
0
 10
-1.0
 20
0.0
 30
0.0
 11
1.0
 21
0.0
 31
0.0
  0
ENDBLK
  5
104
  8
0
  0
BLOCK
  8
0
  2
_OPEN
 70
     0
 10
0.0
 20
0.0
 30
0.0
  3
_OPEN
  1

  0
LINE
  5
30B
  8
0
  6
BYBLOCK
 62
     0
 10
-1.0
 20
0.1666666666666666
 30
0.0
 11
0.0
 21
0.0
 31
0.0
  0
LINE
  5
30C
  8
0
  6
BYBLOCK
 62
     0
 10
-1.0
 20
-0.1666666666666666
 30
0.0
 11
0.0
 21
0.0
 31
0.0
  0
LINE
  5
30D
  8
0
  6
BYBLOCK
 62
     0
 10
0.0
 20
0.0
 30
0.0
 11
-1.0
 21
0.0
 31
0.0
  0
ENDBLK
  5
30F
  8
0
  0
BLOCK
  8
0
  2
_DOTSMALL
 70
     0
 10
0.0
 20
0.0
 30
0.0
  3
_DOTSMALL
  1

  0
POLYLINE
  5
A331
  8
0
  6
BYBLOCK
 62
     0
 66
     1
 10
0.0
 20
0.0
 30
0.0
 70
     1
 40
0.5
 41
0.5
  0
VERTEX
  5
1EDE4
  8
0
  6
BYBLOCK
 62
     0
 10
-0.0625
 20
0.0
 30
0.0
 42
1.0
  0
VERTEX
  5
1EDE5
  8
0
  6
BYBLOCK
 62
     0
 10
0.0625
 20
0.0
 30
0.0
 42
1.0
  0
SEQEND
  5
1EDE6
  8
0
  6
BYBLOCK
 62
     0
  0
ENDBLK
  5
A333
  8
0
  0
ENDSEC
  0
SECTION
  2
ENTITIES
  0
LINE
  5
9B1A
  8
WK
 10
23.5
 20
16.25
 30
0.0
 11
1165.5
 21
16.25
 31
0.0
  0
LINE
  5
9B1C
  8
WK
 10
23.5
 20
824.75
 30
0.0
 11
23.5
 21
16.25
 31
0.0
  0
TEXT
  5
9BE2
  8
WK
 10
22.5
 20
16.25
 30
0.0
 40
3.2000000000000002
  1
A0
 50
90.0
 41
0.8299999999999999
  0
LINE
  5
9C31
  8
WK
 10
1085.5
 20
34.25
 30
0.0
 11
1085.5
 21
16.25
 31
0.0
  0
LINE
  5
9C32
  8
WK
 10
890.49999999999989
 20
34.25
 30
0.0
 11
890.49999999999989
 21
16.25
 31
0.0
  0
LINE
  5
9C34
  8
WK
 10
1045.5
 20
34.25
 30
0.0
 11
1045.5
 21
16.25
 31
0.0
  0
LINE
  5
9C35
  8
WK
 10
1065.5
 20
34.25
 30
0.0
 11
1065.5
 21
16.25
 31
0.0
  0
LINE
  5
9C37
  8
WK
 10
1005.5
 20
34.25
 30
0.0
 11
1005.5
 21
16.25
 31
0.0
  0
LINE
  5
9C38
  8
WK
 10
985.5
 20
34.25
 30
0.0
 11
985.5
 21
16.25
 31
0.0
  0
LINE
  5
9C3A
  8
WK
 10
890.49999999999989
 20
34.25
 30
0.0
 11
1165.5
 21
34.25
 31
0.0
  0
LINE
  5
9C3B
  8
WK
 10
899.5
 20
26.25
 30
0.0
 11
972.49999999999989
 21
26.25
 31
0.0
  0
LINE
  5
9C3E
  8
WK
 10
1005.5
 20
22.25
 30
0.0
 11
1045.5
 21
22.25
 31
0.0
  0
LINE
  5
9C3F
  8
WK
 10
1005.5
 20
28.25
 30
0.0
 11
1045.5
 21
28.25
 31
0.0
  0
LINE
  5
9C46
  8
WK
 10
1151.8094750193111
 20
25.25
 30
0.0
 11
1163.8094750193111
 21
25.25
 31
0.0
  0
CIRCLE
  5
9C47
  8
WK
 10
1157.8094750193111
 20
25.25
 30
0.0
 40
6.0
  0
TEXT
  5
9C56
  8
WK
 10
992.52780952380954
 20
20.649999643948512
 30
0.0
 40
3.2000000000000002
  1
1:1
 41
0.8299999999999999
 72
     4
 11
995.5
 21
22.249999643948509
 31
0.0
  0
TEXT
  5
9C57
  8
WK
 10
1087.8031333333331
 20
30.150000000000009
 30
0.0
 40
3.2000000000000002
  1
図番
 41
0.8299999999999999
  0
TEXT
  5
9C58
  8
WK
 10
1067.9290000000001
 20
30.150000000000009
 30
0.0
 40
3.2000000000000002
  1
検図
 41
0.8299999999999999
  0
TEXT
  5
9C59
  8
WK
 10
1047.9290000000001
 20
30.150000000000009
 30
0.0
 40
3.2000000000000002
  1
作図
 41
0.8299999999999999
  0
TEXT
  5
9C5A
  8
WK
 10
1006.5535725057121
 20
29.149999999999999
 30
0.0
 40
3.2000000000000002
  1
作成
 41
0.8299999999999999
  0
TEXT
  5
9C5B
  8
WK
 10
1006.5535725057121
 20
23.149999999999999
 30
0.0
 40
3.2000000000000002
  1
制定
 41
0.8299999999999999
  0
TEXT
  5
9C5C
  8
WK
 10
1006.5535725057121
 20
17.149999999999999
 30
0.0
 40
3.2000000000000002
  1
廃止
 41
0.8299999999999999
  0
TEXT
  5
9C5D
  8
WK
 10
986.42899999999997
 20
30.149999999999999
 30
0.0
 40
3.2000000000000002
  1
尺度
 41
0.8299999999999999
  0
TEXT
  5
9C5E
  8
WK
 10
973.49999999999989
 20
18.25
 30
0.0
 40
4.0
  1
基準図
 41
0.8
  0
TEXT
  5
9C77
  8
WK
 10
892.30313333333345
 20
30.150000000000009
 30
0.0
 40
3.2000000000000002
  1
図名
 41
0.8299999999999999
  0
LINE
  5
9E0D
  8
WK
 10
23.5
 20
824.75
 30
0.0
 11
1165.5
 21
824.75
 31
0.0
  0
LINE
  5
9E18
  8
WK
 10
1165.5
 20
824.75
 30
0.0
 11
1165.5
 21
16.25
 31
0.0
  0
TEXT
  5
12887
  8
WK
 10
1130.0726417273511
 20
826.75
 30
0.0
 40
4.0
  1
大栄建材株式会社
 41
0.9
 72
     2
 11
1163.672641727351
 21
826.75
 31
0.0
  0
TEXT
  5
13021
  8
MJ
 10
1005.5
 20
42.25
 30
0.0
 40
7.0
  1
cl11a001
 41
0.8299999999999999
  0
TEXT
  5
13022
  8
MJ
 10
1005.5
 20
69.25
 30
0.0
 40
7.0
  1
クレーヴァ25・35　Ｙレール引戸
 41
0.8299999999999999
  0
TEXT
  5
13023
  8
MJ
 10
1005.5
 20
60.25
 30
0.0
 40
7.0
  1
片引き戸
 41
0.8299999999999999
  0
TEXT
  5
13024
  8
MJ
 10
1005.5
 20
78.25
 30
0.0
 40
7.0
  1
スーパースクリーン　クレーヴァ
 41
0.8299999999999999
  0
TEXT
  5
13025
  8
MJ
 10
1005.5
 20
51.25
 30
0.0
 40
7.0
  1
たて横断面
 41
0.8299999999999999
  0
LINE
  5
15C93
  8
KI1
 10
217.9470492611749
 20
627.10574473009865
 30
0.0
 11
250.9470404794931
 21
627.10574473009865
 31
0.0
  0
LINE
  5
15C96
  8
KI2
 10
230.94704926124339
 20
333.11057788732762
 30
0.0
 11
233.44704926124339
 21
331.61057788732751
 31
0.0
  0
LINE
  5
15C97
  8
KI2
 10
230.94704926124339
 20
335.60574394672591
 30
0.0
 11
230.94704926124339
 21
333.11057788732762
 31
0.0
  0
LINE
  5
15C98
  8
KI2
 10
235.44704926124339
 20
330.11057788732762
 30
0.0
 11
234.44704926124339
 21
330.11057788732762
 31
0.0
  0
LINE
  5
15C99
  8
KI2
 10
233.44704926124339
 20
330.11057788732762
 30
0.0
 11
234.44704926124339
 21
330.11057788732762
 31
0.0
  0
LINE
  5
15C9A
  8
KI2
 10
237.94704926124331
 20
333.11057788732762
 30
0.0
 11
235.44704926124339
 21
331.61057788732751
 31
0.0
  0
LINE
  5
15C9B
  8
KI2
 10
237.94704926124331
 20
335.60574394672591
 30
0.0
 11
237.94704926124331
 21
333.11057788732762
 31
0.0
  0
LINE
  5
15C9C
  8
KI2
 10
235.44704926124339
 20
335.60574394672591
 30
0.0
 11
235.44704926124339
 21
330.11057788732762
 31
0.0
  0
LINE
  5
15C9D
  8
KI2
 10
233.44704926124339
 20
335.60574394672591
 30
0.0
 11
233.44704926124339
 21
330.11057788732762
 31
0.0
  0
LINE
  5
15C9E
  8
KI2
 10
219.4470492612443
 20
335.6057439467258
 30
0.0
 11
249.4470492612443
 21
335.60574394672602
 31
0.0
  0
LINE
  5
15C9F
  8
KI1
 10
217.9470492612443
 20
337.1057439467258
 30
0.0
 11
250.9470492611749
 21
337.1057439467258
 31
0.0
  0
ARC
  5
15CA0
  8
KI2
 10
219.4470492612443
 20
337.1057439467258
 30
0.0
 40
1.5
 50
180.0
 51
270.0
  0
ARC
  5
15CA1
  8
KI2
 10
249.4470492612443
 20
337.1057439467258
 30
0.0
 40
1.5
 50
270.0
 51
0.0
  0
LINE
  5
15CA3
  8
PH
 10
621.3159698081937
 20
303.98474779943712
 30
0.0
 11
821.31596980819324
 21
303.98474779943803
 31
0.0
  0
LINE
  5
15CA4
  8
PH
 10
821.31596980819324
 20
270.98474779943791
 30
0.0
 11
621.3159698081937
 21
270.98474779943712
 31
0.0
  0
LINE
  5
15CA5
  8
PH
 10
621.3159698081937
 20
303.98474779943751
 30
0.0
 11
621.3159698081937
 21
270.98474779943751
 31
0.0
  0
LINE
  5
15CA7
  8
KI2
 10
618.31596980819393
 20
268.98474875116477
 30
0.0
 11
989.3159698081937
 21
268.98474875116477
 31
0.0
  0
LINE
  5
15CA8
  8
KI2
 10
618.31596980819393
 20
285.38474875116492
 30
0.0
 11
786.31597131918272
 21
285.38474875116498
 31
0.0
  0
LINE
  5
15CA9
  8
KI2
 10
618.31596980819393
 20
297.48474875116477
 30
0.0
 11
786.31596980819324
 21
297.48474875116477
 31
0.0
  0
LINE
  5
15CAA
  8
KI2
 10
618.31596980819393
 20
289.58474875116468
 30
0.0
 11
786.31597233456705
 21
289.58474875116468
 31
0.0
  0
LINE
  5
15CAB
  8
KI1
 10
786.3159698081937
 20
303.98474779943791
 30
0.0
 11
986.31596980819359
 21
303.98474779943791
 31
0.0
  0
LINE
  5
15CAD
  8
KI1
 10
986.31596980819359
 20
270.98474875116318
 30
0.0
 11
786.3159698081937
 21
270.98474875116318
 31
0.0
  0
LINE
  5
15CAE
  8
KI1
 10
786.3159698081937
 20
270.98474875116318
 30
0.0
 11
786.3159698081937
 21
303.98474779943791
 31
0.0
  0
LINE
  5
15CAF
  8
PH
 10
821.31596980819324
 20
303.98474779943791
 30
0.0
 11
821.31596980819324
 21
270.98474875116318
 31
0.0
  0
LINE
  5
15CB0
  8
OS
 10
599.81596980819393
 20
355.48474779943513
 30
0.0
 11
553.81596735966502
 21
309.48467815573758
 31
0.0
  0
LINE
  5
15CB1
  8
OS
 10
553.81596735966502
 20
239.9847477994351
 30
0.0
 11
599.81596980819393
 21
239.9847477994351
 31
0.0
  0
LINE
  5
15CB2
  8
OS
 10
553.81596735966502
 20
237.9847477994351
 30
0.0
 11
612.31596980819393
 21
237.9847477994351
 31
0.0
  0
LINE
  5
15CB3
  8
OS
 10
553.81596735966502
 20
231.9847477994351
 30
0.0
 11
618.31596980819393
 21
231.9847477994351
 31
0.0
  0
LINE
  5
15CB4
  8
OS
 10
553.81596735966502
 20
296.48492125943608
 30
0.0
 11
599.81596980819393
 21
250.4847477994351
 31
0.0
  0
LINE
  5
15CB5
  8
OS
 10
553.81596735966502
 20
248.4847477994351
 30
0.0
 11
599.81596980819393
 21
248.4847477994351
 31
0.0
  0
LINE
  5
15CB6
  8
OS
 10
553.81596735966502
 20
250.4847477994351
 30
0.0
 11
599.815969808202
 21
250.4847477994351
 31
0.0
  0
LINE
  5
15CB7
  8
OS
 10
553.81596735966502
 20
365.98474779943513
 30
0.0
 11
808.81596980819324
 21
365.98474779943513
 31
0.0
  0
LINE
  5
15CB8
  8
OS
 10
553.81596735966502
 20
367.98474779943513
 30
0.0
 11
821.31596980819324
 21
367.9847477994353
 31
0.0
  0
LINE
  5
15CB9
  8
OS
 10
553.81596735966502
 20
373.98474779943513
 30
0.0
 11
827.31596980819324
 21
373.9847477994353
 31
0.0
  0
LINE
  5
15CBA
  8
OS
 10
553.81596735966502
 20
357.48474779943513
 30
0.0
 11
808.81596980819324
 21
357.4847477994353
 31
0.0
  0
LINE
  5
15CBB
  8
OS
 10
553.81596735966502
 20
355.48474779943513
 30
0.0
 11
808.81596980819324
 21
355.48474779943513
 31
0.0
  0
LINE
  5
15CBC
  8
OS
 10
599.81596980819393
 20
325.48474779943513
 30
0.0
 11
808.81596980819324
 21
325.48474779943513
 31
0.0
  0
LINE
  5
15CBD
  8
OS
 10
599.81596980819393
 20
312.98474779943501
 30
0.0
 11
821.31596980819324
 21
312.98474779943513
 31
0.0
  0
LINE
  5
15CBE
  8
OS
 10
618.31596980819393
 20
306.98474779943501
 30
0.0
 11
827.31596980819324
 21
306.98474779943513
 31
0.0
  0
LINE
  5
15CBF
  8
OS
 10
599.81596980819393
 20
355.48474779943513
 30
0.0
 11
599.81596980819393
 21
237.9847477994351
 31
0.0
  0
LINE
  5
15CC0
  8
OS
 10
601.81596980819359
 20
312.9847497994366
 30
0.0
 11
601.81596980819393
 21
237.9847477994351
 31
0.0
  0
LINE
  5
15CC1
  8
OS
 10
612.3159698081937
 20
312.98474779943501
 30
0.0
 11
612.31596980819393
 21
237.9847477994351
 31
0.0
  0
LINE
  5
15CC2
  8
OS
 10
610.31596980819359
 20
312.98474779943501
 30
0.0
 11
610.31596980819393
 21
237.9847477994351
 31
0.0
  0
LINE
  5
15CC3
  8
OS
 10
618.31596980819393
 20
306.98474779943501
 30
0.0
 11
618.31596980819393
 21
231.9847477994351
 31
0.0
  0
LINE
  5
15CC4
  8
OS
 10
629.81596980819381
 20
355.48474779943513
 30
0.0
 11
629.81596980819381
 21
325.48474779943501
 31
0.0
  0
LINE
  5
15CC5
  8
OS
 10
629.81596980819381
 20
325.48474779943513
 30
0.0
 11
599.81596980819393
 21
355.48474779943513
 31
0.0
  0
LINE
  5
15CC6
  8
OS
 10
778.81596980819324
 20
355.48474779943513
 30
0.0
 11
778.81596980819324
 21
325.48474779943501
 31
0.0
  0
LINE
  5
15CC7
  8
OS
 10
778.81596980819324
 20
355.48474779943513
 30
0.0
 11
808.81596980819324
 21
325.48474779943513
 31
0.0
  0
LINE
  5
15CC8
  8
OS
 10
599.81596980819393
 20
323.4847477994349
 30
0.0
 11
808.81596980819324
 21
323.48474779943501
 31
0.0
  0
LINE
  5
15CC9
  8
OS
 10
599.81596980819393
 20
314.98474779943513
 30
0.0
 11
808.81596980819324
 21
314.98474779943513
 31
0.0
  0
LINE
  5
15CCA
  8
OS
 10
821.31596980819324
 20
312.98474779943513
 30
0.0
 11
821.31596980819324
 21
367.9847477994353
 31
0.0
  0
LINE
  5
15CCB
  8
OS
 10
827.31596980819324
 20
306.98474779943513
 30
0.0
 11
827.31596980819324
 21
373.9847477994353
 31
0.0
  0
LINE
  5
15CCC
  8
OS
 10
819.31596980819324
 20
312.98474779943513
 30
0.0
 11
819.31596980819324
 21
367.9847477994353
 31
0.0
  0
LINE
  5
15CCD
  8
OS
 10
808.81596980819324
 20
312.98474779943513
 30
0.0
 11
808.81596980819324
 21
367.9847477994353
 31
0.0
  0
LINE
  5
15CCE
  8
OS
 10
810.81596980819324
 20
312.98474779943513
 30
0.0
 11
810.81596980819324
 21
367.9847477994353
 31
0.0
  0
LINE
  5
15CD0
  8
KI1
 10
217.9470492611749
 20
627.10574473009865
 30
0.0
 11
217.9470492611749
 21
337.1057439467258
 31
0.0
  0
LINE
  5
15CD1
  8
KI1
 10
250.9470492611749
 20
627.10574473009865
 30
0.0
 11
250.9470492611749
 21
337.1057439467258
 31
0.0
  0
LINE
  5
15CE8
  8
KI2
 10
230.94704926124339
 20
125.68856304334111
 30
0.0
 11
233.44704926124339
 21
124.18856304334111
 31
0.0
  0
LINE
  5
15CE9
  8
KI2
 10
230.94704926124339
 20
129.78300748772091
 30
0.0
 11
230.94704926124339
 21
125.68856304334111
 31
0.0
  0
LINE
  5
15CEA
  8
KI2
 10
235.44704926124339
 20
122.68856304334111
 30
0.0
 11
234.44704926124339
 21
122.68856304334111
 31
0.0
  0
LINE
  5
15CEB
  8
KI2
 10
233.44704926124339
 20
122.68856304334111
 30
0.0
 11
234.44704926124339
 21
122.68856304334111
 31
0.0
  0
LINE
  5
15CEC
  8
KI2
 10
237.94704926124331
 20
125.68856304334111
 30
0.0
 11
235.44704926124339
 21
124.18856304334111
 31
0.0
  0
LINE
  5
15CED
  8
KI2
 10
237.94704926124331
 20
129.78300748772091
 30
0.0
 11
237.94704926124331
 21
125.68856304334111
 31
0.0
  0
LINE
  5
15CEE
  8
KI2
 10
235.44704926124339
 20
129.78300748772091
 30
0.0
 11
235.44704926124339
 21
122.68856304334111
 31
0.0
  0
LINE
  5
15CEF
  8
KI2
 10
233.44704926124339
 20
129.78300748772091
 30
0.0
 11
233.44704926124339
 21
122.68856304334111
 31
0.0
  0
LINE
  5
15CF0
  8
KI2
 10
219.4470492612443
 20
129.78300748772079
 30
0.0
 11
249.4470492612443
 21
129.78300748772091
 31
0.0
  0
LINE
  5
15CF1
  8
KI1
 10
217.9470492612443
 20
131.28300748772079
 30
0.0
 11
250.9470492611749
 21
131.28300748772079
 31
0.0
  0
ARC
  5
15CF2
  8
KI2
 10
219.4470492612443
 20
131.28300748772079
 30
0.0
 40
1.5
 50
180.0
 51
270.0
  0
ARC
  5
15CF3
  8
KI2
 10
249.4470492612443
 20
131.28300748772079
 30
0.0
 40
1.5
 50
270.0
 51
0.0
  0
LINE
  5
15CF4
  8
KI1
 10
217.9470492611749
 20
244.28300748772091
 30
0.0
 11
217.9470492611749
 21
131.28300748772079
 31
0.0
  0
LINE
  5
15CF5
  8
KI1
 10
250.9470492611749
 20
244.28300748772091
 30
0.0
 11
250.9470492611749
 21
131.28300748772079
 31
0.0
  0
LINE
  5
15CF6
  8
OS
 10
227.4470492611749
 20
124.28300748772079
 30
0.0
 11
227.4470492611749
 21
112.28300748772079
 31
0.0
  0
LINE
  5
15CF7
  8
OS
 10
241.4470492611749
 20
124.28300748772079
 30
0.0
 11
241.4470492611749
 21
112.28300748772079
 31
0.0
  0
LINE
  5
15CFD
  8
OS
 10
1007.815969808193
 20
367.98474779943513
 30
0.0
 11
1007.815969808193
 21
237.9847477994351
 31
0.0
  0
LINE
  5
15CFE
  8
OS
 10
1005.815969808193
 20
367.98474779943513
 30
0.0
 11
1005.815969808193
 21
237.9847477994351
 31
0.0
  0
LINE
  5
15CFF
  8
OS
 10
995.31596980819359
 20
367.98474779943513
 30
0.0
 11
995.31596980819359
 21
237.9847477994351
 31
0.0
  0
LINE
  5
15D00
  8
OS
 10
989.3159698081937
 20
373.98474779943513
 30
0.0
 11
989.3159698081937
 21
231.9847477994351
 31
0.0
  0
LINE
  5
15D01
  8
OS
 10
997.3159698081937
 20
367.98474779943513
 30
0.0
 11
997.3159698081937
 21
237.9847477994351
 31
0.0
  0
LINE
  5
15D02
  8
OS
 10
1007.815969808193
 20
355.48474779943513
 30
0.0
 11
1053.815972256722
 21
309.48467815573753
 31
0.0
  0
LINE
  5
15D03
  8
OS
 10
1053.815972256722
 20
239.9847477994351
 30
0.0
 11
1007.815969808193
 21
239.9847477994351
 31
0.0
  0
LINE
  5
15D04
  8
OS
 10
1053.815972256722
 20
237.9847477994351
 30
0.0
 11
995.31596980819359
 21
237.9847477994351
 31
0.0
  0
LINE
  5
15D05
  8
OS
 10
1053.815972256722
 20
231.9847477994351
 30
0.0
 11
989.3159698081937
 21
231.9847477994351
 31
0.0
  0
LINE
  5
15D06
  8
OS
 10
1053.815972256722
 20
296.48492125943608
 30
0.0
 11
1007.815969808193
 21
250.4847477994351
 31
0.0
  0
LINE
  5
15D07
  8
OS
 10
1053.815972256722
 20
248.4847477994351
 30
0.0
 11
1007.815969808193
 21
248.4847477994351
 31
0.0
  0
LINE
  5
15D08
  8
OS
 10
1053.815972256722
 20
250.4847477994351
 30
0.0
 11
1007.815969808193
 21
250.4847477994351
 31
0.0
  0
LINE
  5
15D09
  8
OS
 10
1053.815972256722
 20
365.98474779943513
 30
0.0
 11
1007.815969808193
 21
365.98474779943513
 31
0.0
  0
LINE
  5
15D0A
  8
OS
 10
1053.815972256722
 20
367.98474779943513
 30
0.0
 11
995.31596980819359
 21
367.98474779943513
 31
0.0
  0
LINE
  5
15D0B
  8
OS
 10
1053.815972256722
 20
373.98474779943513
 30
0.0
 11
989.3159698081937
 21
373.98474779943513
 31
0.0
  0
LINE
  5
15D0C
  8
OS
 10
1053.815972256722
 20
357.48474779943513
 30
0.0
 11
1007.815969808193
 21
357.48474779943513
 31
0.0
  0
LINE
  5
15D0D
  8
OS
 10
1053.815972256722
 20
355.48474779943513
 30
0.0
 11
1007.815969808193
 21
355.48474779943513
 31
0.0
  0
TEXT
  5
15D0E
  8
SU
 10
1044.353813639907
 20
391.86158451676732
 30
0.0
 40
7.9999999999999982
  1
巾木
 41
0.9
  0
TEXT
  5
15D15
  8
SU
 10
757.34822573607391
 20
391.86158451676732
 30
0.0
 40
7.9999999999999982
  1
巾木
 41
0.9
  0
LINE
  5
15D18
  8
OS
 10
219.1970416945683
 20
664.10574394563082
 30
0.0
 11
108.94710624401699
 21
664.10574394563082
 31
0.0
  0
LINE
  5
15D19
  8
OS
 10
219.1970416945683
 20
673.60574394563082
 30
0.0
 11
108.94710624401699
 21
673.60574394563082
 31
0.0
  0
LINE
  5
15D1A
  8
OS
 10
271.44704169456833
 20
748.60574394563082
 30
0.0
 11
271.44704169456833
 21
673.60574394563082
 31
0.0
  0
LINE
  5
15D1B
  8
OS
 10
166.44704169456821
 20
748.60574394563082
 30
0.0
 11
166.44704169456821
 21
673.60574394563082
 31
0.0
  0
LINE
  5
15D1C
  8
OS
 10
328.94710624401711
 20
671.60574394563071
 30
0.0
 11
249.6970416945683
 21
671.60574394563071
 31
0.0
  0
LINE
  5
15D1D
  8
OS
 10
219.1970416945683
 20
671.60574394563071
 30
0.0
 11
108.94710624401699
 21
671.60574394563071
 31
0.0
  0
LINE
  5
15D1E
  8
OS
 10
328.94710624401711
 20
666.10574394563082
 30
0.0
 11
249.6970416945683
 21
666.10574394563082
 31
0.0
  0
LINE
  5
15D1F
  8
OS
 10
219.1970416945683
 20
666.10574394563082
 30
0.0
 11
108.94710624401699
 21
666.10574394563082
 31
0.0
  0
LINE
  5
15D20
  8
OS
 10
121.4471574509662
 20
718.60574394563082
 30
0.0
 11
121.4471574509662
 21
673.60574394563082
 31
0.0
  0
LINE
  5
15D21
  8
OS
 10
121.4471574509662
 20
718.60574394563082
 30
0.0
 11
166.44704169456821
 21
718.60574394563082
 31
0.0
  0
LINE
  5
15D22
  8
OS
 10
121.4471574509662
 20
673.60574394563082
 30
0.0
 11
166.44704169456821
 21
718.60574394563082
 31
0.0
  0
LINE
  5
15D23
  8
OS
 10
316.44544045182118
 20
718.60821967767367
 30
0.0
 11
316.44658310944942
 21
673.60821969218114
 31
0.0
  0
LINE
  5
15D24
  8
OS
 10
316.44544045182118
 20
718.60821967767367
 30
0.0
 11
271.44555622272668
 21
718.6070770229851
 31
0.0
  0
LINE
  5
15D25
  8
OS
 10
271.44704169456833
 20
673.60574394563082
 30
0.0
 11
316.44544045182118
 21
718.60821967767367
 31
0.0
  0
LINE
  5
15D26
  8
OS
 10
328.94710624401711
 20
664.10574394563105
 30
0.0
 11
249.6970416945683
 21
664.10574394563082
 31
0.0
  0
LINE
  5
15D27
  8
OS
 10
328.94710624401711
 20
673.60574394563082
 30
0.0
 11
249.6970416945683
 21
673.60574394563082
 31
0.0
  0
LINE
  5
15D29
  8
OS
 10
219.1970416945683
 20
664.10574394563082
 30
0.0
 11
249.6970416945683
 21
673.60574394563082
 31
0.0
  0
LINE
  5
15D2A
  8
OS
 10
153.94704169456821
 20
664.10574394563082
 30
0.0
 11
153.94704169456821
 21
388.10574394672591
 31
0.0
  0
LINE
  5
15D2B
  8
OS
 10
208.9470416945683
 20
664.10574394563082
 30
0.0
 11
208.9470416945683
 21
388.10574394672591
 31
0.0
  0
LINE
  5
15D2C
  8
OS
 10
283.94704169456833
 20
664.10574394563082
 30
0.0
 11
283.94704169456833
 21
388.10574394672591
 31
0.0
  0
LINE
  5
15D2E
  8
OS
 10
289.94704169456833
 20
388.10574394672591
 30
0.0
 11
250.9470492611749
 21
388.10574394672591
 31
0.0
  0
LINE
  5
15D2F
  8
TS
 10
283.94704169456833
 20
388.10574394672591
 30
0.0
 11
283.94704169456833
 21
328.10574394672591
 31
0.0
  0
LINE
  5
15D30
  8
OS
 10
289.94704169456833
 20
388.10574394672591
 30
0.0
 11
289.94704169456833
 21
328.10574394672591
 31
0.0
  0
LINE
  5
15D32
  8
OS
 10
217.9470492611749
 20
388.10574394672591
 30
0.0
 11
147.94704169456821
 21
388.10574394672591
 31
0.0
  0
LINE
  5
15D33
  8
TS
 10
208.9470416945683
 20
388.10574394672591
 30
0.0
 11
208.9470416945683
 21
328.10574394672591
 31
0.0
  0
LINE
  5
15D34
  8
OS
 10
214.9470416945683
 20
388.10574394672591
 30
0.0
 11
214.9470416945683
 21
328.10574394672591
 31
0.0
  0
LINE
  5
15D35
  8
TS
 10
153.94704169456821
 20
388.10574394672591
 30
0.0
 11
153.94704169456821
 21
328.10574394672591
 31
0.0
  0
LINE
  5
15D36
  8
OS
 10
147.94704169456821
 20
388.10574394672591
 30
0.0
 11
147.94704169456821
 21
328.10574394672591
 31
0.0
  0
LINE
  5
15D37
  8
OS
 10
153.94704169456821
 20
244.28300748772091
 30
0.0
 11
153.94704169456821
 21
184.28300748772079
 31
0.0
  0
LINE
  5
15D38
  8
OS
 10
208.9470416945683
 20
244.28300748772091
 30
0.0
 11
208.9470416945683
 21
184.28300748772079
 31
0.0
  0
LINE
  5
15D39
  8
OS
 10
283.94704169456833
 20
244.28300748772091
 30
0.0
 11
283.94704169456833
 21
184.28300748772079
 31
0.0
  0
LINE
  5
15D3A
  8
OS
 10
289.94704169456833
 20
184.28300748772079
 30
0.0
 11
250.9470492611749
 21
184.28300748772079
 31
0.0
  0
LINE
  5
15D3B
  8
TS
 10
283.94704169456833
 20
184.28300748772079
 30
0.0
 11
283.94704169456833
 21
124.28300748772079
 31
0.0
  0
LINE
  5
15D3C
  8
OS
 10
289.94704169456833
 20
184.28300748772079
 30
0.0
 11
289.94704169456833
 21
124.28300748772079
 31
0.0
  0
LINE
  5
15D3D
  8
OS
 10
217.9470492611749
 20
184.28300748772091
 30
0.0
 11
147.94704169456821
 21
184.28300748772079
 31
0.0
  0
LINE
  5
15D3E
  8
TS
 10
208.9470416945683
 20
184.28300748772079
 30
0.0
 11
208.9470416945683
 21
124.28300748772079
 31
0.0
  0
LINE
  5
15D3F
  8
OS
 10
214.9470416945683
 20
184.28300748772079
 30
0.0
 11
214.9470416945683
 21
124.28300748772079
 31
0.0
  0
LINE
  5
15D40
  8
TS
 10
153.94704169456821
 20
184.28300748772079
 30
0.0
 11
153.94704169456821
 21
124.28300748772079
 31
0.0
  0
LINE
  5
15D41
  8
OS
 10
147.94704169456821
 20
184.28300748772079
 30
0.0
 11
147.94704169456821
 21
124.28300748772079
 31
0.0
  0
TEXT
  5
15D43
  8
SU
 10
116.9881392253735
 20
386.48318990815261
 30
0.0
 40
7.9999999999999956
  1
巾木
 41
0.9
  0
TEXT
  5
15D45
  8
SU
 10
116.9881392253735
 20
182.6604534491475
 30
0.0
 40
7.9999999999999956
  1
巾木
 41
0.9
  0
LINE
  5
15D46
  8
OS
 10
241.4467628725674
 20
748.60574394563082
 30
0.0
 11
166.44704169456821
 21
673.60574394563082
 31
0.0
  0
LINE
  5
15D60
  8
KI2
 10
986.31596980819359
 20
297.48474875116477
 30
0.0
 11
989.3159698081937
 21
297.48474875116477
 31
0.0
  0
LINE
  5
164C1
  8
KI2
 10
236.09861482498141
 20
120.0225901774631
 30
0.0
 11
234.74704926124409
 21
120.0225901774631
 31
0.0
  0
LINE
  5
164C2
  8
KI2
 10
234.74704926124409
 20
116.3225901774631
 30
0.0
 11
235.1970492612441
 21
116.3225901774631
 31
0.0
  0
LINE
  5
164C3
  8
KI2
 10
232.34704926124411
 20
123.9240484332507
 30
0.0
 11
232.34704926124411
 21
122.3225901774632
 31
0.0
  0
LINE
  5
164C4
  8
KI2
 10
229.5470492612441
 20
125.0225901774631
 30
0.0
 11
229.5470492612441
 21
121.6225901774631
 31
0.0
  0
ARC
  5
164C5
  8
KI2
 10
234.44704926124399
 20
116.3225901774631
 30
0.0
 40
0.3
 50
90.0
 51
180.0
  0
LINE
  5
164C6
  8
KI2
 10
230.94704926124399
 20
116.8225901774631
 30
0.0
 11
230.34704926124411
 21
116.1225901774631
 31
0.0
  0
ARC
  5
164C7
  8
KI2
 10
234.44704926124399
 20
116.3225901774631
 30
0.0
 40
0.3
 50
0.0
 51
90.0
  0
LINE
  5
164C8
  8
KI2
 10
230.24704926124409
 20
115.3225901774631
 30
0.0
 11
230.94704926124399
 21
115.3225901774631
 31
0.0
  0
LINE
  5
164C9
  8
KI2
 10
229.74704926124409
 20
116.1225901774631
 30
0.0
 11
230.34704926124411
 21
116.1225901774631
 31
0.0
  0
ARC
  5
164CA
  8
KI2
 10
230.24704926124409
 20
115.8225901774631
 30
0.0
 40
0.5
 50
180.0
 51
270.0
  0
LINE
  5
164CB
  8
KI2
 10
229.74704926124409
 20
116.1225901774631
 30
0.0
 11
229.74704926124409
 21
115.8225901774631
 31
0.0
  0
LINE
  5
164CC
  8
KI2
 10
234.14704926124409
 20
116.3225901774631
 30
0.0
 11
233.6970492612441
 21
116.3225901774631
 31
0.0
  0
LINE
  5
164CD
  8
KI2
 10
233.6970492612441
 20
116.3225901774631
 30
0.0
 11
233.1970492612441
 21
115.6225901774631
 31
0.0
  0
LINE
  5
164CE
  8
KI2
 10
231.24704926124409
 20
115.6225901774631
 30
0.0
 11
230.94704926124399
 21
115.3225901774631
 31
0.0
  0
LINE
  5
164CF
  8
KI2
 10
231.24704926124409
 20
115.6225901774631
 30
0.0
 11
233.1970492612441
 21
115.6225901774631
 31
0.0
  0
LINE
  5
164D0
  8
KI2
 10
230.94704926124399
 20
118.2225901774631
 30
0.0
 11
229.84704926124411
 21
121.2625901774631
 31
0.0
  0
ARC
  5
164D1
  8
KI2
 10
232.7954836975068
 20
120.5225901774631
 30
0.0
 40
0.5
 50
180.0
 51
270.0
  0
ARC
  5
164D2
  8
KI2
 10
234.44704926124399
 20
120.0225901774631
 30
0.0
 40
0.3
 50
180.0
 51
270.0
  0
POINT
  5
164D3
  8
KI2
 10
230.94704926124399
 20
117.70850190464751
 30
0.0
  0
LINE
  5
164D4
  8
KI2
 10
232.7954836975068
 20
120.0225901774631
 30
0.0
 11
234.14704926124409
 21
120.0225901774631
 31
0.0
  0
LINE
  5
164D5
  8
KI2
 10
230.94704926124399
 20
118.2225901774631
 30
0.0
 11
230.94704926124399
 21
116.8225901774631
 31
0.0
  0
ARC
  5
164D6
  8
KI2
 10
234.44704926124399
 20
120.0225901774631
 30
0.0
 40
0.3
 50
270.0
 51
0.0
  0
LINE
  5
164D7
  8
KI2
 10
229.5470492612441
 20
121.6225901774631
 30
0.0
 11
229.84704926124411
 21
121.2625901774631
 31
0.0
  0
LINE
  5
164D8
  8
KI2
 10
232.24704926124409
 20
122.3225901774632
 30
0.0
 11
232.34704926124411
 21
122.3225901774632
 31
0.0
  0
LINE
  5
164D9
  8
KI2
 10
232.2954836975068
 20
120.8225901774632
 30
0.0
 11
232.24704926124409
 21
120.8225901774632
 31
0.0
  0
LINE
  5
164DA
  8
KI2
 10
232.2954836975068
 20
120.5225901774631
 30
0.0
 11
232.2954836975068
 21
120.8225901774632
 31
0.0
  0
ARC
  5
164DB
  8
KI2
 10
232.24704926124409
 20
121.5725901774632
 30
0.0
 40
0.75
 50
90.0
 51
270.0
  0
LINE
  5
164DC
  8
KI2
 10
229.84704926124411
 20
125.3225901774631
 30
0.0
 11
230.84704926124411
 21
125.3225901774631
 31
0.0
  0
ARC
  5
164DD
  8
KI2
 10
229.84704926124411
 20
125.0225901774631
 30
0.0
 40
0.3
 50
90.0
 51
180.0
  0
LINE
  5
164DE
  8
KI2
 10
232.2398855441501
 20
124.1538617661864
 30
0.0
 11
230.847049261244
 21
125.3225901774631
 31
0.0
  0
ARC
  5
164DF
  8
KI2
 10
232.0470492612441
 20
123.9240484332507
 30
0.0
 40
0.3
 50
0.0
 51
49.999999999998131
  0
LINE
  5
164E0
  8
KI2
 10
236.5470492612441
 20
123.9240484332507
 30
0.0
 11
236.5470492612441
 21
122.3225901774632
 31
0.0
  0
LINE
  5
164E1
  8
KI2
 10
239.34704926124411
 20
125.0225901774631
 30
0.0
 11
239.34704926124411
 21
121.6225901774631
 31
0.0
  0
LINE
  5
164E2
  8
KI2
 10
237.9470492612441
 20
116.8225901774631
 30
0.0
 11
238.5470492612441
 21
116.1225901774631
 31
0.0
  0
LINE
  5
164E3
  8
KI2
 10
239.14704926124409
 20
116.1225901774631
 30
0.0
 11
238.5470492612441
 21
116.1225901774631
 31
0.0
  0
ARC
  5
164E4
  8
KI2
 10
238.64704926124409
 20
115.8225901774631
 30
0.0
 40
0.5
 50
270.0
 51
0.0
  0
LINE
  5
164E5
  8
KI2
 10
237.64704926124409
 20
115.6225901774631
 30
0.0
 11
235.6970492612441
 21
115.6225901774631
 31
0.0
  0
LINE
  5
164E6
  8
KI2
 10
235.1970492612441
 20
116.3225901774631
 30
0.0
 11
235.6970492612441
 21
115.6225901774631
 31
0.0
  0
LINE
  5
164E7
  8
KI2
 10
237.64704926124409
 20
115.6225901774631
 30
0.0
 11
237.9470492612441
 21
115.3225901774631
 31
0.0
  0
LINE
  5
164E8
  8
KI2
 10
238.64704926124409
 20
115.3225901774631
 30
0.0
 11
237.9470492612441
 21
115.3225901774631
 31
0.0
  0
LINE
  5
164E9
  8
KI2
 10
239.14704926124409
 20
116.1225901774631
 30
0.0
 11
239.14704926124409
 21
115.8225901774631
 31
0.0
  0
ARC
  5
164EA
  8
KI2
 10
236.09861482498141
 20
120.5225901774631
 30
0.0
 40
0.5
 50
270.0
 51
0.0
  0
LINE
  5
164EB
  8
KI2
 10
237.9470492612441
 20
118.2225901774631
 30
0.0
 11
239.0470492612441
 21
121.2625901774631
 31
0.0
  0
POINT
  5
164EC
  8
KI2
 10
237.9470492612441
 20
117.70850190464751
 30
0.0
  0
LINE
  5
164ED
  8
KI2
 10
237.9470492612441
 20
118.2225901774631
 30
0.0
 11
237.9470492612441
 21
116.8225901774631
 31
0.0
  0
LINE
  5
164EE
  8
KI2
 10
236.64704926124409
 20
122.3225901774632
 30
0.0
 11
236.5470492612441
 21
122.3225901774632
 31
0.0
  0
LINE
  5
164EF
  8
KI2
 10
236.59861482498141
 20
120.8225901774632
 30
0.0
 11
236.64704926124409
 21
120.8225901774632
 31
0.0
  0
LINE
  5
164F0
  8
KI2
 10
236.59861482498141
 20
120.5225901774631
 30
0.0
 11
236.59861482498141
 21
120.8225901774632
 31
0.0
  0
ARC
  5
164F1
  8
KI2
 10
236.64704926124409
 20
121.5725901774632
 30
0.0
 40
0.75
 50
270.0
 51
90.0
  0
LINE
  5
164F2
  8
KI2
 10
239.34704926124411
 20
121.6225901774631
 30
0.0
 11
239.0470492612441
 21
121.2625901774631
 31
0.0
  0
LINE
  5
164F3
  8
KI2
 10
239.0470492612441
 20
125.3225901774631
 30
0.0
 11
238.0470492612441
 21
125.3225901774631
 31
0.0
  0
LINE
  5
164F4
  8
KI2
 10
236.65421297833811
 20
124.1538617661864
 30
0.0
 11
238.04704926124421
 21
125.3225901774631
 31
0.0
  0
ARC
  5
164F5
  8
KI2
 10
236.84704926124411
 20
123.9240484332507
 30
0.0
 40
0.3
 50
130.00000000000179
 51
180.0
  0
ARC
  5
164F6
  8
KI2
 10
239.0470492612441
 20
125.0225901774631
 30
0.0
 40
0.3
 50
0.0
 51
90.0
  0
ARC
  5
164F7
  8
KI1
 10
239.94655029177031
 20
124.98301887689421
 30
0.0
 40
0.4999999999999796
 50
81.018765895037859
 51
180.0
  0
LINE
  5
164F8
  8
KI1
 10
238.94655029177031
 20
112.5830188768942
 30
0.0
 11
240.44655029177039
 21
114.0830188768942
 31
0.0
  0
ARC
  5
164F9
  8
KI1
 10
228.94655029177031
 20
124.98301887689421
 30
0.0
 40
0.4999999999999796
 50
0.0
 51
98.981234104962141
  0
ARC
  5
164FA
  8
KI1
 10
227.16370757929559
 20
124.5830188768942
 30
0.0
 40
0.3
 50
269.99999999999352
 51
340.52877936553489
  0
LINE
  5
164FB
  8
KI1
 10
227.16370757929559
 20
124.2830188768943
 30
0.0
 11
223.94655029177031
 21
124.2830188768943
 31
0.0
  0
LINE
  5
164FC
  8
KI1
 10
228.44655029177031
 20
124.48301887689431
 30
0.0
 11
227.44655029177031
 21
124.48301887689431
 31
0.0
  0
LINE
  5
164FD
  8
KI1
 10
223.94655029177031
 20
125.01278151583701
 30
0.0
 11
228.86849481057129
 21
125.4768886389315
 31
0.0
  0
LINE
  5
164FE
  8
KI1
 10
223.94655029177031
 20
124.2830188768943
 30
0.0
 11
223.94655029177031
 21
125.01278151583701
 31
0.0
  0
ARC
  5
164FF
  8
KI1
 10
229.3465502917704
 20
119.8130188768942
 30
0.0
 40
0.5
 50
281.53695903281812
 51
36.869897645846308
  0
LINE
  5
16500
  8
KI1
 10
229.44655029177031
 20
120.51301887689429
 30
0.0
 11
229.7465502917704
 21
120.1130188768942
 31
0.0
  0
LINE
  5
16501
  8
KI1
 10
229.94655029177039
 20
112.5830188768942
 30
0.0
 11
228.44655029177031
 21
114.0830188768942
 31
0.0
  0
LINE
  5
16502
  8
KI1
 10
229.94655029177039
 20
112.5830188768942
 30
0.0
 11
238.94655029177031
 21
112.5830188768942
 31
0.0
  0
LINE
  5
16503
  8
KI1
 10
234.7465502917704
 20
113.5830188768942
 30
0.0
 11
238.44655029177031
 21
113.5830188768942
 31
0.0
  0
ARC
  5
16504
  8
KI1
 10
234.44655029177031
 20
113.5830188768942
 30
0.0
 40
0.3
 50
180.0
 51
0.0
  0
LINE
  5
16505
  8
KI1
 10
239.28233672939729
 20
114.3330188768942
 30
0.0
 11
239.44655029177031
 21
114.49723243926729
 31
0.0
  0
LINE
  5
16506
  8
KI1
 10
239.44655029177031
 20
120.51301887689429
 30
0.0
 11
239.14655029177041
 21
120.1130188768942
 31
0.0
  0
LINE
  5
16507
  8
KI1
 10
239.44655029177031
 20
114.49723243926729
 30
0.0
 11
239.44655029177031
 21
119.3231209283376
 31
0.0
  0
ARC
  5
16508
  8
KI1
 10
239.5465502917705
 20
119.8130188768942
 30
0.0
 40
0.5
 50
143.13010235415371
 51
258.46304096718188
  0
LINE
  5
16509
  8
KI1
 10
238.44655029177031
 20
114.3330188768942
 30
0.0
 11
238.44655029177031
 21
113.5830188768942
 31
0.0
  0
LINE
  5
1650A
  8
KI1
 10
238.44655029177031
 20
114.3330188768942
 30
0.0
 11
239.28233672939729
 21
114.3330188768942
 31
0.0
  0
LINE
  5
1650B
  8
KI1
 10
229.61076385414341
 20
114.3330188768942
 30
0.0
 11
229.44655029177031
 21
114.49723243926729
 31
0.0
  0
LINE
  5
1650C
  8
KI1
 10
230.44655029177031
 20
114.3330188768942
 30
0.0
 11
230.44655029177031
 21
113.5830188768942
 31
0.0
  0
LINE
  5
1650D
  8
KI1
 10
230.44655029177031
 20
114.3330188768942
 30
0.0
 11
229.61076385414341
 21
114.3330188768942
 31
0.0
  0
LINE
  5
1650E
  8
KI1
 10
229.44655029177031
 20
114.49723243926729
 30
0.0
 11
229.44655029177031
 21
119.3231209283376
 31
0.0
  0
LINE
  5
1650F
  8
KI1
 10
234.14655029177041
 20
113.5830188768942
 30
0.0
 11
230.44655029177031
 21
113.5830188768942
 31
0.0
  0
LINE
  5
16510
  8
KI1
 10
239.44655029177031
 20
120.51301887689429
 30
0.0
 11
239.44655029177031
 21
124.98301887689421
 31
0.0
  0
LINE
  5
16511
  8
KI1
 10
229.44655029177031
 20
120.51301887689429
 30
0.0
 11
229.44655029177031
 21
124.98301887689421
 31
0.0
  0
LINE
  5
16512
  8
KI1
 10
228.44655029177031
 20
114.0830188768942
 30
0.0
 11
228.44655029177031
 21
124.48301887689431
 31
0.0
  0
LINE
  5
16513
  8
KI1
 10
244.94655029177031
 20
124.2830188768943
 30
0.0
 11
244.94655029177031
 21
125.01278151583701
 31
0.0
  0
LINE
  5
16514
  8
KI1
 10
240.44655029177039
 20
124.48301887689431
 30
0.0
 11
241.44655029177031
 21
124.48301887689431
 31
0.0
  0
LINE
  5
16515
  8
KI1
 10
241.72939300424511
 20
124.2830188768943
 30
0.0
 11
244.94655029177031
 21
124.2830188768943
 31
0.0
  0
ARC
  5
16516
  8
KI1
 10
241.729393004245
 20
124.5830188768942
 30
0.0
 40
0.3
 50
199.47122063446511
 51
270.00000000000648
  0
LINE
  5
16517
  8
KI1
 10
244.94655029177031
 20
125.01278151583701
 30
0.0
 11
240.02460577296941
 21
125.4768886389315
 31
0.0
  0
LINE
  5
16518
  8
KI1
 10
240.44655029177039
 20
114.0830188768942
 30
0.0
 11
240.44655029177039
 21
124.48301887689431
 31
0.0
  0
ARC
  5
1651B
  8
KI1
 10
229.77250497007421
 20
331.40573902738771
 30
0.0
 40
0.5
 50
90.0
 51
130.40000551602199
  0
LINE
  5
1651C
  8
KI1
 10
230.8470542041517
 20
333.10573902738798
 30
0.0
 11
229.1470266646887
 21
333.10573902738798
 31
0.0
  0
LINE
  5
1651D
  8
KI1
 10
225.64704926124651
 20
328.55126617303608
 30
0.0
 11
225.64704926124651
 21
328.10574394672608
 31
0.0
  0
LINE
  5
1651E
  8
KI1
 10
224.44704926124621
 20
329.10574394672699
 30
0.0
 11
224.44704926124621
 21
328.10574394672608
 31
0.0
  0
LINE
  5
1651F
  8
KI1
 10
225.64704926124651
 20
328.10574394672608
 30
0.0
 11
224.44704926124621
 21
328.10574394672608
 31
0.0
  0
LINE
  5
16520
  8
KI1
 10
229.44844498288589
 20
331.78650814995791
 30
0.0
 11
225.64704926124651
 21
328.55126617303608
 31
0.0
  0
LINE
  5
16521
  8
KI1
 10
229.1470266646887
 20
333.10573902738798
 30
0.0
 11
224.44704926124621
 21
329.10574394672699
 31
0.0
  0
LINE
  5
16522
  8
KI1
 10
244.12988797561479
 20
329.30573646167193
 30
0.0
 11
248.8470492612463
 21
329.30573646167193
 31
0.0
  0
ARC
  5
16523
  8
KI1
 10
243.84705164737059
 20
329.30573646167193
 30
0.0
 40
0.3
 50
180.0
 51
0.0
  0
LINE
  5
16524
  8
KI1
 10
238.44704926124629
 20
333.10573902738798
 30
0.0
 11
238.04704431834159
 21
333.10573902738798
 31
0.0
  0
ARC
  5
16525
  8
KI1
 10
232.14704926124651
 20
329.10574394672699
 30
0.0
 40
1.0
 50
180.0
 51
270.0
  0
LINE
  5
16526
  8
KI1
 10
230.8470492612463
 20
333.10573902738798
 30
0.0
 11
232.3470492612463
 21
331.84708958062203
 31
0.0
  0
ARC
  5
16527
  8
KI1
 10
230.8470492612463
 20
331.14762809338879
 30
0.0
 40
0.3
 50
0.0
 51
50.000000000014921
  0
LINE
  5
16528
  8
KI1
 10
230.22829986299431
 20
331.90573902738731
 30
0.0
 11
229.77250497007421
 21
331.90573902738731
 31
0.0
  0
LINE
  5
16529
  8
KI1
 10
230.54969366783769
 20
331.78876124894742
 30
0.0
 11
231.03988554415301
 21
331.37744142632511
 31
0.0
  0
ARC
  5
1652A
  8
KI1
 10
230.22829986299431
 20
331.40573902738771
 30
0.0
 40
0.5
 50
50.000000000014921
 51
90.0
  0
LINE
  5
1652B
  8
KI1
 10
231.14704926124651
 20
329.10574394672699
 30
0.0
 11
231.14704926124651
 21
331.14762809338879
 31
0.0
  0
LINE
  5
1652C
  8
KI1
 10
232.3470492612463
 20
329.30574394672692
 30
0.0
 11
232.3470492612463
 21
331.84708958062203
 31
0.0
  0
LINE
  5
1652D
  8
KI1
 10
232.3470492612463
 20
329.30574394672692
 30
0.0
 11
234.44704926124621
 21
329.30574394672692
 31
0.0
  0
LINE
  5
1652E
  8
KI1
 10
252.94704926124621
 20
328.10574394672432
 30
0.0
 11
232.14704926124651
 21
328.1057439467271
 31
0.0
  0
LINE
  5
1652F
  8
KI1
 10
236.54704926124609
 20
329.30574394672692
 30
0.0
 11
236.54704926124609
 21
331.84708958062203
 31
0.0
  0
LINE
  5
16530
  8
KI1
 10
236.54704926124609
 20
329.30574394672692
 30
0.0
 11
234.44704926124621
 21
329.30574394672692
 31
0.0
  0
LINE
  5
16531
  8
KI1
 10
238.04704926124609
 20
333.10573902738798
 30
0.0
 11
236.54704926124609
 21
331.84708958062203
 31
0.0
  0
LINE
  5
16533
  8
KI1
 10
243.56421054687851
 20
329.30573646167193
 30
0.0
 11
237.74704926124599
 21
329.30573646167193
 31
0.0
  0
LINE
  5
16534
  8
KI1
 10
238.44704926124629
 20
332.00573902738807
 30
0.0
 11
238.29184413625279
 21
332.00573902738807
 31
0.0
  0
LINE
  5
16535
  8
KI1
 10
237.74704926124599
 20
329.30573646167193
 30
0.0
 11
237.74704926124619
 21
331.31544801962502
 31
0.0
  0
LINE
  5
16536
  8
KI1
 10
238.29184413625279
 20
332.00573902738807
 30
0.0
 11
237.92565545640289
 21
331.6984702411844
 31
0.0
  0
ARC
  5
16537
  8
KI1
 10
238.24704926124619
 20
331.31544801962502
 30
0.0
 40
0.5
 50
130.00000000000131
 51
180.0
  0
ARC
  5
16538
  8
KI1
 10
238.44704926124629
 20
332.80573902738797
 30
0.0
 40
0.3
 50
0.0
 51
90.0
  0
ARC
  5
16539
  8
KI1
 10
238.44704926124629
 20
332.30573902738797
 30
0.0
 40
0.3
 50
270.0
 51
0.0
  0
LINE
  5
1653A
  8
KI1
 10
252.94704926124621
 20
328.80574394672459
 30
0.0
 11
252.94704926124621
 21
328.10574394672608
 31
0.0
  0
LINE
  5
1653B
  8
KI1
 10
249.7470492612463
 20
329.10574394672477
 30
0.0
 11
249.7470492612463
 21
330.70574394672468
 31
0.0
  0
LINE
  5
1653C
  8
KI1
 10
249.04704926124651
 20
331.40574394672473
 30
0.0
 11
248.7470492612463
 21
331.40574394672473
 31
0.0
  0
LINE
  5
1653D
  8
KI1
 10
249.7470492612463
 20
329.10574394672477
 30
0.0
 11
252.64704926124611
 21
329.10574394672477
 31
0.0
  0
ARC
  5
1653E
  8
KI1
 10
252.64704926124611
 20
328.80574394672459
 30
0.0
 40
0.3
 50
0.0
 51
90.0
  0
LINE
  5
1653F
  8
KI1
 10
248.44704926124629
 20
331.10574394672477
 30
0.0
 11
248.7470492612463
 21
331.40574394672473
 31
0.0
  0
LINE
  5
16540
  8
KI1
 10
248.8470492612463
 20
329.30573646167193
 30
0.0
 11
248.84704926124641
 21
330.70574394672468
 31
0.0
  0
LINE
  5
16541
  8
KI1
 10
248.84704926124641
 20
330.70574394672468
 30
0.0
 11
248.67428857373531
 21
330.74893411860251
 31
0.0
  0
ARC
  5
16543
  8
KI1
 10
248.7470492612463
 20
331.03997686864619
 30
0.0
 40
0.3
 50
180.0
 51
255.96375653207349
  0
ARC
  5
16544
  8
KI1
 10
249.04704926124629
 20
330.70574394672468
 30
0.0
 40
0.7
 50
0.0
 51
89.999999999993491
  0
LINE
  5
16546
  8
KI1
 10
252.57907218280531
 20
330.06547389373441
 30
0.0
 11
249.3470492612463
 21
332.90573646167178
 31
0.0
  0
ARC
  5
16547
  8
KI1
 10
252.44704926124621
 20
329.5057364611543
 30
0.0
 40
0.2
 50
270.0
 51
0.0
1001
GENIUS_GENODEF_13
1002
{
1000
HIER
1070
     0
1002
}
1002
{
1000
MANEDIT
1070
     0
1002
}
1002
{
1000
NOSEL
1070
     0
1002
}
1002
{
1000
BEHIND
1070
     0
1002
}
1002
{
1000
OTHER
1070
     0
1002
}
1002
{
1000
REACTOR
1002
}
1001
GENIUS_GENOBJ-N-FIL_13
1002
{
1000
OWNER
1000
GEN
1002
}
  0
LINE
  5
16548
  8
KI1
 10
239.3470492612463
 20
329.80573646167193
 30
0.0
 11
239.3470492612463
 21
331.39152289929871
 31
0.0
  0
LINE
  5
16549
  8
KI1
 10
238.3470492612463
 20
331.80573646167193
 30
0.0
 11
238.3470492612463
 21
329.80573646167193
 31
0.0
  0
LINE
  5
1654A
  8
KI1
 10
247.64704926124631
 20
331.70573646167179
 30
0.0
 11
247.64704926124611
 21
329.60573646167188
 31
0.0
  0
LINE
  5
1654B
  8
KI1
 10
248.44704926124609
 20
331.00573646167192
 30
0.0
 11
248.44704926124609
 21
331.70573646167179
 31
0.0
  0
LINE
  5
1654C
  8
KI1
 10
250.24704926100191
 20
330.78356175640022
 30
0.0
 11
249.1976780448455
 21
331.70573646167179
 31
0.0
  0
ARC
  5
1654D
  8
KI1
 10
238.8470492612463
 20
329.80573646167193
 30
0.0
 40
0.5
 50
180.0
 51
0.0
  0
LINE
  5
1654F
  8
KI1
 10
251.17126829893749
 20
329.30573646115442
 30
0.0
 11
250.24704926100191
 21
330.1179289491821
 31
0.0
  0
ARC
  5
16550
  8
KI1
 10
248.397049261246
 20
330.60573646167182
 30
0.0
 40
0.2
 50
340.99036605207033
 51
22.61986494804243
  0
LINE
  5
16551
  8
KI1
 10
248.44704926124601
 20
331.00573646167197
 30
0.0
 11
248.58166464586139
 21
330.68265953859492
 31
0.0
  0
LINE
  5
16552
  8
KI1
 10
248.58614202544291
 20
330.54059103567471
 30
0.0
 11
248.23071241772601
 21
329.50808804306831
 31
0.0
  0
ARC
  5
16553
  8
KI1
 10
247.94704926124601
 20
329.60573646167188
 30
0.0
 40
0.3
 50
180.0
 51
341.00444933722628
  0
LINE
  5
16554
  8
KI1
 10
250.24704926100191
 20
330.1179289491821
 30
0.0
 11
250.24704926100191
 21
330.78356175640022
 31
0.0
  0
LINE
  5
16555
  8
KI1
 10
252.44704926124621
 20
329.30573646115442
 30
0.0
 11
251.17126829893749
 21
329.30573646115442
 31
0.0
  0
LINE
  5
16556
  8
KI1
 10
238.7470492612463
 20
332.90573646167178
 30
0.0
 11
249.3470492612463
 21
332.90573646167178
 31
0.0
  0
LINE
  5
16557
  8
KI1
 10
247.64704926124631
 20
331.70573646167179
 30
0.0
 11
239.6612628236195
 21
331.70573646167179
 31
0.0
  0
LINE
  5
16559
  8
KI1
 10
239.3470492612463
 20
331.39152289929871
 30
0.0
 11
239.6612628236195
 21
331.70573646167179
 31
0.0
  0
LINE
  5
1655A
  8
KI1
 10
238.7470492612463
 20
332.20573646167179
 30
0.0
 11
238.3470492612463
 21
331.80573646167193
 31
0.0
  0
LINE
  5
1655B
  8
KI1
 10
238.7470492612463
 20
332.90573646167178
 30
0.0
 11
238.7470492612463
 21
332.20573646167179
 31
0.0
  0
LINE
  5
1655C
  8
KI1
 10
249.1976780448455
 20
331.70573646167179
 30
0.0
 11
248.44704926124621
 21
331.70573646167179
 31
0.0
  0
LINE
  5
1655D
  8
KI1
 10
252.64704926124631
 20
329.91524091405608
 30
0.0
 11
252.64704926124631
 21
329.5057364611543
 31
0.0
  0
ARC
  5
1655E
  8
KI1
 10
252.44704926124621
 20
329.91524091405608
 30
0.0
 40
0.2
 50
0.0
 51
48.691385981384727
1001
GENIUS_GENODEF_13
1002
{
1000
HIER
1070
     0
1002
}
1002
{
1000
MANEDIT
1070
     0
1002
}
1002
{
1000
NOSEL
1070
     0
1002
}
1002
{
1000
BEHIND
1070
     0
1002
}
1002
{
1000
OTHER
1070
     0
1002
}
1002
{
1000
REACTOR
1002
}
1001
GENIUS_GENOBJ-N-FIL_13
1002
{
1000
OWNER
1000
GEN
1002
}
  0
LINE
  5
16638
  8
KI1
 10
220.1970416945683
 20
662.40574394563089
 30
0.0
 11
228.94704169456821
 21
662.40574394563089
 31
0.0
  0
LINE
  5
16639
  8
KI1
 10
227.64704169456829
 20
636.60574394563082
 30
0.0
 11
222.34704169456839
 21
636.60574394563082
 31
0.0
  0
LINE
  5
1663A
  8
KI1
 10
226.49704169456831
 20
637.75574394563091
 30
0.0
 11
222.99704169456831
 21
637.75574394563091
 31
0.0
  0
LINE
  5
1663B
  8
KI1
 10
220.8470416945683
 20
661.25574394563091
 30
0.0
 11
248.04704169456829
 21
661.25574394563091
 31
0.0
  0
ARC
  5
1663C
  8
KI1
 10
219.6970416945683
 20
663.60574394563082
 30
0.0
 40
0.5
 50
0.0
 51
180.0
  0
ARC
  5
1663D
  8
KI1
 10
219.77204169456829
 20
638.33574394563084
 30
0.0
 40
0.575000000000003
 50
180.0
 51
0.0
  0
LINE
  5
1663E
  8
KI1
 10
219.1970416945683
 20
638.33574394563084
 30
0.0
 11
219.1970416945683
 21
663.60574394563082
 31
0.0
  0
ARC
  5
1663F
  8
KI1
 10
222.4970416945684
 20
640.75574394563091
 30
0.0
 40
0.5
 50
0.0
 51
90.0
  0
LINE
  5
16640
  8
KI1
 10
220.1970416945683
 20
663.60574394563082
 30
0.0
 11
220.1970416945683
 21
662.40574394563089
 31
0.0
  0
LINE
  5
16641
  8
KI1
 10
222.4970416945684
 20
641.25574394563091
 30
0.0
 11
220.34704169456839
 21
641.25574394563091
 31
0.0
  0
LINE
  5
16642
  8
KI1
 10
220.34704169456839
 20
640.10574394563082
 30
0.0
 11
221.84704169456839
 21
640.10574394563082
 31
0.0
  0
LINE
  5
16643
  8
KI1
 10
220.34704169456839
 20
641.25574394563091
 30
0.0
 11
220.34704169456839
 21
660.75574394563091
 31
0.0
  0
LINE
  5
16644
  8
KI1
 10
220.34704169456839
 20
638.33574394563084
 30
0.0
 11
220.34704169456839
 21
640.10574394563082
 31
0.0
  0
ARC
  5
16645
  8
KI1
 10
220.8470416945683
 20
660.75574394563091
 30
0.0
 40
0.4999999999999999
 50
90.0
 51
180.0
  0
ARC
  5
16646
  8
KI1
 10
222.34704169456839
 20
637.10574394563082
 30
0.0
 40
0.5
 50
180.0
 51
270.0
  0
LINE
  5
16647
  8
KI1
 10
221.84704169456839
 20
637.10574394563082
 30
0.0
 11
221.84704169456839
 21
640.10574394563082
 31
0.0
  0
LINE
  5
16648
  8
KI1
 10
222.99704169456831
 20
640.75574394563091
 30
0.0
 11
222.99704169456831
 21
637.75574394563091
 31
0.0
  0
LINE
  5
16649
  8
KI1
 10
254.79704169456829
 20
637.60574394563082
 30
0.0
 11
249.6970416945683
 21
637.60574394563082
 31
0.0
  0
LINE
  5
1664A
  8
KI1
 10
253.9970416945684
 20
636.60574394563082
 30
0.0
 11
241.2470416945684
 21
636.60574394563082
 31
0.0
  0
LINE
  5
1664B
  8
KI1
 10
238.99704169456831
 20
637.60574394563082
 30
0.0
 11
240.9470416945683
 21
637.60574394563082
 31
0.0
  0
LINE
  5
1664C
  8
KI1
 10
238.9983058339173
 20
645.05574394563075
 30
0.0
 11
240.9470416945683
 21
645.05574394563075
 31
0.0
  0
ARC
  5
1664D
  8
KI1
 10
239.1983058339172
 20
644.40574394563066
 30
0.0
 40
0.5
 50
180.0
 51
270.0
  0
LINE
  5
1664E
  8
KI1
 10
238.99704169456831
 20
640.30574394563064
 30
0.0
 11
239.1970416945683
 21
640.30574394563064
 31
0.0
  0
ARC
  5
1664F
  8
KI1
 10
239.4470416945683
 20
663.60574394563082
 30
0.0
 40
0.5
 50
0.0
 51
180.0
  0
LINE
  5
16650
  8
KI1
 10
229.9470416945683
 20
662.40574394563089
 30
0.0
 11
238.9470416945683
 21
662.40574394563089
 31
0.0
  0
LINE
  5
16651
  8
KI1
 10
229.6983058339172
 20
643.90574394563066
 30
0.0
 11
228.14704169456829
 21
643.90574394563066
 31
0.0
  0
LINE
  5
16652
  8
KI1
 10
229.89704169456829
 20
637.60574394563082
 30
0.0
 11
227.9470416945683
 21
637.60574394563082
 31
0.0
  0
LINE
  5
16653
  8
KI1
 10
229.89830583391719
 20
645.05574394563075
 30
0.0
 11
227.9470416945683
 21
645.05574394563075
 31
0.0
  0
LINE
  5
16654
  8
KI1
 10
229.04704169456829
 20
639.30574394563075
 30
0.0
 11
229.6970416945683
 21
640.30574394563064
 31
0.0
  0
ARC
  5
16655
  8
KI1
 10
229.4470416945683
 20
663.60574394563082
 30
0.0
 40
0.5
 50
0.0
 51
180.0
  0
LINE
  5
16656
  8
KI1
 10
228.94704169456821
 20
663.60574394563082
 30
0.0
 11
228.94704169456821
 21
662.40574394563089
 31
0.0
  0
ARC
  5
16657
  8
KI1
 10
227.37204169456831
 20
645.78074394563089
 30
0.0
 40
0.5749999999999959
 50
0.0
 51
180.0
  0
ARC
  5
16658
  8
KI1
 10
227.64704169456829
 20
636.90574394563089
 30
0.0
 40
0.3
 50
270.0
 51
0.0
  0
LINE
  5
16659
  8
KI1
 10
226.79704169456829
 20
638.05574394563087
 30
0.0
 11
226.79704169456829
 21
645.78074394563089
 31
0.0
  0
ARC
  5
1665A
  8
KI1
 10
226.49704169456831
 20
638.05574394563087
 30
0.0
 40
0.3
 50
270.0
 51
0.0
  0
LINE
  5
1665B
  8
KI1
 10
228.14704169456829
 20
643.90574394563066
 30
0.0
 11
227.9470416945683
 21
642.40574394563077
 31
0.0
  0
LINE
  5
1665C
  8
KI1
 10
227.9470416945683
 20
638.90574394563066
 30
0.0
 11
227.9470416945683
 21
642.40574394563077
 31
0.0
  0
LINE
  5
1665D
  8
KI1
 10
229.04704169456829
 20
638.90574394563066
 30
0.0
 11
227.9470416945683
 21
638.90574394563066
 31
0.0
  0
LINE
  5
1665E
  8
KI1
 10
229.04704169456829
 20
639.30574394563075
 30
0.0
 11
229.04704169456829
 21
638.90574394563066
 31
0.0
  0
LINE
  5
1665F
  8
KI1
 10
227.9470416945683
 20
645.78074394563089
 30
0.0
 11
227.9470416945683
 21
645.05574394563075
 31
0.0
  0
LINE
  5
16660
  8
KI1
 10
227.9470416945683
 20
636.90574394563089
 30
0.0
 11
227.9470416945683
 21
637.60574394563082
 31
0.0
  0
LINE
  5
16661
  8
KI1
 10
229.9470416945683
 20
663.60574394563082
 30
0.0
 11
229.9470416945683
 21
662.40574394563089
 31
0.0
  0
ARC
  5
16662
  8
KI1
 10
229.89704169456829
 20
637.90574394563077
 30
0.0
 40
0.3
 50
270.0
 51
0.0
  0
ARC
  5
16663
  8
KI1
 10
229.89830583391719
 20
644.75574394563057
 30
0.0
 40
0.3
 50
0.0
 51
90.0
  0
LINE
  5
16664
  8
KI1
 10
230.1983058339172
 20
644.75574394563057
 30
0.0
 11
230.1983058339172
 21
644.40574394563066
 31
0.0
  0
LINE
  5
16665
  8
KI1
 10
230.1970416945683
 20
640.00574394563068
 30
0.0
 11
230.1970416945683
 21
637.90574394563077
 31
0.0
  0
ARC
  5
16666
  8
KI1
 10
229.89704169456829
 20
640.00574394563068
 30
0.0
 40
0.3
 50
0.0
 51
90.0
  0
LINE
  5
16667
  8
KI1
 10
229.89704169456829
 20
640.30574394563064
 30
0.0
 11
229.6970416945683
 21
640.30574394563064
 31
0.0
  0
ARC
  5
16668
  8
KI1
 10
229.6983058339172
 20
644.40574394563066
 30
0.0
 40
0.5
 50
270.0
 51
0.0
  0
LINE
  5
16669
  8
KI1
 10
238.9470416945683
 20
663.60574394563082
 30
0.0
 11
238.9470416945683
 21
662.40574394563089
 31
0.0
  0
ARC
  5
1666A
  8
KI1
 10
238.99704169456831
 20
637.90574394563077
 30
0.0
 40
0.3
 50
180.0
 51
270.0
  0
ARC
  5
1666B
  8
KI1
 10
238.9983058339173
 20
644.75574394563057
 30
0.0
 40
0.3
 50
90.0
 51
180.0
  0
LINE
  5
1666C
  8
KI1
 10
238.6983058339172
 20
644.75574394563057
 30
0.0
 11
238.6983058339172
 21
644.40574394563066
 31
0.0
  0
LINE
  5
1666D
  8
KI1
 10
238.6970416945683
 20
640.00574394563068
 30
0.0
 11
238.6970416945683
 21
637.90574394563077
 31
0.0
  0
ARC
  5
1666E
  8
KI1
 10
238.99704169456831
 20
640.00574394563068
 30
0.0
 40
0.3
 50
90.0
 51
180.0
  0
LINE
  5
1666F
  8
KI1
 10
242.39704169456829
 20
637.75574394563091
 30
0.0
 11
248.54704169456829
 21
637.75574394563091
 31
0.0
  0
LINE
  5
16670
  8
KI1
 10
248.6970416945683
 20
662.40574394563089
 30
0.0
 11
239.9470416945683
 21
662.40574394563089
 31
0.0
  0
ARC
  5
16671
  8
KI1
 10
242.39704169456829
 20
638.05574394563087
 30
0.0
 40
0.3
 50
180.0
 51
270.0
  0
LINE
  5
16672
  8
KI1
 10
239.9470416945683
 20
663.60574394563082
 30
0.0
 11
239.9470416945683
 21
662.40574394563089
 31
0.0
  0
LINE
  5
16673
  8
KI1
 10
239.1983058339172
 20
643.90574394563066
 30
0.0
 11
240.74704169456831
 21
643.90574394563066
 31
0.0
  0
LINE
  5
16674
  8
KI1
 10
239.84704169456839
 20
638.90574394563066
 30
0.0
 11
240.9470416945683
 21
638.90574394563066
 31
0.0
  0
LINE
  5
16675
  8
KI1
 10
239.84704169456839
 20
639.30574394563075
 30
0.0
 11
239.84704169456839
 21
638.90574394563066
 31
0.0
  0
LINE
  5
16676
  8
KI1
 10
239.84704169456839
 20
639.30574394563075
 30
0.0
 11
239.1970416945683
 21
640.30574394563064
 31
0.0
  0
LINE
  5
16677
  8
KI1
 10
240.74704169456831
 20
643.90574394563066
 30
0.0
 11
240.9470416945683
 21
642.40574394563077
 31
0.0
  0
LINE
  5
16678
  8
KI1
 10
240.9470416945683
 20
638.90574394563066
 30
0.0
 11
240.9470416945683
 21
642.40574394563077
 31
0.0
  0
LINE
  5
16679
  8
KI1
 10
242.09704169456839
 20
638.05574394563087
 30
0.0
 11
242.09704169456839
 21
645.78074394563089
 31
0.0
  0
LINE
  5
1667A
  8
KI1
 10
240.9470416945683
 20
645.78074394563089
 30
0.0
 11
240.9470416945683
 21
645.05574394563075
 31
0.0
  0
ARC
  5
1667B
  8
KI1
 10
241.52204169456829
 20
645.78074394563089
 30
0.0
 40
0.5749999999999959
 50
0.0
 51
180.0
  0
LINE
  5
1667C
  8
KI1
 10
240.9470416945683
 20
636.90574394563089
 30
0.0
 11
240.9470416945683
 21
637.60574394563082
 31
0.0
  0
ARC
  5
1667D
  8
KI1
 10
241.2470416945684
 20
636.90574394563089
 30
0.0
 40
0.3
 50
180.0
 51
270.0
  0
ARC
  5
1667E
  8
KI1
 10
249.1970416945683
 20
663.60574394563082
 30
0.0
 40
0.5
 50
0.0
 51
180.0
  0
LINE
  5
1667F
  8
KI1
 10
248.6970416945683
 20
663.60574394563082
 30
0.0
 11
248.6970416945683
 21
662.40574394563089
 31
0.0
  0
LINE
  5
16680
  8
KI1
 10
248.54704169456829
 20
637.75574394563091
 30
0.0
 11
248.54704169456829
 21
660.75574394563091
 31
0.0
  0
ARC
  5
16681
  8
KI1
 10
248.04704169456829
 20
660.75574394563091
 30
0.0
 40
0.4999999999999999
 50
0.0
 51
90.0
  0
LINE
  5
16682
  8
KI1
 10
249.6970416945683
 20
637.60574394563082
 30
0.0
 11
249.6970416945683
 21
663.60574394563082
 31
0.0
  0
ARC
  5
16683
  8
KI1
 10
254.79704169456829
 20
637.10574394563082
 30
0.0
 40
0.5
 50
0.0
 51
90.0
  0
LINE
  5
16684
  8
KI1
 10
255.29704169456829
 20
637.10574394563082
 30
0.0
 11
255.29704169456829
 21
624.10574394563082
 31
0.0
  0
ARC
  5
16685
  8
KI1
 10
253.9970416945684
 20
636.30574394563087
 30
0.0
 40
0.3
 50
0.0
 51
90.0
  0
LINE
  5
16686
  8
KI1
 10
254.29704169456829
 20
636.30574394563087
 30
0.0
 11
254.29704169456829
 21
624.10574394563082
 31
0.0
  0
ARC
  5
16687
  8
KI1
 10
254.79704169456829
 20
624.10574394563082
 30
0.0
 40
0.5
 50
180.0
 51
0.0
  0
LINE
  5
16688
  8
KI2
 10
230.4470404796516
 20
644.80574473009847
 30
0.0
 11
238.4470404796516
 21
644.80574473009847
 31
0.0
  0
LINE
  5
16689
  8
KI2
 10
228.5470404796516
 20
640.99574473009852
 30
0.0
 11
240.34704047965161
 21
640.99574473009852
 31
0.0
  0
LINE
  5
1668A
  8
KI2
 10
228.5470404796516
 20
642.99574473009852
 30
0.0
 11
240.34704047965161
 21
642.99574473009852
 31
0.0
  0
LINE
  5
1668B
  8
KI2
 10
230.4470404796516
 20
644.80574473009847
 30
0.0
 11
230.4470404796516
 21
642.99574473009852
 31
0.0
  0
LINE
  5
1668C
  8
KI2
 10
228.5470404796516
 20
642.99574473009852
 30
0.0
 11
228.5470404796516
 21
640.99574473009852
 31
0.0
  0
LINE
  5
1668D
  8
KI2
 10
237.4470404796516
 20
640.99574473009852
 30
0.0
 11
237.4470404796516
 21
627.10574473009865
 31
0.0
  0
LINE
  5
1668E
  8
KI2
 10
231.4470404796516
 20
640.99574473009852
 30
0.0
 11
231.4470404796516
 21
627.10574473009865
 31
0.0
  0
LINE
  5
1668F
  8
KI2
 10
231.4470404796516
 20
638.48574473009853
 30
0.0
 11
237.4470404796516
 21
638.48574473009853
 31
0.0
  0
LINE
  5
16690
  8
KI2
 10
232.72704047965161
 20
653.20574473009844
 30
0.0
 11
236.1670404796516
 21
653.20574473009844
 31
0.0
  0
LINE
  5
16691
  8
KI2
 10
236.6670404796516
 20
652.70574473009844
 30
0.0
 11
232.22704047965161
 21
652.70574473009844
 31
0.0
  0
LINE
  5
16692
  8
KI2
 10
232.22704047965161
 20
652.70574473009844
 30
0.0
 11
232.22704047965161
 21
644.80574473009847
 31
0.0
  0
LINE
  5
16693
  8
KI2
 10
232.72704047965161
 20
653.20574473009844
 30
0.0
 11
232.22704047965161
 21
652.70574473009844
 31
0.0
  0
LINE
  5
16694
  8
KI2
 10
236.6670404796516
 20
652.70574473009844
 30
0.0
 11
236.6670404796516
 21
644.80574473009847
 31
0.0
  0
LINE
  5
16695
  8
KI2
 10
236.6670404796516
 20
652.70574473009844
 30
0.0
 11
236.1670404796516
 21
653.20574473009844
 31
0.0
  0
LINE
  5
16696
  8
KI2
 10
238.4470404796516
 20
644.80574473009847
 30
0.0
 11
238.4470404796516
 21
642.99574473009852
 31
0.0
  0
LINE
  5
16697
  8
KI2
 10
240.34704047965161
 20
642.99574473009852
 30
0.0
 11
240.34704047965161
 21
640.99574473009852
 31
0.0
  0
LINE
  5
1B82A
  8
SU
 10
784.10028860464763
 20
373.0316832402861
 30
0.0
 11
775.48562156320543
 21
389.451867086481
 31
0.0
1001
ACAD
1000
DSTYLE
1002
{
1070
   371
1070
    13
1070
   176
1070
   256
1070
    41
1040
1.5
1070
   147
1040
1.0
1070
    77
1070
     0
1002
}
  0
LINE
  5
1B82B
  8
SU
 10
775.48562156320543
 20
389.451867086481
 30
0.0
 11
754.12395887690536
 21
389.451867086481
 31
0.0
1001
ACAD
1000
DSTYLE
1002
{
1070
   371
1070
    13
1070
   176
1070
   256
1070
    41
1040
1.5
1070
   147
1040
1.0
1070
    77
1070
     0
1002
}
  0
LINE
  5
1B82C
  8
SU
 10
1033.441750771334
 20
373.0316832402861
 30
0.0
 11
1042.0564178127761
 21
389.451867086481
 31
0.0
1001
ACAD
1000
DSTYLE
1002
{
1070
   371
1070
    13
1070
   176
1070
   256
1070
    41
1040
1.5
1070
   147
1040
1.0
1070
    77
1070
     0
1002
}
  0
LINE
  5
1B82D
  8
SU
 10
1042.0564178127761
 20
389.451867086481
 30
0.0
 11
1063.418080499076
 21
389.451867086481
 31
0.0
1001
ACAD
1000
DSTYLE
1002
{
1070
   371
1070
    13
1070
   176
1070
   256
1070
    41
1040
1.5
1070
   147
1040
1.0
1070
    77
1070
     0
1002
}
  0
LINE
  5
1B856
  8
SU
  6
BYBLOCK
 10
146.014028992676
 20
365.45382015807922
 30
0.0
 11
147.94704169456821
 21
363.10574394672591
 31
0.0
210
0.0
220
0.0
230
-1.0
  0
LINE
  5
1B857
  8
SU
  6
BYBLOCK
 10
146.88005439646039
 20
365.95382015807922
 30
0.0
 11
147.94704169456821
 21
363.10574394672591
 31
0.0
210
0.0
220
0.0
230
-1.0
  0
LINE
  5
1B858
  8
SU
  6
BYBLOCK
 10
147.94704169456821
 20
363.10574394672591
 30
0.0
 11
146.44704169456821
 21
365.70382015807922
 31
0.0
210
0.0
220
0.0
230
-1.0
  0
LINE
  5
1B859
  8
SU
  6
BYBLOCK
 10
784.54305334163303
 20
373.26397484082793
 30
0.0
 11
785.49403820789769
 21
370.3750948183735
 31
0.0
  0
LINE
  5
1B85A
  8
SU
  6
BYBLOCK
 10
783.65752386766212
 20
372.7993916397445
 30
0.0
 11
785.49403820789769
 21
370.3750948183735
 31
0.0
  0
LINE
  5
1B85B
  8
SU
  6
BYBLOCK
 10
785.49403820789769
 20
370.3750948183735
 30
0.0
 11
784.10028860464763
 21
373.0316832402861
 31
0.0
  0
LINE
  5
1B85C
  8
SU
  6
BYBLOCK
 10
1033.8845155083191
 20
372.7993916397445
 30
0.0
 11
1032.0480011680841
 21
370.3750948183735
 31
0.0
  0
LINE
  5
1B85D
  8
SU
  6
BYBLOCK
 10
1032.998986034348
 20
373.26397484082793
 30
0.0
 11
1032.0480011680841
 21
370.3750948183735
 31
0.0
  0
LINE
  5
1B85E
  8
SU
  6
BYBLOCK
 10
1032.0480011680841
 20
370.3750948183735
 30
0.0
 11
1033.441750771334
 21
373.0316832402861
 31
0.0
  0
LINE
  5
1B85F
  8
SU
  6
BYBLOCK
 10
146.014028992676
 20
161.63108369907411
 30
0.0
 11
147.94704169456821
 21
159.28300748772079
 31
0.0
210
0.0
220
0.0
230
-1.0
  0
LINE
  5
1B860
  8
SU
  6
BYBLOCK
 10
146.88005439646039
 20
162.13108369907411
 30
0.0
 11
147.94704169456821
 21
159.28300748772079
 31
0.0
210
0.0
220
0.0
230
-1.0
  0
LINE
  5
1B861
  8
SU
  6
BYBLOCK
 10
147.94704169456821
 20
159.28300748772079
 30
0.0
 11
146.44704169456821
 21
161.88108369907411
 31
0.0
210
0.0
220
0.0
230
-1.0
  0
TEXT
  5
1BD97
  8
MJ
 10
214.6930580426978
 20
55.783007487720852
 30
0.0
 40
7.0
  1
埋込みレール
 41
0.8299999999999999
 72
     4
 11
234.44705804269779
 21
59.283007487720852
 31
0.0
  0
TEXT
  5
1BDA1
  8
MJ
 10
219.58529838202631
 20
279.6057439467258
 30
0.0
 40
7.0
  1
直貼りレール
 41
0.8299999999999999
 72
     4
 11
239.3392983820263
 21
283.1057439467258
 31
0.0
  0
LINE
  5
1E76D
  8
KI1
 10
986.31596980819359
 20
303.98474779943791
 30
0.0
 11
986.31596980819359
 21
270.98474875116318
 31
0.0
  0
LINE
  5
1E76E
  8
KI2
 10
986.31597777043316
 20
295.6847499648905
 30
0.0
 11
986.31597777043316
 21
294.9847499648904
 31
0.0
  0
LINE
  5
1E76F
  8
KI2
 10
992.31597380559754
 20
295.6847499648905
 30
0.0
 11
986.31597777043316
 21
295.6847499648905
 31
0.0
  0
LINE
  5
1E770
  8
KI2
 10
992.31597380559754
 20
294.9847499648904
 30
0.0
 11
986.31597777043316
 21
294.9847499648904
 31
0.0
  0
LINE
  5
1E771
  8
KI2
 10
986.31597245175988
 20
279.98474996489023
 30
0.0
 11
986.31597228252917
 21
279.28474996489041
 31
0.0
  0
LINE
  5
1E772
  8
KI2
 10
986.31597228252917
 20
279.28474996489041
 30
0.0
 11
992.31597308032269
 21
279.28474851434072
 31
0.0
  0
LINE
  5
1E773
  8
KI2
 10
986.31597245175988
 20
279.98474996489023
 30
0.0
 11
992.31597324955362
 21
279.98474851434071
 31
0.0
  0
LINE
  5
1E774
  8
KI2
 10
995.31597380559742
 20
282.28474851434072
 30
0.0
 11
995.31597380559742
 21
292.68474996489039
 31
0.0
  0
LINE
  5
1E775
  8
KI2
 10
994.61597380559749
 20
282.28474851434072
 30
0.0
 11
994.61597380559749
 21
292.68474996489039
 31
0.0
  0
ARC
  5
1E776
  8
KI2
 10
992.31597380559754
 20
292.68474996489039
 30
0.0
 40
3.0
 50
0.0
 51
90.0
1001
GENIUS_GENODEF_13
1002
{
1000
HIER
1070
     0
1002
}
1002
{
1000
MANEDIT
1070
     0
1002
}
1002
{
1000
NOSEL
1070
     0
1002
}
1002
{
1000
BEHIND
1070
     0
1002
}
1002
{
1000
OTHER
1070
     0
1002
}
1002
{
1000
REACTOR
1002
}
1001
GENIUS_GENOBJ-N-FIL_13
1002
{
1000
OWNER
1000
GEN
1002
}
  0
ARC
  5
1E777
  8
KI2
 10
992.31597380559754
 20
292.68474996489039
 30
0.0
 40
2.2999999999999989
 50
0.0
 51
90.0
1001
GENIUS_GENODEF_13
1002
{
1000
HIER
1070
     0
1002
}
1002
{
1000
MANEDIT
1070
     0
1002
}
1002
{
1000
NOSEL
1070
     0
1002
}
1002
{
1000
BEHIND
1070
     0
1002
}
1002
{
1000
OTHER
1070
     0
1002
}
1002
{
1000
REACTOR
1002
}
1001
GENIUS_GENOBJ-N-FIL_13
1002
{
1000
OWNER
1000
GEN
1002
}
  0
ARC
  5
1E778
  8
KI2
 10
992.31597380559754
 20
282.28474851434072
 30
0.0
 40
3.0
 50
269.99998614827302
 51
0.0
1001
GENIUS_GENODEF_13
1002
{
1000
HIER
1070
     0
1002
}
1002
{
1000
MANEDIT
1070
     0
1002
}
1002
{
1000
NOSEL
1070
     0
1002
}
1002
{
1000
BEHIND
1070
     0
1002
}
1002
{
1000
OTHER
1070
     0
1002
}
1002
{
1000
REACTOR
1002
}
1001
GENIUS_GENOBJ-N-FIL_13
1002
{
1000
OWNER
1000
GEN
1002
}
  0
ARC
  5
1E779
  8
KI2
 10
992.31597380559754
 20
282.28474851434072
 30
0.0
 40
2.2999999999999989
 50
269.99998614827302
 51
0.0
1001
GENIUS_GENODEF_13
1002
{
1000
HIER
1070
     0
1002
}
1002
{
1000
MANEDIT
1070
     0
1002
}
1002
{
1000
NOSEL
1070
     0
1002
}
1002
{
1000
BEHIND
1070
     0
1002
}
1002
{
1000
OTHER
1070
     0
1002
}
1002
{
1000
REACTOR
1002
}
1001
GENIUS_GENOBJ-N-FIL_13
1002
{
1000
OWNER
1000
GEN
1002
}
  0
LINE
  5
1E7DB
  8
PH
 10
827.31597380559754
 20
295.68474996489061
 30
0.0
 11
821.31597777043316
 21
295.68474996489061
 31
0.0
  0
LINE
  5
1E7DC
  8
PH
 10
827.31597380559754
 20
294.98474996489051
 30
0.0
 11
821.31597777043316
 21
294.98474996489051
 31
0.0
  0
LINE
  5
1E7DD
  8
PH
 10
821.31597245175999
 20
279.98474996489028
 30
0.0
 11
821.31597228252951
 21
279.28474996489041
 31
0.0
  0
LINE
  5
1E7DE
  8
PH
 10
821.31597228252951
 20
279.28474996489041
 30
0.0
 11
827.31597308032269
 21
279.28474851434078
 31
0.0
  0
LINE
  5
1E7DF
  8
PH
 10
821.31597245175999
 20
279.98474996489028
 30
0.0
 11
827.31597324955339
 21
279.98474851434082
 31
0.0
  0
LINE
  5
1E7E0
  8
PH
 10
830.31597380559765
 20
282.28474851434078
 30
0.0
 11
830.31597380559765
 21
292.68474996489061
 31
0.0
  0
LINE
  5
1E7E1
  8
PH
 10
829.6159738055976
 20
282.28474851434078
 30
0.0
 11
829.6159738055976
 21
292.68474996489061
 31
0.0
  0
ARC
  5
1E7E2
  8
PH
 10
827.31597380559754
 20
292.68474996489061
 30
0.0
 40
3.0
 50
0.0
 51
90.0
1001
GENIUS_GENODEF_13
1002
{
1000
HIER
1070
     0
1002
}
1002
{
1000
MANEDIT
1070
     0
1002
}
1002
{
1000
NOSEL
1070
     0
1002
}
1002
{
1000
BEHIND
1070
     0
1002
}
1002
{
1000
OTHER
1070
     0
1002
}
1002
{
1000
REACTOR
1002
}
1001
GENIUS_GENOBJ-N-FIL_13
1002
{
1000
OWNER
1000
GEN
1002
}
  0
ARC
  5
1E7E3
  8
PH
 10
827.31597380559754
 20
292.68474996489061
 30
0.0
 40
2.2999999999999989
 50
0.0
 51
90.0
1001
GENIUS_GENODEF_13
1002
{
1000
HIER
1070
     0
1002
}
1002
{
1000
MANEDIT
1070
     0
1002
}
1002
{
1000
NOSEL
1070
     0
1002
}
1002
{
1000
BEHIND
1070
     0
1002
}
1002
{
1000
OTHER
1070
     0
1002
}
1002
{
1000
REACTOR
1002
}
1001
GENIUS_GENOBJ-N-FIL_13
1002
{
1000
OWNER
1000
GEN
1002
}
  0
ARC
  5
1E7E4
  8
PH
 10
827.31597380559754
 20
282.28474851434078
 30
0.0
 40
3.0
 50
269.99998614827302
 51
0.0
1001
GENIUS_GENODEF_13
1002
{
1000
HIER
1070
     0
1002
}
1002
{
1000
MANEDIT
1070
     0
1002
}
1002
{
1000
NOSEL
1070
     0
1002
}
1002
{
1000
BEHIND
1070
     0
1002
}
1002
{
1000
OTHER
1070
     0
1002
}
1002
{
1000
REACTOR
1002
}
1001
GENIUS_GENOBJ-N-FIL_13
1002
{
1000
OWNER
1000
GEN
1002
}
  0
ARC
  5
1E7E5
  8
PH
 10
827.31597380559754
 20
282.28474851434078
 30
0.0
 40
2.2999999999999989
 50
269.99998614827302
 51
0.0
1001
GENIUS_GENODEF_13
1002
{
1000
HIER
1070
     0
1002
}
1002
{
1000
MANEDIT
1070
     0
1002
}
1002
{
1000
NOSEL
1070
     0
1002
}
1002
{
1000
BEHIND
1070
     0
1002
}
1002
{
1000
OTHER
1070
     0
1002
}
1002
{
1000
REACTOR
1002
}
1001
GENIUS_GENOBJ-N-FIL_13
1002
{
1000
OWNER
1000
GEN
1002
}
  0
LINE
  5
1E8C4
  8
OS
 10
108.94710624401699
 20
316.10574394672591
 30
0.0
 11
328.94710624401711
 21
316.10574394672591
 31
0.0
  0
LINE
  5
1E8C5
  8
KI1
 10
123.4471062440177
 20
335.89997258078478
 30
0.0
 11
118.9471062440177
 21
328.10574394672471
 31
0.0
  0
LINE
  5
1E8C6
  8
KI1
 10
114.4471062440177
 20
335.89997258078478
 30
0.0
 11
123.4471062440177
 21
335.89997258078478
 31
0.0
  0
LINE
  5
1E8C7
  8
OS
 10
108.94710624401699
 20
318.10574394672591
 30
0.0
 11
328.94710624401711
 21
318.10574394672591
 31
0.0
  0
LINE
  5
1E8C8
  8
OS
 10
108.94710624401699
 20
322.10574394672591
 30
0.0
 11
328.94710624401711
 21
322.10574394672591
 31
0.0
  0
LINE
  5
1E8C9
  8
OS
 10
108.94710624401699
 20
326.10574394672591
 30
0.0
 11
328.94710624401711
 21
326.10574394672591
 31
0.0
  0
LINE
  5
1E8CA
  8
KI1
 10
118.9471062440177
 20
328.10574394672471
 30
0.0
 11
114.4471062440177
 21
335.89997258078478
 31
0.0
  0
LINE
  5
1E8CB
  8
OS
 10
108.94710624401699
 20
320.10574394672591
 30
0.0
 11
328.94710624401711
 21
320.1057439467254
 31
0.0
  0
LINE
  5
1E8CC
  8
OS
 10
108.94710624401699
 20
324.10574394672591
 30
0.0
 11
328.94710624401711
 21
324.10574394672591
 31
0.0
  0
LINE
  5
1E8CD
  8
OS
 10
108.94710624401699
 20
328.10574394672591
 30
0.0
 11
328.94710624401711
 21
328.10574394672591
 31
0.0
  0
TEXT
  5
1E8CE
  8
OS
 10
113.31496338687489
 20
340.13204394142281
 30
0.0
 40
7.5
  1
FL
 41
0.8299999999999999
 72
     1
 11
118.9471062440177
 21
340.13204394142281
 31
0.0
 73
     1
  0
LINE
  5
1E8F0
  8
OS
 10
108.94710624401699
 20
112.28300748772079
 30
0.0
 11
328.94710624401711
 21
112.28300748772079
 31
0.0
  0
LINE
  5
1E8F1
  8
KI1
 10
123.4471062440177
 20
132.0772361217798
 30
0.0
 11
118.9471062440177
 21
124.2830074877197
 31
0.0
  0
LINE
  5
1E8F2
  8
KI1
 10
114.4471062440177
 20
132.0772361217798
 30
0.0
 11
123.4471062440177
 21
132.0772361217798
 31
0.0
  0
LINE
  5
1E8F3
  8
OS
 10
108.94710624401699
 20
114.28300748772079
 30
0.0
 11
227.44704926117501
 21
114.28300748772079
 31
0.0
  0
LINE
  5
1E8F4
  8
OS
 10
108.94710624401699
 20
118.28300748772079
 30
0.0
 11
227.44704926117501
 21
118.28300748772079
 31
0.0
  0
LINE
  5
1E8F5
  8
OS
 10
108.94710624401699
 20
122.28300748772079
 30
0.0
 11
227.44704926117501
 21
122.28300748772079
 31
0.0
  0
LINE
  5
1E8F6
  8
KI1
 10
118.9471062440177
 20
124.2830074877197
 30
0.0
 11
114.4471062440177
 21
132.0772361217798
 31
0.0
  0
LINE
  5
1E8F7
  8
OS
 10
108.94710624401699
 20
116.28300748772079
 30
0.0
 11
227.4470492611749
 21
116.2830074877206
 31
0.0
  0
LINE
  5
1E8F8
  8
OS
 10
108.94710624401699
 20
120.28300748772079
 30
0.0
 11
227.44704926117501
 21
120.28300748772079
 31
0.0
  0
LINE
  5
1E8F9
  8
OS
 10
108.94710624401699
 20
124.28300748772079
 30
0.0
 11
227.44704926117501
 21
124.28300748772079
 31
0.0
  0
TEXT
  5
1E8FA
  8
OS
 10
113.31496338687489
 20
136.30930748241781
 30
0.0
 40
7.5
  1
FL
 41
0.8299999999999999
 72
     1
 11
118.9471062440177
 21
136.30930748241781
 31
0.0
 73
     1
  0
LINE
  5
1E94D
  8
OS
 10
241.4470492611749
 20
124.28300748772079
 30
0.0
 11
328.94710624401711
 21
124.28300748772079
 31
0.0
  0
LINE
  5
1E94E
  8
OS
 10
241.4470492611749
 20
122.28300748772079
 30
0.0
 11
328.94710624401711
 21
122.28300748772079
 31
0.0
  0
LINE
  5
1E94F
  8
OS
 10
241.4470492611749
 20
120.28300748772079
 30
0.0
 11
328.94710624401711
 21
120.28300748772079
 31
0.0
  0
LINE
  5
1E950
  8
OS
 10
241.4470492611749
 20
118.28300748772079
 30
0.0
 11
328.94710624401711
 21
118.28300748772079
 31
0.0
  0
LINE
  5
1E951
  8
OS
 10
241.4470492611749
 20
116.2830074877206
 30
0.0
 11
328.94710624401711
 21
116.2830074877204
 31
0.0
  0
LINE
  5
1E952
  8
OS
 10
241.4470492611749
 20
114.28300748772079
 30
0.0
 11
328.94710624401711
 21
114.28300748772079
 31
0.0
  0
LINE
  5
1EB1E
  8
SU
 10
821.31596980819336
 20
368.98474779943518
 30
0.0
 11
821.31596980819336
 21
418.9847477994353
 31
0.0
  0
LINE
  5
1EB1F
  8
SU
 10
821.31596980819336
 20
415.9847477994353
 30
0.0
 11
830.31597380559765
 21
415.9847477994353
 31
0.0
  0
LINE
  5
1EB22
  8
SU
 10
989.31596980819336
 20
374.98474779943513
 30
0.0
 11
989.31596980819336
 21
418.9847477994353
 31
0.0
  0
LINE
  5
1EB23
  8
SU
 10
830.31597380559765
 20
293.6847499648905
 30
0.0
 11
830.31597380559765
 21
418.9847477994353
 31
0.0
  0
LINE
  5
1EB24
  8
SU
 10
989.31596980819336
 20
415.9847477994353
 30
0.0
 11
830.31597380559765
 21
415.9847477994353
 31
0.0
  0
LINE
  5
1EB28
  8
SU
 10
986.31596980819324
 20
190.9847477994351
 30
0.0
 11
995.31596980819359
 21
190.9847477994351
 31
0.0
  0
LINE
  5
1EB2B
  8
SU
 10
394.94710624401552
 20
134.28300748772079
 30
0.0
 11
388.94710624401552
 21
124.28300748772079
 31
0.0
  0
LINE
  5
1EB2C
  8
SU
 10
382.94710624401552
 20
134.28300748772079
 30
0.0
 11
388.94710624401552
 21
124.28300748772079
 31
0.0
  0
LINE
  5
1EB2D
  8
SU
 10
394.94710624401552
 20
134.28300748772079
 30
0.0
 11
382.94710624401552
 21
134.28300748772079
 31
0.0
  0
LINE
  5
1EB2E
  8
SU
 10
388.98774301075611
 20
124.350735432288
 30
0.0
 11
388.90646947727521
 21
124.350735432288
 31
0.0
  0
LINE
  5
1EB2F
  8
SU
 10
389.107743010756
 20
124.55073543228779
 30
0.0
 11
388.78646947727532
 21
124.55073543228779
 31
0.0
  0
LINE
  5
1EB30
  8
SU
 10
389.22774301075611
 20
124.7507354322881
 30
0.0
 11
388.66646947727509
 21
124.7507354322881
 31
0.0
  0
LINE
  5
1EB31
  8
SU
 10
389.34774301075601
 20
124.9507354322879
 30
0.0
 11
388.54646947727502
 21
124.9507354322879
 31
0.0
  0
LINE
  5
1EB32
  8
SU
 10
389.4677430107559
 20
125.1507354322882
 30
0.0
 11
388.42646947727508
 21
125.1507354322882
 31
0.0
  0
LINE
  5
1EB33
  8
SU
 10
389.58774301075601
 20
125.350735432288
 30
0.0
 11
388.3064694772753
 21
125.350735432288
 31
0.0
  0
LINE
  5
1EB34
  8
SU
 10
389.70774301075608
 20
125.55073543228779
 30
0.0
 11
388.18646947727512
 21
125.55073543228779
 31
0.0
  0
LINE
  5
1EB35
  8
SU
 10
389.82774301075602
 20
125.7507354322881
 30
0.0
 11
388.06646947727501
 21
125.7507354322881
 31
0.0
  0
LINE
  5
1EB36
  8
SU
 10
389.94774301075591
 20
125.9507354322879
 30
0.0
 11
387.94646947727512
 21
125.9507354322879
 31
0.0
  0
LINE
  5
1EB37
  8
SU
 10
390.06774301075581
 20
126.1507354322882
 30
0.0
 11
387.82646947727523
 21
126.1507354322882
 31
0.0
  0
LINE
  5
1EB38
  8
SU
 10
390.18774301075609
 20
126.350735432288
 30
0.0
 11
387.70646947727511
 21
126.350735432288
 31
0.0
  0
LINE
  5
1EB39
  8
SU
 10
390.30774301075598
 20
126.55073543228779
 30
0.0
 11
387.58646947727499
 21
126.55073543228779
 31
0.0
  0
LINE
  5
1EB3A
  8
SU
 10
390.42774301075588
 20
126.7507354322881
 30
0.0
 11
387.4664694772751
 21
126.7507354322881
 31
0.0
  0
LINE
  5
1EB3B
  8
SU
 10
390.54774301075611
 20
126.9507354322879
 30
0.0
 11
387.34646947727521
 21
126.9507354322879
 31
0.0
  0
LINE
  5
1EB3C
  8
SU
 10
390.667743010756
 20
127.1507354322882
 30
0.0
 11
387.22646947727509
 21
127.1507354322882
 31
0.0
  0
LINE
  5
1EB3D
  8
SU
 10
390.78774301075612
 20
127.350735432288
 30
0.0
 11
387.1064694772752
 21
127.350735432288
 31
0.0
  0
LINE
  5
1EB3E
  8
SU
 10
390.90774301075601
 20
127.55073543228779
 30
0.0
 11
386.98646947727508
 21
127.55073543228779
 31
0.0
  0
LINE
  5
1EB3F
  8
SU
 10
391.02774301075613
 20
127.7507354322881
 30
0.0
 11
386.86646947727519
 21
127.7507354322881
 31
0.0
  0
LINE
  5
1EB40
  8
SU
 10
391.14774301075602
 20
127.9507354322879
 30
0.0
 11
386.74646947727513
 21
127.9507354322879
 31
0.0
  0
LINE
  5
1EB41
  8
SU
 10
391.26774301075608
 20
128.1507354322882
 30
0.0
 11
386.62646947727518
 21
128.1507354322882
 31
0.0
  0
LINE
  5
1EB42
  8
SU
 10
391.38774301075591
 20
128.35073543228799
 30
0.0
 11
386.50646947727512
 21
128.35073543228799
 31
0.0
  0
LINE
  5
1EB43
  8
SU
 10
391.5077430107558
 20
128.55073543228781
 30
0.0
 11
386.38646947727523
 21
128.55073543228781
 31
0.0
  0
LINE
  5
1EB44
  8
SU
 10
391.62774301075598
 20
128.75073543228811
 30
0.0
 11
386.266469477275
 21
128.75073543228811
 31
0.0
  0
LINE
  5
1EB45
  8
SU
 10
391.7477430107561
 20
128.9507354322879
 30
0.0
 11
386.14646947727522
 21
128.9507354322879
 31
0.0
  0
LINE
  5
1EB46
  8
SU
 10
391.86774301075599
 20
129.1507354322882
 30
0.0
 11
386.02646947727499
 21
129.1507354322882
 31
0.0
  0
LINE
  5
1EB47
  8
SU
 10
391.98774301075611
 20
129.35073543228799
 30
0.0
 11
385.90646947727521
 21
129.35073543228799
 31
0.0
  0
LINE
  5
1EB48
  8
SU
 10
392.107743010756
 20
129.55073543228789
 30
0.0
 11
385.78646947727532
 21
129.55073543228789
 31
0.0
  0
LINE
  5
1EB49
  8
SU
 10
392.22774301075611
 20
129.75073543228811
 30
0.0
 11
385.6664694772752
 21
129.75073543228811
 31
0.0
  0
LINE
  5
1EB4A
  8
SU
 10
392.34774301075601
 20
129.9507354322879
 30
0.0
 11
385.54646947727502
 21
129.9507354322879
 31
0.0
  0
LINE
  5
1EB4B
  8
SU
 10
392.4677430107559
 20
130.1507354322882
 30
0.0
 11
385.42646947727508
 21
130.1507354322882
 31
0.0
  0
LINE
  5
1EB4C
  8
SU
 10
392.58774301075601
 20
130.35073543228799
 30
0.0
 11
385.30646947727519
 21
130.35073543228799
 31
0.0
  0
LINE
  5
1EB4D
  8
SU
 10
392.70774301075608
 20
130.55073543228781
 30
0.0
 11
385.18646947727512
 21
130.55073543228789
 31
0.0
  0
LINE
  5
1EB4E
  8
SU
 10
392.82774301075602
 20
130.75073543228811
 30
0.0
 11
385.06646947727501
 21
130.75073543228811
 31
0.0
  0
LINE
  5
1EB4F
  8
SU
 10
392.94774301075591
 20
130.9507354322879
 30
0.0
 11
384.94646947727512
 21
130.9507354322879
 31
0.0
  0
LINE
  5
1EB50
  8
SU
 10
393.06774301075581
 20
131.1507354322882
 30
0.0
 11
384.82646947727523
 21
131.1507354322882
 31
0.0
  0
LINE
  5
1EB51
  8
SU
 10
393.18774301075621
 20
131.35073543228799
 30
0.0
 11
384.70646947727511
 21
131.35073543228799
 31
0.0
  0
LINE
  5
1EB52
  8
SU
 10
393.3077430107561
 20
131.55073543228781
 30
0.0
 11
384.58646947727499
 21
131.55073543228781
 31
0.0
  0
LINE
  5
1EB53
  8
SU
 10
393.42774301075599
 20
131.75073543228811
 30
0.0
 11
384.4664694772751
 21
131.75073543228811
 31
0.0
  0
LINE
  5
1EB54
  8
SU
 10
393.54774301075611
 20
131.9507354322879
 30
0.0
 11
384.34646947727521
 21
131.9507354322879
 31
0.0
  0
LINE
  5
1EB55
  8
SU
 10
393.66774301075588
 20
132.1507354322882
 30
0.0
 11
384.22646947727509
 21
132.1507354322882
 31
0.0
  0
LINE
  5
1EB56
  8
SU
 10
393.787743010756
 20
132.35073543228799
 30
0.0
 11
384.1064694772752
 21
132.35073543228799
 31
0.0
  0
LINE
  5
1EB57
  8
SU
 10
393.90774301075589
 20
132.55073543228781
 30
0.0
 11
383.98646947727508
 21
132.55073543228781
 31
0.0
  0
LINE
  5
1EB58
  8
SU
 10
394.02774301075613
 20
132.75073543228811
 30
0.0
 11
383.86646947727519
 21
132.75073543228811
 31
0.0
  0
LINE
  5
1EB59
  8
SU
 10
394.14774301075602
 20
132.9507354322879
 30
0.0
 11
383.74646947727513
 21
132.9507354322879
 31
0.0
  0
LINE
  5
1EB5A
  8
SU
 10
394.26774301075608
 20
133.1507354322882
 30
0.0
 11
383.62646947727518
 21
133.1507354322882
 31
0.0
  0
LINE
  5
1EB5B
  8
SU
 10
394.38774301075603
 20
133.35073543228799
 30
0.0
 11
383.506469477275
 21
133.35073543228799
 31
0.0
  0
LINE
  5
1EB5C
  8
SU
 10
394.50774301075592
 20
133.55073543228781
 30
0.0
 11
383.38646947727523
 21
133.55073543228781
 31
0.0
  0
LINE
  5
1EB5D
  8
SU
 10
394.62774301075598
 20
133.75073543228811
 30
0.0
 11
383.26646947727511
 21
133.75073543228811
 31
0.0
  0
LINE
  5
1EB5E
  8
SU
 10
394.7477430107561
 20
133.9507354322879
 30
0.0
 11
383.14646947727522
 21
133.9507354322879
 31
0.0
  0
LINE
  5
1EB5F
  8
SU
 10
394.86774301075599
 20
134.1507354322882
 30
0.0
 11
383.02646947727499
 21
134.1507354322882
 31
0.0
  0
LINE
  5
1EB60
  8
SU
 10
241.9470492611749
 20
125.78300748772079
 30
0.0
 11
351.94710624401711
 21
125.78300748772079
 31
0.0
  0
LINE
  5
1EB61
  8
SU
 10
348.94710624401699
 20
124.28300748772079
 30
0.0
 11
348.94710624401699
 21
114.6830074877208
 31
0.0
  0
LINE
  5
1EB62
  8
SU
 10
348.94710624401699
 20
125.78300748772079
 30
0.0
 11
348.94710624401711
 21
158.92634082105411
 31
0.0
  0
LINE
  5
1EB63
  8
SU
 10
348.94710624401699
 20
124.28300748772079
 30
0.0
 11
348.94710624401699
 21
125.78300748772079
 31
0.0
  0
LINE
  5
1EB67
  8
SU
 10
394.94710624401688
 20
654.10574394563093
 30
0.0
 11
388.94710624401688
 21
664.10574394563093
 31
0.0
  0
LINE
  5
1EB68
  8
SU
 10
382.94710624401688
 20
654.10574394563093
 30
0.0
 11
388.94710624401688
 21
664.10574394563093
 31
0.0
  0
LINE
  5
1EB69
  8
SU
 10
394.94710624401688
 20
654.10574394563093
 30
0.0
 11
382.94710624401688
 21
654.10574394563093
 31
0.0
  0
LINE
  5
1EB6A
  8
SU
 10
388.98774301075753
 20
664.03801600106374
 30
0.0
 11
388.90646947727657
 21
664.03801600106374
 31
0.0
  0
LINE
  5
1EB6B
  8
SU
 10
389.10774301075742
 20
663.83801600106392
 30
0.0
 11
388.78646947727668
 21
663.83801600106392
 31
0.0
  0
LINE
  5
1EB6C
  8
SU
 10
389.22774301075748
 20
663.63801600106365
 30
0.0
 11
388.66646947727662
 21
663.63801600106365
 31
0.0
  0
LINE
  5
1EB6D
  8
SU
 10
389.34774301075743
 20
663.43801600106383
 30
0.0
 11
388.54646947727639
 21
663.43801600106383
 31
0.0
  0
LINE
  5
1EB6E
  8
SU
 10
389.46774301075732
 20
663.23801600106356
 30
0.0
 11
388.4264694772765
 21
663.23801600106356
 31
0.0
  0
LINE
  5
1EB6F
  8
SU
 10
389.58774301075738
 20
663.03801600106374
 30
0.0
 11
388.30646947727672
 21
663.03801600106374
 31
0.0
  0
LINE
  5
1EB70
  8
SU
 10
389.70774301075761
 20
662.83801600106392
 30
0.0
 11
388.1864694772766
 21
662.83801600106392
 31
0.0
  0
LINE
  5
1EB71
  8
SU
 10
389.8277430107575
 20
662.63801600106365
 30
0.0
 11
388.06646947727643
 21
662.63801600106365
 31
0.0
  0
LINE
  5
1EB72
  8
SU
 10
389.94774301075728
 20
662.43801600106383
 30
0.0
 11
387.94646947727659
 21
662.43801600106383
 31
0.0
  0
LINE
  5
1EB73
  8
SU
 10
390.06774301075723
 20
662.23801600106356
 30
0.0
 11
387.8264694772767
 21
662.23801600106356
 31
0.0
  0
LINE
  5
1EB74
  8
SU
 10
390.18774301075757
 20
662.03801600106374
 30
0.0
 11
387.70646947727653
 21
662.03801600106374
 31
0.0
  0
LINE
  5
1EB75
  8
SU
 10
390.30774301075752
 20
661.83801600106392
 30
0.0
 11
387.58646947727641
 21
661.83801600106392
 31
0.0
  0
LINE
  5
1EB76
  8
SU
 10
390.4277430107573
 20
661.63801600106365
 30
0.0
 11
387.46646947727652
 21
661.63801600106365
 31
0.0
  0
LINE
  5
1EB77
  8
SU
 10
390.54774301075747
 20
661.43801600106383
 30
0.0
 11
387.34646947727663
 21
661.43801600106383
 31
0.0
  0
LINE
  5
1EB78
  8
SU
 10
390.66774301075742
 20
661.23801600106356
 30
0.0
 11
387.22646947727651
 21
661.23801600106356
 31
0.0
  0
LINE
  5
1EB79
  8
SU
 10
390.78774301075748
 20
661.03801600106374
 30
0.0
 11
387.10646947727662
 21
661.03801600106374
 31
0.0
  0
LINE
  5
1EB7A
  8
SU
 10
390.90774301075737
 20
660.83801600106392
 30
0.0
 11
386.9864694772765
 21
660.83801600106392
 31
0.0
  0
LINE
  5
1EB7B
  8
SU
 10
391.02774301075749
 20
660.63801600106365
 30
0.0
 11
386.86646947727661
 21
660.63801600106365
 31
0.0
  0
LINE
  5
1EB7C
  8
SU
 10
391.14774301075738
 20
660.43801600106383
 30
0.0
 11
386.74646947727649
 21
660.43801600106383
 31
0.0
  0
LINE
  5
1EB7D
  8
SU
 10
391.2677430107575
 20
660.23801600106356
 30
0.0
 11
386.6264694772766
 21
660.23801600106356
 31
0.0
  0
LINE
  5
1EB7E
  8
SU
 10
391.38774301075739
 20
660.03801600106374
 30
0.0
 11
386.50646947727648
 21
660.03801600106374
 31
0.0
  0
LINE
  5
1EB7F
  8
SU
 10
391.50774301075728
 20
659.83801600106392
 30
0.0
 11
386.38646947727659
 21
659.83801600106392
 31
0.0
  0
LINE
  5
1EB80
  8
SU
 10
391.6277430107574
 20
659.63801600106365
 30
0.0
 11
386.26646947727647
 21
659.63801600106365
 31
0.0
  0
LINE
  5
1EB81
  8
SU
 10
391.74774301075752
 20
659.43801600106383
 30
0.0
 11
386.14646947727658
 21
659.43801600106383
 31
0.0
  0
LINE
  5
1EB82
  8
SU
 10
391.86774301075741
 20
659.23801600106356
 30
0.0
 11
386.02646947727641
 21
659.23801600106356
 31
0.0
  0
LINE
  5
1EB83
  8
SU
 10
391.98774301075753
 20
659.03801600106374
 30
0.0
 11
385.90646947727657
 21
659.03801600106374
 31
0.0
  0
LINE
  5
1EB84
  8
SU
 10
392.10774301075742
 20
658.83801600106392
 30
0.0
 11
385.78646947727668
 21
658.83801600106392
 31
0.0
  0
LINE
  5
1EB85
  8
SU
 10
392.22774301075748
 20
658.63801600106365
 30
0.0
 11
385.66646947727662
 21
658.63801600106365
 31
0.0
  0
LINE
  5
1EB86
  8
SU
 10
392.34774301075743
 20
658.43801600106383
 30
0.0
 11
385.5464694772765
 21
658.43801600106383
 31
0.0
  0
LINE
  5
1EB87
  8
SU
 10
392.46774301075732
 20
658.23801600106356
 30
0.0
 11
385.42646947727661
 21
658.23801600106356
 31
0.0
  0
LINE
  5
1EB88
  8
SU
 10
392.58774301075738
 20
658.03801600106374
 30
0.0
 11
385.30646947727672
 21
658.03801600106374
 31
0.0
  0
LINE
  5
1EB89
  8
SU
 10
392.7077430107575
 20
657.83801600106392
 30
0.0
 11
385.1864694772766
 21
657.83801600106392
 31
0.0
  0
LINE
  5
1EB8A
  8
SU
 10
392.82774301075739
 20
657.63801600106365
 30
0.0
 11
385.06646947727643
 21
657.63801600106365
 31
0.0
  0
LINE
  5
1EB8B
  8
SU
 10
392.94774301075728
 20
657.43801600106383
 30
0.0
 11
384.94646947727648
 21
657.43801600106383
 31
0.0
  0
LINE
  5
1EB8C
  8
SU
 10
393.06774301075723
 20
657.23801600106356
 30
0.0
 11
384.82646947727659
 21
657.23801600106356
 31
0.0
  0
LINE
  5
1EB8D
  8
SU
 10
393.18774301075757
 20
657.03801600106374
 30
0.0
 11
384.70646947727658
 21
657.03801600106374
 31
0.0
  0
LINE
  5
1EB8E
  8
SU
 10
393.30774301075752
 20
656.83801600106392
 30
0.0
 11
384.58646947727641
 21
656.83801600106392
 31
0.0
  0
LINE
  5
1EB8F
  8
SU
 10
393.42774301075741
 20
656.63801600106365
 30
0.0
 11
384.46646947727652
 21
656.63801600106365
 31
0.0
  0
LINE
  5
1EB90
  8
SU
 10
393.54774301075747
 20
656.43801600106383
 30
0.0
 11
384.34646947727663
 21
656.43801600106383
 31
0.0
  0
LINE
  5
1EB91
  8
SU
 10
393.66774301075731
 20
656.23801600106356
 30
0.0
 11
384.22646947727651
 21
656.23801600106356
 31
0.0
  0
LINE
  5
1EB92
  8
SU
 10
393.78774301075748
 20
656.03801600106374
 30
0.0
 11
384.10646947727662
 21
656.03801600106374
 31
0.0
  0
LINE
  5
1EB93
  8
SU
 10
393.90774301075737
 20
655.83801600106392
 30
0.0
 11
383.9864694772765
 21
655.83801600106392
 31
0.0
  0
LINE
  5
1EB94
  8
SU
 10
394.02774301075749
 20
655.63801600106365
 30
0.0
 11
383.86646947727661
 21
655.63801600106365
 31
0.0
  0
LINE
  5
1EB95
  8
SU
 10
394.14774301075738
 20
655.43801600106383
 30
0.0
 11
383.74646947727649
 21
655.43801600106383
 31
0.0
  0
LINE
  5
1EB96
  8
SU
 10
394.2677430107575
 20
655.23801600106356
 30
0.0
 11
383.6264694772766
 21
655.23801600106356
 31
0.0
  0
LINE
  5
1EB97
  8
SU
 10
394.38774301075739
 20
655.03801600106374
 30
0.0
 11
383.50646947727648
 21
655.03801600106374
 31
0.0
  0
LINE
  5
1EB98
  8
SU
 10
394.50774301075728
 20
654.83801600106392
 30
0.0
 11
383.38646947727659
 21
654.83801600106392
 31
0.0
  0
LINE
  5
1EB99
  8
SU
 10
394.6277430107574
 20
654.63801600106365
 30
0.0
 11
383.26646947727647
 21
654.63801600106365
 31
0.0
  0
LINE
  5
1EB9A
  8
SU
 10
394.74774301075752
 20
654.43801600106383
 30
0.0
 11
383.14646947727658
 21
654.43801600106383
 31
0.0
  0
LINE
  5
1EB9B
  8
SU
 10
394.86774301075741
 20
654.23801600106356
 30
0.0
 11
383.02646947727652
 21
654.23801600106356
 31
0.0
  0
LINE
  5
1EB9C
  8
SU
 10
394.94710624401688
 20
338.10574394672568
 30
0.0
 11
388.94710624401688
 21
328.10574394672568
 31
0.0
  0
LINE
  5
1EB9D
  8
SU
 10
382.94710624401688
 20
338.10574394672568
 30
0.0
 11
388.94710624401688
 21
328.10574394672568
 31
0.0
  0
LINE
  5
1EB9E
  8
SU
 10
394.94710624401688
 20
338.10574394672568
 30
0.0
 11
382.94710624401688
 21
338.10574394672568
 31
0.0
  0
LINE
  5
1EB9F
  8
SU
 10
388.98774301075753
 20
328.17347189129288
 30
0.0
 11
388.90646947727657
 21
328.17347189129288
 31
0.0
  0
LINE
  5
1EBA0
  8
SU
 10
389.10774301075742
 20
328.37347189129281
 30
0.0
 11
388.78646947727668
 21
328.37347189129281
 31
0.0
  0
LINE
  5
1EBA1
  8
SU
 10
389.22774301075748
 20
328.57347189129302
 30
0.0
 11
388.66646947727662
 21
328.57347189129302
 31
0.0
  0
LINE
  5
1EBA2
  8
SU
 10
389.34774301075743
 20
328.7734718912929
 30
0.0
 11
388.54646947727639
 21
328.7734718912929
 31
0.0
  0
LINE
  5
1EBA3
  8
SU
 10
389.46774301075732
 20
328.97347189129312
 30
0.0
 11
388.4264694772765
 21
328.97347189129312
 31
0.0
  0
LINE
  5
1EBA4
  8
SU
 10
389.58774301075738
 20
329.17347189129299
 30
0.0
 11
388.30646947727672
 21
329.17347189129299
 31
0.0
  0
LINE
  5
1EBA5
  8
SU
 10
389.70774301075761
 20
329.37347189129281
 30
0.0
 11
388.1864694772766
 21
329.37347189129281
 31
0.0
  0
LINE
  5
1EBA6
  8
SU
 10
389.8277430107575
 20
329.57347189129302
 30
0.0
 11
388.06646947727643
 21
329.57347189129302
 31
0.0
  0
LINE
  5
1EBA7
  8
SU
 10
389.94774301075728
 20
329.77347189129279
 30
0.0
 11
387.94646947727659
 21
329.77347189129279
 31
0.0
  0
LINE
  5
1EBA8
  8
SU
 10
390.06774301075723
 20
329.97347189129312
 30
0.0
 11
387.8264694772767
 21
329.97347189129312
 31
0.0
  0
LINE
  5
1EBA9
  8
SU
 10
390.18774301075757
 20
330.17347189129288
 30
0.0
 11
387.70646947727653
 21
330.17347189129288
 31
0.0
  0
LINE
  5
1EBAA
  8
SU
 10
390.30774301075752
 20
330.37347189129281
 30
0.0
 11
387.58646947727641
 21
330.37347189129281
 31
0.0
  0
LINE
  5
1EBAB
  8
SU
 10
390.4277430107573
 20
330.57347189129302
 30
0.0
 11
387.46646947727652
 21
330.57347189129302
 31
0.0
  0
LINE
  5
1EBAC
  8
SU
 10
390.54774301075747
 20
330.7734718912929
 30
0.0
 11
387.34646947727663
 21
330.7734718912929
 31
0.0
  0
LINE
  5
1EBAD
  8
SU
 10
390.66774301075742
 20
330.97347189129312
 30
0.0
 11
387.22646947727651
 21
330.97347189129312
 31
0.0
  0
LINE
  5
1EBAE
  8
SU
 10
390.78774301075748
 20
331.17347189129299
 30
0.0
 11
387.10646947727662
 21
331.17347189129299
 31
0.0
  0
LINE
  5
1EBAF
  8
SU
 10
390.90774301075737
 20
331.37347189129281
 30
0.0
 11
386.9864694772765
 21
331.37347189129281
 31
0.0
  0
LINE
  5
1EBB0
  8
SU
 10
391.02774301075749
 20
331.57347189129302
 30
0.0
 11
386.86646947727661
 21
331.57347189129302
 31
0.0
  0
LINE
  5
1EBB1
  8
SU
 10
391.14774301075738
 20
331.77347189129279
 30
0.0
 11
386.74646947727649
 21
331.77347189129279
 31
0.0
  0
LINE
  5
1EBB2
  8
SU
 10
391.2677430107575
 20
331.97347189129312
 30
0.0
 11
386.6264694772766
 21
331.97347189129312
 31
0.0
  0
LINE
  5
1EBB3
  8
SU
 10
391.38774301075739
 20
332.17347189129288
 30
0.0
 11
386.50646947727648
 21
332.17347189129288
 31
0.0
  0
LINE
  5
1EBB4
  8
SU
 10
391.50774301075728
 20
332.3734718912927
 30
0.0
 11
386.38646947727659
 21
332.3734718912927
 31
0.0
  0
LINE
  5
1EBB5
  8
SU
 10
391.6277430107574
 20
332.57347189129302
 30
0.0
 11
386.26646947727647
 21
332.57347189129302
 31
0.0
  0
LINE
  5
1EBB6
  8
SU
 10
391.74774301075752
 20
332.7734718912929
 30
0.0
 11
386.14646947727658
 21
332.7734718912929
 31
0.0
  0
LINE
  5
1EBB7
  8
SU
 10
391.86774301075741
 20
332.97347189129312
 30
0.0
 11
386.02646947727641
 21
332.97347189129312
 31
0.0
  0
LINE
  5
1EBB8
  8
SU
 10
391.98774301075753
 20
333.17347189129299
 30
0.0
 11
385.90646947727657
 21
333.17347189129299
 31
0.0
  0
LINE
  5
1EBB9
  8
SU
 10
392.10774301075742
 20
333.37347189129281
 30
0.0
 11
385.78646947727668
 21
333.37347189129281
 31
0.0
  0
LINE
  5
1EBBA
  8
SU
 10
392.22774301075748
 20
333.57347189129302
 30
0.0
 11
385.66646947727662
 21
333.57347189129302
 31
0.0
  0
LINE
  5
1EBBB
  8
SU
 10
392.34774301075743
 20
333.77347189129279
 30
0.0
 11
385.5464694772765
 21
333.77347189129279
 31
0.0
  0
LINE
  5
1EBBC
  8
SU
 10
392.46774301075732
 20
333.97347189129312
 30
0.0
 11
385.42646947727661
 21
333.97347189129312
 31
0.0
  0
LINE
  5
1EBBD
  8
SU
 10
392.58774301075738
 20
334.17347189129288
 30
0.0
 11
385.30646947727672
 21
334.17347189129288
 31
0.0
  0
LINE
  5
1EBBE
  8
SU
 10
392.7077430107575
 20
334.3734718912927
 30
0.0
 11
385.1864694772766
 21
334.3734718912927
 31
0.0
  0
LINE
  5
1EBBF
  8
SU
 10
392.82774301075739
 20
334.57347189129302
 30
0.0
 11
385.06646947727643
 21
334.57347189129302
 31
0.0
  0
LINE
  5
1EBC0
  8
SU
 10
392.94774301075728
 20
334.77347189129279
 30
0.0
 11
384.94646947727648
 21
334.77347189129279
 31
0.0
  0
LINE
  5
1EBC1
  8
SU
 10
393.06774301075723
 20
334.97347189129312
 30
0.0
 11
384.82646947727659
 21
334.97347189129312
 31
0.0
  0
LINE
  5
1EBC2
  8
SU
 10
393.18774301075757
 20
335.17347189129299
 30
0.0
 11
384.70646947727658
 21
335.17347189129299
 31
0.0
  0
LINE
  5
1EBC3
  8
SU
 10
393.30774301075752
 20
335.37347189129281
 30
0.0
 11
384.58646947727641
 21
335.37347189129281
 31
0.0
  0
LINE
  5
1EBC4
  8
SU
 10
393.42774301075741
 20
335.57347189129302
 30
0.0
 11
384.46646947727652
 21
335.57347189129302
 31
0.0
  0
LINE
  5
1EBC5
  8
SU
 10
393.54774301075747
 20
335.77347189129279
 30
0.0
 11
384.34646947727663
 21
335.77347189129279
 31
0.0
  0
LINE
  5
1EBC6
  8
SU
 10
393.66774301075731
 20
335.97347189129312
 30
0.0
 11
384.22646947727651
 21
335.97347189129312
 31
0.0
  0
LINE
  5
1EBC7
  8
SU
 10
393.78774301075748
 20
336.17347189129288
 30
0.0
 11
384.10646947727662
 21
336.17347189129288
 31
0.0
  0
LINE
  5
1EBC8
  8
SU
 10
393.90774301075737
 20
336.3734718912927
 30
0.0
 11
383.9864694772765
 21
336.3734718912927
 31
0.0
  0
LINE
  5
1EBC9
  8
SU
 10
394.02774301075749
 20
336.57347189129302
 30
0.0
 11
383.86646947727661
 21
336.57347189129302
 31
0.0
  0
LINE
  5
1EBCA
  8
SU
 10
394.14774301075738
 20
336.77347189129279
 30
0.0
 11
383.74646947727649
 21
336.77347189129279
 31
0.0
  0
LINE
  5
1EBCB
  8
SU
 10
394.2677430107575
 20
336.97347189129312
 30
0.0
 11
383.6264694772766
 21
336.97347189129312
 31
0.0
  0
LINE
  5
1EBCC
  8
SU
 10
394.38774301075739
 20
337.17347189129288
 30
0.0
 11
383.50646947727648
 21
337.17347189129288
 31
0.0
  0
LINE
  5
1EBCD
  8
SU
 10
394.50774301075728
 20
337.37347189129281
 30
0.0
 11
383.38646947727659
 21
337.37347189129281
 31
0.0
  0
LINE
  5
1EBCE
  8
SU
 10
394.6277430107574
 20
337.57347189129302
 30
0.0
 11
383.26646947727647
 21
337.57347189129302
 31
0.0
  0
LINE
  5
1EBCF
  8
SU
 10
394.74774301075752
 20
337.77347189129279
 30
0.0
 11
383.14646947727658
 21
337.77347189129279
 31
0.0
  0
LINE
  5
1EBD0
  8
SU
 10
394.86774301075741
 20
337.97347189129312
 30
0.0
 11
383.02646947727652
 21
337.97347189129312
 31
0.0
  0
LINE
  5
1EBD1
  8
SU
 10
985.31596980819359
 20
164.9847477994347
 30
0.0
 11
995.31596980819359
 21
170.98474779943459
 31
0.0
  0
LINE
  5
1EBD2
  8
SU
 10
985.31596980819359
 20
176.98474779943459
 30
0.0
 11
995.31596980819359
 21
170.98474779943459
 31
0.0
  0
LINE
  5
1EBD3
  8
SU
 10
985.31596980819359
 20
164.9847477994347
 30
0.0
 11
985.31596980819359
 21
176.98474779943459
 31
0.0
  0
LINE
  5
1EBD4
  8
SU
 10
995.2482418636265
 20
170.94411103269411
 30
0.0
 11
995.2482418636265
 21
171.02538456617501
 31
0.0
  0
LINE
  5
1EBD5
  8
SU
 10
995.04824186362669
 20
170.82411103269419
 30
0.0
 11
995.04824186362669
 21
171.1453845661749
 31
0.0
  0
LINE
  5
1EBD6
  8
SU
 10
994.8482418636263
 20
170.70411103269399
 30
0.0
 11
994.8482418636263
 21
171.26538456617499
 31
0.0
  0
LINE
  5
1EBD7
  8
SU
 10
994.64824186362659
 20
170.5841110326941
 30
0.0
 11
994.64824186362659
 21
171.38538456617511
 31
0.0
  0
LINE
  5
1EBD8
  8
SU
 10
994.44824186362644
 20
170.46411103269429
 30
0.0
 11
994.44824186362644
 21
171.505384566175
 31
0.0
  0
LINE
  5
1EBD9
  8
SU
 10
994.2482418636265
 20
170.3441110326942
 30
0.0
 11
994.2482418636265
 21
171.62538456617489
 31
0.0
  0
LINE
  5
1EBDA
  8
SU
 10
994.04824186362657
 20
170.224111032694
 30
0.0
 11
994.04824186362657
 21
171.74538456617509
 31
0.0
  0
LINE
  5
1EBDB
  8
SU
 10
993.8482418636263
 20
170.10411103269411
 30
0.0
 11
993.8482418636263
 21
171.86538456617521
 31
0.0
  0
LINE
  5
1EBDC
  8
SU
 10
993.64824186362659
 20
169.9841110326943
 30
0.0
 11
993.64824186362659
 21
171.98538456617499
 31
0.0
  0
LINE
  5
1EBDD
  8
SU
 10
993.44824186362621
 20
169.86411103269441
 30
0.0
 11
993.44824186362621
 21
172.10538456617491
 31
0.0
  0
LINE
  5
1EBDE
  8
SU
 10
993.2482418636265
 20
169.74411103269401
 30
0.0
 11
993.2482418636265
 21
172.22538456617511
 31
0.0
  0
LINE
  5
1EBDF
  8
SU
 10
993.04824186362657
 20
169.62411103269409
 30
0.0
 11
993.04824186362657
 21
172.3453845661752
 31
0.0
  0
LINE
  5
1EBE0
  8
SU
 10
992.84824186362641
 20
169.5041110326942
 30
0.0
 11
992.84824186362641
 21
172.46538456617509
 31
0.0
  0
LINE
  5
1EBE1
  8
SU
 10
992.64824186362671
 20
169.38411103269411
 30
0.0
 11
992.64824186362671
 21
172.58538456617501
 31
0.0
  0
LINE
  5
1EBE2
  8
SU
 10
992.44824186362621
 20
169.26411103269419
 30
0.0
 11
992.44824186362621
 21
172.7053845661751
 31
0.0
  0
LINE
  5
1EBE3
  8
SU
 10
992.2482418636265
 20
169.1441110326941
 30
0.0
 11
992.2482418636265
 21
172.82538456617499
 31
0.0
  0
LINE
  5
1EBE4
  8
SU
 10
992.04824186362657
 20
169.02411103269421
 30
0.0
 11
992.04824186362657
 21
172.94538456617511
 31
0.0
  0
LINE
  5
1EBE5
  8
SU
 10
991.84824186362641
 20
168.90411103269409
 30
0.0
 11
991.84824186362641
 21
173.065384566175
 31
0.0
  0
LINE
  5
1EBE6
  8
SU
 10
991.64824186362648
 20
168.7841110326942
 30
0.0
 11
991.64824186362648
 21
173.18538456617509
 31
0.0
  0
LINE
  5
1EBE7
  8
SU
 10
991.44824186362632
 20
168.66411103269411
 30
0.0
 11
991.44824186362632
 21
173.30538456617501
 31
0.0
  0
LINE
  5
1EBE8
  8
SU
 10
991.2482418636265
 20
168.54411103269419
 30
0.0
 11
991.2482418636265
 21
173.4253845661751
 31
0.0
  0
LINE
  5
1EBE9
  8
SU
 10
991.04824186362657
 20
168.4241110326943
 30
0.0
 11
991.04824186362657
 21
173.54538456617499
 31
0.0
  0
LINE
  5
1EBEA
  8
SU
 10
990.84824186362641
 20
168.30411103269421
 30
0.0
 11
990.84824186362641
 21
173.66538456617511
 31
0.0
  0
LINE
  5
1EBEB
  8
SU
 10
990.64824186362648
 20
168.18411103269409
 30
0.0
 11
990.64824186362648
 21
173.785384566175
 31
0.0
  0
LINE
  5
1EBEC
  8
SU
 10
990.44824186362632
 20
168.0641110326942
 30
0.0
 11
990.44824186362632
 21
173.90538456617509
 31
0.0
  0
LINE
  5
1EBED
  8
SU
 10
990.24824186362662
 20
167.94411103269411
 30
0.0
 11
990.24824186362662
 21
174.02538456617501
 31
0.0
  0
LINE
  5
1EBEE
  8
SU
 10
990.04824186362669
 20
167.82411103269419
 30
0.0
 11
990.04824186362669
 21
174.1453845661749
 31
0.0
  0
LINE
  5
1EBEF
  8
SU
 10
989.84824186362641
 20
167.70411103269399
 30
0.0
 11
989.84824186362641
 21
174.26538456617499
 31
0.0
  0
LINE
  5
1EBF0
  8
SU
 10
989.64824186362648
 20
167.58411103269421
 30
0.0
 11
989.64824186362648
 21
174.38538456617511
 31
0.0
  0
LINE
  5
1EBF1
  8
SU
 10
989.44824186362632
 20
167.46411103269429
 30
0.0
 11
989.44824186362632
 21
174.505384566175
 31
0.0
  0
LINE
  5
1EBF2
  8
SU
 10
989.24824186362639
 20
167.34411103269409
 30
0.0
 11
989.24824186362639
 21
174.62538456617489
 31
0.0
  0
LINE
  5
1EBF3
  8
SU
 10
989.04824186362669
 20
167.224111032694
 30
0.0
 11
989.04824186362669
 21
174.74538456617501
 31
0.0
  0
LINE
  5
1EBF4
  8
SU
 10
988.84824186362641
 20
167.10411103269411
 30
0.0
 11
988.84824186362641
 21
174.86538456617521
 31
0.0
  0
LINE
  5
1EBF5
  8
SU
 10
988.64824186362659
 20
166.9841110326943
 30
0.0
 11
988.64824186362659
 21
174.98538456617499
 31
0.0
  0
LINE
  5
1EBF6
  8
SU
 10
988.44824186362632
 20
166.86411103269441
 30
0.0
 11
988.44824186362632
 21
175.10538456617491
 31
0.0
  0
LINE
  5
1EBF7
  8
SU
 10
988.24824186362639
 20
166.74411103269401
 30
0.0
 11
988.24824186362639
 21
175.22538456617511
 31
0.0
  0
LINE
  5
1EBF8
  8
SU
 10
988.04824186362669
 20
166.62411103269409
 30
0.0
 11
988.04824186362669
 21
175.3453845661752
 31
0.0
  0
LINE
  5
1EBF9
  8
SU
 10
987.84824186362653
 20
166.5041110326942
 30
0.0
 11
987.84824186362653
 21
175.46538456617509
 31
0.0
  0
LINE
  5
1EBFA
  8
SU
 10
987.64824186362659
 20
166.38411103269411
 30
0.0
 11
987.64824186362659
 21
175.58538456617501
 31
0.0
  0
LINE
  5
1EBFB
  8
SU
 10
987.44824186362632
 20
166.26411103269419
 30
0.0
 11
987.44824186362632
 21
175.7053845661751
 31
0.0
  0
LINE
  5
1EBFC
  8
SU
 10
987.24824186362639
 20
166.1441110326941
 30
0.0
 11
987.24824186362639
 21
175.82538456617499
 31
0.0
  0
LINE
  5
1EBFD
  8
SU
 10
987.04824186362669
 20
166.02411103269421
 30
0.0
 11
987.04824186362669
 21
175.94538456617511
 31
0.0
  0
LINE
  5
1EBFE
  8
SU
 10
986.8482418636263
 20
165.90411103269409
 30
0.0
 11
986.8482418636263
 21
176.065384566175
 31
0.0
  0
LINE
  5
1EBFF
  8
SU
 10
986.64824186362659
 20
165.7841110326942
 30
0.0
 11
986.64824186362659
 21
176.18538456617509
 31
0.0
  0
LINE
  5
1EC00
  8
SU
 10
986.44824186362644
 20
165.66411103269411
 30
0.0
 11
986.44824186362644
 21
176.30538456617501
 31
0.0
  0
LINE
  5
1EC01
  8
SU
 10
986.2482418636265
 20
165.54411103269419
 30
0.0
 11
986.2482418636265
 21
176.4253845661751
 31
0.0
  0
LINE
  5
1EC02
  8
SU
 10
986.04824186362657
 20
165.4241110326943
 30
0.0
 11
986.04824186362657
 21
176.54538456617499
 31
0.0
  0
LINE
  5
1EC03
  8
SU
 10
985.8482418636263
 20
165.30411103269421
 30
0.0
 11
985.8482418636263
 21
176.66538456617511
 31
0.0
  0
LINE
  5
1EC04
  8
SU
 10
985.64824186362659
 20
165.18411103269409
 30
0.0
 11
985.64824186362659
 21
176.785384566175
 31
0.0
  0
LINE
  5
1EC05
  8
SU
 10
985.44824186362644
 20
165.0641110326942
 30
0.0
 11
985.44824186362644
 21
176.90538456617509
 31
0.0
  0
LINE
  5
1EC06
  8
SU
 10
622.31596980819415
 20
164.98474779943581
 30
0.0
 11
612.31596980819415
 21
170.98474779943581
 31
0.0
  0
LINE
  5
1EC07
  8
SU
 10
622.31596980819415
 20
176.98474779943581
 30
0.0
 11
612.31596980819415
 21
170.98474779943581
 31
0.0
  0
LINE
  5
1EC08
  8
SU
 10
622.31596980819415
 20
164.98474779943581
 30
0.0
 11
622.31596980819415
 21
176.98474779943581
 31
0.0
  0
LINE
  5
1EC09
  8
SU
 10
612.38369775276135
 20
170.94411103269519
 30
0.0
 11
612.38369775276135
 21
171.02538456617609
 31
0.0
  0
LINE
  5
1EC0A
  8
SU
 10
612.58369775276117
 20
170.8241110326953
 30
0.0
 11
612.58369775276117
 21
171.14538456617601
 31
0.0
  0
LINE
  5
1EC0B
  8
SU
 10
612.78369775276144
 20
170.70411103269521
 30
0.0
 11
612.78369775276144
 21
171.26538456617621
 31
0.0
  0
LINE
  5
1EC0C
  8
SU
 10
612.98369775276115
 20
170.58411103269529
 30
0.0
 11
612.98369775276115
 21
171.3853845661763
 31
0.0
  0
LINE
  5
1EC0D
  8
SU
 10
613.18369775276153
 20
170.4641110326954
 30
0.0
 11
613.18369775276153
 21
171.50538456617619
 31
0.0
  0
LINE
  5
1EC0E
  8
SU
 10
613.38369775276135
 20
170.34411103269531
 30
0.0
 11
613.38369775276135
 21
171.62538456617611
 31
0.0
  0
LINE
  5
1EC0F
  8
SU
 10
613.58369775276117
 20
170.22411103269519
 30
0.0
 11
613.58369775276117
 21
171.7453845661762
 31
0.0
  0
LINE
  5
1EC10
  8
SU
 10
613.78369775276144
 20
170.1041110326953
 30
0.0
 11
613.78369775276144
 21
171.86538456617629
 31
0.0
  0
LINE
  5
1EC11
  8
SU
 10
613.98369775276115
 20
169.98411103269541
 30
0.0
 11
613.98369775276115
 21
171.98538456617621
 31
0.0
  0
LINE
  5
1EC12
  8
SU
 10
614.18369775276153
 20
169.86411103269549
 30
0.0
 11
614.18369775276153
 21
172.1053845661761
 31
0.0
  0
LINE
  5
1EC13
  8
SU
 10
614.38369775276135
 20
169.74411103269509
 30
0.0
 11
614.38369775276135
 21
172.22538456617619
 31
0.0
  0
LINE
  5
1EC14
  8
SU
 10
614.58369775276105
 20
169.62411103269531
 30
0.0
 11
614.58369775276105
 21
172.34538456617631
 31
0.0
  0
LINE
  5
1EC15
  8
SU
 10
614.78369775276144
 20
169.50411103269539
 30
0.0
 11
614.78369775276144
 21
172.4653845661762
 31
0.0
  0
LINE
  5
1EC16
  8
SU
 10
614.98369775276126
 20
169.3841110326953
 30
0.0
 11
614.98369775276126
 21
172.58538456617609
 31
0.0
  0
LINE
  5
1EC17
  8
SU
 10
615.18369775276153
 20
169.26411103269541
 30
0.0
 11
615.18369775276153
 21
172.70538456617621
 31
0.0
  0
LINE
  5
1EC18
  8
SU
 10
615.38369775276135
 20
169.14411103269521
 30
0.0
 11
615.38369775276135
 21
172.8253845661761
 31
0.0
  0
LINE
  5
1EC19
  8
SU
 10
615.58369775276105
 20
169.02411103269529
 30
0.0
 11
615.58369775276105
 21
172.94538456617619
 31
0.0
  0
LINE
  5
1EC1A
  8
SU
 10
615.78369775276144
 20
168.9041110326952
 30
0.0
 11
615.78369775276144
 21
173.06538456617611
 31
0.0
  0
LINE
  5
1EC1B
  8
SU
 10
615.98369775276115
 20
168.78411103269531
 30
0.0
 11
615.98369775276115
 21
173.1853845661762
 31
0.0
  0
LINE
  5
1EC1C
  8
SU
 10
616.18369775276153
 20
168.66411103269519
 30
0.0
 11
616.18369775276153
 21
173.30538456617609
 31
0.0
  0
LINE
  5
1EC1D
  8
SU
 10
616.38369775276135
 20
168.5441110326953
 30
0.0
 11
616.38369775276135
 21
173.42538456617621
 31
0.0
  0
LINE
  5
1EC1E
  8
SU
 10
616.58369775276105
 20
168.42411103269541
 30
0.0
 11
616.58369775276105
 21
173.5453845661761
 31
0.0
  0
LINE
  5
1EC1F
  8
SU
 10
616.78369775276144
 20
168.30411103269529
 30
0.0
 11
616.78369775276144
 21
173.6653845661763
 31
0.0
  0
LINE
  5
1EC20
  8
SU
 10
616.98369775276115
 20
168.1841110326952
 30
0.0
 11
616.98369775276115
 21
173.78538456617611
 31
0.0
  0
LINE
  5
1EC21
  8
SU
 10
617.18369775276153
 20
168.06411103269531
 30
0.0
 11
617.18369775276153
 21
173.90538456617631
 31
0.0
  0
LINE
  5
1EC22
  8
SU
 10
617.38369775276135
 20
167.94411103269519
 30
0.0
 11
617.38369775276135
 21
174.02538456617609
 31
0.0
  0
LINE
  5
1EC23
  8
SU
 10
617.58369775276117
 20
167.8241110326953
 30
0.0
 11
617.58369775276117
 21
174.14538456617601
 31
0.0
  0
LINE
  5
1EC24
  8
SU
 10
617.78369775276144
 20
167.70411103269521
 30
0.0
 11
617.78369775276144
 21
174.2653845661761
 31
0.0
  0
LINE
  5
1EC25
  8
SU
 10
617.98369775276115
 20
167.58411103269529
 30
0.0
 11
617.98369775276115
 21
174.3853845661763
 31
0.0
  0
LINE
  5
1EC26
  8
SU
 10
618.18369775276153
 20
167.4641110326954
 30
0.0
 11
618.18369775276153
 21
174.50538456617619
 31
0.0
  0
LINE
  5
1EC27
  8
SU
 10
618.38369775276135
 20
167.34411103269531
 30
0.0
 11
618.38369775276135
 21
174.62538456617611
 31
0.0
  0
LINE
  5
1EC28
  8
SU
 10
618.58369775276105
 20
167.22411103269519
 30
0.0
 11
618.58369775276105
 21
174.7453845661762
 31
0.0
  0
LINE
  5
1EC29
  8
SU
 10
618.78369775276144
 20
167.1041110326953
 30
0.0
 11
618.78369775276144
 21
174.86538456617629
 31
0.0
  0
LINE
  5
1EC2A
  8
SU
 10
618.98369775276115
 20
166.98411103269541
 30
0.0
 11
618.98369775276115
 21
174.98538456617621
 31
0.0
  0
LINE
  5
1EC2B
  8
SU
 10
619.18369775276153
 20
166.86411103269549
 30
0.0
 11
619.18369775276153
 21
175.1053845661761
 31
0.0
  0
LINE
  5
1EC2C
  8
SU
 10
619.38369775276135
 20
166.7441110326952
 30
0.0
 11
619.38369775276135
 21
175.22538456617619
 31
0.0
  0
LINE
  5
1EC2D
  8
SU
 10
619.58369775276105
 20
166.62411103269531
 30
0.0
 11
619.58369775276105
 21
175.34538456617631
 31
0.0
  0
LINE
  5
1EC2E
  8
SU
 10
619.78369775276144
 20
166.50411103269539
 30
0.0
 11
619.78369775276144
 21
175.4653845661762
 31
0.0
  0
LINE
  5
1EC2F
  8
SU
 10
619.98369775276115
 20
166.3841110326953
 30
0.0
 11
619.98369775276115
 21
175.58538456617609
 31
0.0
  0
LINE
  5
1EC30
  8
SU
 10
620.18369775276153
 20
166.26411103269541
 30
0.0
 11
620.18369775276153
 21
175.70538456617621
 31
0.0
  0
LINE
  5
1EC31
  8
SU
 10
620.38369775276135
 20
166.14411103269521
 30
0.0
 11
620.38369775276135
 21
175.8253845661761
 31
0.0
  0
LINE
  5
1EC32
  8
SU
 10
620.58369775276105
 20
166.0241110326954
 30
0.0
 11
620.58369775276105
 21
175.94538456617619
 31
0.0
  0
LINE
  5
1EC33
  8
SU
 10
620.78369775276144
 20
165.9041110326952
 30
0.0
 11
620.78369775276144
 21
176.06538456617611
 31
0.0
  0
LINE
  5
1EC34
  8
SU
 10
620.98369775276115
 20
165.78411103269531
 30
0.0
 11
620.98369775276115
 21
176.1853845661762
 31
0.0
  0
LINE
  5
1EC35
  8
SU
 10
621.18369775276153
 20
165.66411103269519
 30
0.0
 11
621.18369775276153
 21
176.30538456617609
 31
0.0
  0
LINE
  5
1EC36
  8
SU
 10
621.38369775276135
 20
165.5441110326953
 30
0.0
 11
621.38369775276135
 21
176.42538456617621
 31
0.0
  0
LINE
  5
1EC37
  8
SU
 10
621.58369775276117
 20
165.42411103269541
 30
0.0
 11
621.58369775276117
 21
176.5453845661761
 31
0.0
  0
LINE
  5
1EC38
  8
SU
 10
621.78369775276144
 20
165.30411103269529
 30
0.0
 11
621.78369775276144
 21
176.66538456617619
 31
0.0
  0
LINE
  5
1EC39
  8
SU
 10
621.98369775276115
 20
165.1841110326952
 30
0.0
 11
621.98369775276115
 21
176.78538456617611
 31
0.0
  0
LINE
  5
1EC3A
  8
SU
 10
622.18369775276153
 20
165.06411103269531
 30
0.0
 11
622.18369775276153
 21
176.90538456617631
 31
0.0
  0
LINE
  5
1EC3B
  8
SU
 10
822.31596980819324
 20
303.98474779943751
 30
0.0
 11
860.31596980819324
 21
303.98474779943751
 31
0.0
  0
LINE
  5
1EC3C
  8
SU
 10
822.31596980819324
 20
270.98474779943791
 30
0.0
 11
860.31596980819324
 21
270.98474779943791
 31
0.0
  0
LINE
  5
1EC3D
  8
SU
 10
857.31596980819336
 20
303.98474779943751
 30
0.0
 11
857.31596980819336
 21
270.98474779943791
 31
0.0
  0
LINE
  5
1EC41
  8
SU
 10
219.1970416945683
 20
637.33574394563084
 30
0.0
 11
219.1970416945683
 21
594.10571154064883
 31
0.0
  0
LINE
  5
1EC42
  8
SU
 10
219.1970416945683
 20
597.10571154064871
 30
0.0
 11
208.9470416945683
 21
597.10571154064871
 31
0.0
  0
LINE
  5
1EC43
  8
SU
 10
208.9470416945683
 20
597.10571154064871
 30
0.0
 11
179.87037502790159
 21
597.10571154064871
 31
0.0
  0
LINE
  5
1EC47
  8
SU
 10
219.1970416945683
 20
597.10574394563059
 30
0.0
 11
255.29704169456829
 21
597.10574394563059
 31
0.0
  0
LINE
  5
1EC4A
  8
SU
 10
249.6970416945683
 20
674.60574394563082
 30
0.0
 11
249.6970416945683
 21
706.6057410073613
 31
0.0
  0
LINE
  5
1EC4B
  8
SU
 10
255.29704169456829
 20
638.10574394563071
 30
0.0
 11
255.29704169456829
 21
706.6057410073613
 31
0.0
  0
LINE
  5
1EC4C
  8
SU
 10
249.6970416945683
 20
703.60574100736142
 30
0.0
 11
255.29704169456829
 21
703.60574100736142
 31
0.0
  0
LINE
  5
1EC4D
  8
SU
 10
255.29704169456829
 20
703.60574100736142
 30
0.0
 11
279.67037502790163
 21
703.60574100736142
 31
0.0
  0
LINE
  5
1EC51
  8
SU
 10
208.9470416945683
 20
125.28300748772079
 30
0.0
 11
208.9470416945683
 21
156.17861459537539
 31
0.0
  0
LINE
  5
1EC52
  8
SU
 10
223.94655029177031
 20
153.17861459537539
 30
0.0
 11
208.9470416945683
 21
153.17861459537539
 31
0.0
  0
LINE
  5
1EC53
  8
SU
 10
208.9470416945683
 20
153.17861459537539
 30
0.0
 11
188.1703750279016
 21
153.17861459537539
 31
0.0
  0
LINE
  5
1EC56
  8
SU
 10
208.9470416945683
 20
123.28300748772079
 30
0.0
 11
208.9470416945683
 21
68.283007487720852
 31
0.0
  0
LINE
  5
1EC57
  8
SU
 10
227.4470492611749
 20
71.283007487720852
 30
0.0
 11
208.9470416945683
 21
71.283007487720852
 31
0.0
  0
LINE
  5
1EC58
  8
SU
 10
208.9470416945683
 20
71.283007487720852
 30
0.0
 11
179.87037502790159
 21
71.283007487720852
 31
0.0
  0
LINE
  5
1EC5B
  8
SU
 10
224.44704926124621
 20
327.10574394672608
 30
0.0
 11
224.44704926124621
 21
292.1057439467258
 31
0.0
  0
LINE
  5
1EC5C
  8
SU
 10
208.9470416945683
 20
327.1057439467258
 30
0.0
 11
208.9470416945683
 21
292.1057439467258
 31
0.0
  0
LINE
  5
1EC5D
  8
SU
 10
224.44704926124621
 20
295.10574394672591
 30
0.0
 11
208.9470416945683
 21
295.10574394672591
 31
0.0
  0
LINE
  5
1EC5E
  8
SU
 10
208.9470416945683
 20
295.10574394672591
 30
0.0
 11
179.87037502790159
 21
295.10574394672591
 31
0.0
  0
LINE
  5
1EC62
  8
SU
 10
219.1970416945683
 20
674.60574394563082
 30
0.0
 11
219.1970416945683
 21
706.60577189412038
 31
0.0
  0
LINE
  5
1EC63
  8
SU
 10
208.9470416945683
 20
665.10574394563082
 30
0.0
 11
208.9470416945683
 21
706.60577189412038
 31
0.0
  0
LINE
  5
1EC64
  8
SU
 10
219.1970416945683
 20
703.60577189412027
 30
0.0
 11
208.9470416945683
 21
703.60577189412027
 31
0.0
  0
LINE
  5
1EC65
  8
SU
 10
208.9470416945683
 20
703.60577189412027
 30
0.0
 11
179.3337083612349
 21
703.60577189412027
 31
0.0
  0
LINE
  5
1EC69
  8
SU
 10
217.9470492611749
 20
626.10574473009865
 30
0.0
 11
217.9470492611749
 21
574.10574394562991
 31
0.0
  0
LINE
  5
1EC6A
  8
SU
 10
208.9470416945683
 20
626.10574473009865
 30
0.0
 11
208.9470416945683
 21
574.10574394562991
 31
0.0
  0
LINE
  5
1EC6B
  8
SU
 10
217.9470492611749
 20
577.1057439456298
 30
0.0
 11
208.9470416945683
 21
577.1057439456298
 31
0.0
  0
LINE
  5
1EC6F
  8
SU
 10
250.9470404794929
 20
626.10574520988212
 30
0.0
 11
250.9470404794929
 21
574.10574394563082
 31
0.0
  0
LINE
  5
1EC70
  8
SU
 10
255.29704169456829
 20
623.10574394563082
 30
0.0
 11
255.29704169456829
 21
574.10574394563082
 31
0.0
  0
LINE
  5
1EC71
  8
SU
 10
250.9470404794929
 20
577.10574394563082
 30
0.0
 11
255.29704169456829
 21
577.10574394563082
 31
0.0
  0
LINE
  5
1EC72
  8
SU
 10
255.29704169456829
 20
577.10574394563082
 30
0.0
 11
279.94704169456833
 21
577.10574394563082
 31
0.0
  0
LINE
  5
1EC76
  8
SU
 10
249.6970416945683
 20
703.60574100736142
 30
0.0
 11
219.1970416945683
 21
703.60574100736142
 31
0.0
  0
LINE
  5
1EC78
  8
SU
 10
822.31596980819336
 20
312.98474779943513
 30
0.0
 11
860.31596980819324
 21
312.98474779943513
 31
0.0
  0
LINE
  5
1EC79
  8
SU
 10
857.31596980819336
 20
303.9847477994378
 30
0.0
 11
857.31596980819336
 21
312.98474779943513
 31
0.0
  0
LINE
  5
1EC7C
  8
SU
 10
821.31596980819359
 20
311.98474779943513
 30
0.0
 11
821.31596980819359
 21
207.9847477994351
 31
0.0
  0
LINE
  5
1EC7D
  8
SU
 10
786.31596980819336
 20
210.9847477994351
 30
0.0
 11
821.31596980819359
 21
210.9847477994351
 31
0.0
  0
LINE
  5
1EC81
  8
SU
 10
986.31596980819324
 20
269.98474875116318
 30
0.0
 11
986.31596980819324
 21
187.9847477994355
 31
0.0
  0
LINE
  5
1EC82
  8
SU
 10
786.31596980819336
 20
269.98474875116318
 30
0.0
 11
786.31596980819336
 21
187.9847477994355
 31
0.0
  0
LINE
  5
1EC83
  8
SU
 10
986.31596980819324
 20
190.98474779943541
 30
0.0
 11
786.31596980819336
 21
190.98474779943541
 31
0.0
  0
LINE
  5
1EC87
  8
SU
 10
223.94655029177031
 20
126.01278151583691
 30
0.0
 11
223.94655029177031
 21
156.17861459537539
 31
0.0
  0
LINE
  5
1EC88
  8
SU
 10
244.94655029177031
 20
126.01278151583691
 30
0.0
 11
244.94655029177031
 21
156.17861459537539
 31
0.0
  0
LINE
  5
1EC89
  8
SU
 10
223.94655029177031
 20
153.17861459537539
 30
0.0
 11
244.94655029177031
 21
153.17861459537539
 31
0.0
  0
LINE
  5
1EC8D
  8
SU
 10
329.94710624401699
 20
112.28300748772079
 30
0.0
 11
391.94710624401569
 21
112.28300748772079
 31
0.0
  0
LINE
  5
1EC8E
  8
SU
 10
388.94710624401569
 20
112.28300748772079
 30
0.0
 11
388.94710624401569
 21
123.8713408210541
 31
0.0
  0
LINE
  5
1EC91
  8
SU
 10
227.4470492611749
 20
111.28300748772079
 30
0.0
 11
227.4470492611749
 21
68.283007487720852
 31
0.0
  0
LINE
  5
1EC92
  8
SU
 10
241.4470492611749
 20
111.28300748772079
 30
0.0
 11
241.4470492611749
 21
68.283007487720852
 31
0.0
  0
LINE
  5
1EC93
  8
SU
 10
227.4470492611749
 20
71.283007487720852
 30
0.0
 11
241.4470492611749
 21
71.283007487720852
 31
0.0
  0
LINE
  5
1EC97
  8
SU
 10
228.44655029177031
 20
113.0830188768941
 30
0.0
 11
228.44655029177031
 21
88.283007487720838
 31
0.0
  0
LINE
  5
1EC98
  8
SU
 10
240.44655029177039
 20
113.0830188768941
 30
0.0
 11
240.44655029177039
 21
88.283007487720838
 31
0.0
  0
LINE
  5
1EC99
  8
SU
 10
228.44655029177031
 20
91.283007487720852
 30
0.0
 11
240.44655029177039
 21
91.283007487720852
 31
0.0
  0
LINE
  5
1EC9D
  8
SU
 10
368.9471062440158
 20
131.28300748772079
 30
0.0
 11
368.9471062440158
 21
124.28300748772079
 31
0.0
  0
LINE
  5
1ECA0
  8
SU
 10
329.94710624401699
 20
124.28300748772079
 30
0.0
 11
391.94710624401552
 21
124.28300748772079
 31
0.0
  0
LINE
  5
1ECA1
  8
SU
 10
388.94710624401557
 20
244.28300748772079
 30
0.0
 11
388.94710624401552
 21
124.28300748772079
 31
0.0
  0
LINE
  5
1ECA3
  8
SU
 10
251.9470492611749
 20
131.28300748772079
 30
0.0
 11
371.94710624401591
 21
131.28300748772079
 31
0.0
  0
LINE
  5
1ECA4
  8
SU
 10
368.9471062440158
 20
131.28300748772079
 30
0.0
 11
368.9471062440158
 21
244.28300748772079
 31
0.0
  0
LINE
  5
1ECA7
  8
SU
 10
612.31596980819427
 20
236.9847477994351
 30
0.0
 11
612.31596980819427
 21
167.98474779943439
 31
0.0
  0
LINE
  5
1ECA8
  8
SU
 10
995.31596980819359
 20
236.9847477994351
 30
0.0
 11
995.31596980819359
 21
167.98474779943439
 31
0.0
  0
LINE
  5
1ECA9
  8
SU
 10
612.31596980819427
 20
170.98474779943439
 30
0.0
 11
995.31596980819359
 21
170.98474779943439
 31
0.0
  0
LINE
  5
1ECAB
  8
SU
 10
255.79704042747829
 20
623.60574394563082
 30
0.0
 11
351.94710624401711
 21
623.60574394563071
 31
0.0
  0
LINE
  5
1ECAC
  8
SU
 10
348.94710624401711
 20
627.1057444254144
 30
0.0
 11
348.94710624401711
 21
623.60574394563071
 31
0.0
  0
LINE
  5
1ECAD
  8
SU
 10
348.94710624401711
 20
623.60574394563071
 30
0.0
 11
348.94710624401711
 21
599.23241061229726
 31
0.0
  0
LINE
  5
1ECB1
  8
SU
 10
254.99704169456831
 20
636.60574394563082
 30
0.0
 11
371.94710624401711
 21
636.60574394563071
 31
0.0
  0
LINE
  5
1ECB2
  8
SU
 10
368.94710624401711
 20
664.10574394563093
 30
0.0
 11
368.94710624401699
 21
636.60574394563071
 31
0.0
  0
LINE
  5
1ECB6
  8
SU
 10
368.94710624401699
 20
636.60574394563071
 30
0.0
 11
368.94710624401699
 21
627.1057444254144
 31
0.0
  0
LINE
  5
1ECB9
  8
SU
 10
252.94704926124621
 20
327.10574394672619
 30
0.0
 11
252.94704926124621
 21
292.1057439467258
 31
0.0
  0
LINE
  5
1ECBA
  8
SU
 10
224.44704926124589
 20
295.10574394672591
 30
0.0
 11
252.94704926124621
 21
295.10574394672591
 31
0.0
  0
LINE
  5
1ECBD
  8
SU
 10
239.44704926124629
 20
333.10573902738793
 30
0.0
 11
351.94710624401711
 21
333.10573902738793
 31
0.0
  0
LINE
  5
1ECBE
  8
SU
 10
348.94710624401699
 20
333.10573902738793
 30
0.0
 11
348.94710624401699
 21
328.1057439467258
 31
0.0
  0
LINE
  5
1ECBF
  8
SU
 10
348.94710624401699
 20
328.1057439467258
 30
0.0
 11
348.94710624401699
 21
312.03241061339253
 31
0.0
  0
LINE
  5
1ECC3
  8
SU
 10
217.9470492611749
 20
577.10574394563082
 30
0.0
 11
250.9470416945685
 21
577.10574394563082
 31
0.0
  0
LINE
  5
1ECC5
  8
SU
 10
368.94710624401711
 20
337.1057439467258
 30
0.0
 11
368.94710624401711
 21
328.1057439467258
 31
0.0
  0
LINE
  5
1ECC8
  8
SU
 10
329.94710624401699
 20
664.10574394563093
 30
0.0
 11
391.94710624401699
 21
664.10574394563093
 31
0.0
  0
LINE
  5
1ECC9
  8
SU
 10
327.4454404518213
 20
328.1057439467258
 30
0.0
 11
391.94710624401699
 21
328.10574394672568
 31
0.0
  0
LINE
  5
1ECCA
  8
SU
 10
388.94710624401711
 20
664.10574394563093
 30
0.0
 11
388.94710624401688
 21
328.10574394672568
 31
0.0
  0
LINE
  5
1ECCC
  8
SU
 10
251.9470492611749
 20
337.1057439467258
 30
0.0
 11
371.94710624401699
 21
337.1057439467258
 31
0.0
  0
LINE
  5
1ECCD
  8
SU
 10
251.9470404794929
 20
627.10574520988212
 30
0.0
 11
371.94710624401711
 21
627.105745209882
 31
0.0
  0
LINE
  5
1ECCE
  8
SU
 10
368.94710624401699
 20
337.1057439467258
 30
0.0
 11
368.94710624401699
 21
627.105745209882
 31
0.0
  0
LINE
  5
1ECD2
  8
SU
 10
146.44704169456821
 20
161.88108369907411
 30
0.0
 11
135.84131798281919
 21
180.25073601886149
 31
0.0
210
0.0
220
0.0
230
-1.0
1001
ACAD
1000
DSTYLE
1002
{
1070
    41
1040
1.5
1070
    77
1070
     0
1070
   371
1070
    13
1002
}
  0
LINE
  5
1ECD3
  8
SU
 10
135.84131798281919
 20
180.25073601886149
 30
0.0
 11
114.4796552965192
 21
180.25073601886149
 31
0.0
210
0.0
220
0.0
230
-1.0
1001
ACAD
1000
DSTYLE
1002
{
1070
    41
1040
1.5
1070
    77
1070
     0
1070
   371
1070
    13
1002
}
  0
LINE
  5
1ECD4
  8
SU
 10
146.44704169456821
 20
365.70382015807922
 30
0.0
 11
135.84131798281919
 21
384.07347247786652
 31
0.0
210
0.0
220
0.0
230
-1.0
1001
ACAD
1000
DSTYLE
1002
{
1070
    41
1040
1.5
1070
    77
1070
     0
1070
   371
1070
    13
1002
}
  0
LINE
  5
1ECD5
  8
SU
 10
135.84131798281919
 20
384.07347247786652
 30
0.0
 11
114.4796552965192
 21
384.07347247786652
 31
0.0
210
0.0
220
0.0
230
-1.0
1001
ACAD
1000
DSTYLE
1002
{
1070
    41
1040
1.5
1070
    77
1070
     0
1070
   371
1070
    13
1002
}
  0
LINE
  5
1ECD6
  8
OS
 10
219.1970416945683
 20
673.60574394563082
 30
0.0
 11
249.6970416945683
 21
673.60574394563082
 31
0.0
1001
GENIUS_GENREC_14
1002
{
1000
PYDIR
1011
219.1970416945683
1021
0.0
1031
0.0
1021
664.10574394563082
1031
0.0
1002
}
1002
{
1000
PXDIR
1011
249.6970416945683
1021
0.0
1031
0.0
1021
673.60574394563082
1031
0.0
1002
}
1002
{
1000
PORI
1011
219.1970416945683
1021
0.0
1031
0.0
1021
673.60574394563082
1031
0.0
1002
}
1002
{
1000
PINS
1011
219.1970416945683
1021
0.0
1031
0.0
1021
673.60574394563082
1031
0.0
1002
}
1002
{
1000
PINS2
1011
249.6970416945683
1021
0.0
1031
0.0
1021
664.10574394563082
1031
0.0
1002
}
1002
{
1000
C
1070
     1
1002
}
1001
GENIUS_GENODEF_13
1002
{
1000
HIER
1070
     0
1002
}
1002
{
1000
MANEDIT
1070
     0
1002
}
1002
{
1000
NOSEL
1070
     0
1002
}
1002
{
1000
BEHIND
1070
     0
1002
}
1002
{
1000
OTHER
1070
     0
1002
}
1002
{
1000
REACTOR
1002
}
1001
GENIUS_GENOBJ-N-REC_13
1002
{
1000
OWNER
1000
GEN
1002
}
  0
LINE
  5
1ECD7
  8
OS
 10
249.6970416945683
 20
673.60574394563082
 30
0.0
 11
249.6970416945683
 21
664.10574394563082
 31
0.0
1001
GENIUS_GENREC_14
1002
{
1000
PYDIR
1011
219.1970416945683
1021
0.0
1031
0.0
1021
664.10574394563082
1031
0.0
1002
}
1002
{
1000
PXDIR
1011
249.6970416945683
1021
0.0
1031
0.0
1021
673.60574394563082
1031
0.0
1002
}
1002
{
1000
PORI
1011
219.1970416945683
1021
0.0
1031
0.0
1021
673.60574394563082
1031
0.0
1002
}
1002
{
1000
PINS
1011
219.1970416945683
1021
0.0
1031
0.0
1021
673.60574394563082
1031
0.0
1002
}
1002
{
1000
PINS2
1011
249.6970416945683
1021
0.0
1031
0.0
1021
664.10574394563082
1031
0.0
1002
}
1002
{
1000
C
1070
     1
1002
}
1001
GENIUS_GENODEF_13
1002
{
1000
HIER
1070
     0
1002
}
1002
{
1000
MANEDIT
1070
     0
1002
}
1002
{
1000
NOSEL
1070
     0
1002
}
1002
{
1000
BEHIND
1070
     0
1002
}
1002
{
1000
OTHER
1070
     0
1002
}
1002
{
1000
REACTOR
1002
}
1001
GENIUS_GENOBJ-N-REC_13
1002
{
1000
OWNER
1000
GEN
1002
}
  0
LINE
  5
1ECD8
  8
OS
 10
249.6970416945683
 20
664.10574394563082
 30
0.0
 11
219.1970416945683
 21
664.10574394563082
 31
0.0
1001
GENIUS_GENREC_14
1002
{
1000
PYDIR
1011
219.1970416945683
1021
0.0
1031
0.0
1021
664.10574394563082
1031
0.0
1002
}
1002
{
1000
PXDIR
1011
249.6970416945683
1021
0.0
1031
0.0
1021
673.60574394563082
1031
0.0
1002
}
1002
{
1000
PORI
1011
219.1970416945683
1021
0.0
1031
0.0
1021
673.60574394563082
1031
0.0
1002
}
1002
{
1000
PINS
1011
219.1970416945683
1021
0.0
1031
0.0
1021
673.60574394563082
1031
0.0
1002
}
1002
{
1000
PINS2
1011
249.6970416945683
1021
0.0
1031
0.0
1021
664.10574394563082
1031
0.0
1002
}
1002
{
1000
C
1070
     1
1002
}
1001
GENIUS_GENODEF_13
1002
{
1000
HIER
1070
     0
1002
}
1002
{
1000
MANEDIT
1070
     0
1002
}
1002
{
1000
NOSEL
1070
     0
1002
}
1002
{
1000
BEHIND
1070
     0
1002
}
1002
{
1000
OTHER
1070
     0
1002
}
1002
{
1000
REACTOR
1002
}
1001
GENIUS_GENOBJ-N-REC_13
1002
{
1000
OWNER
1000
GEN
1002
}
  0
LINE
  5
1ECD9
  8
OS
 10
219.1970416945683
 20
664.10574394563082
 30
0.0
 11
219.1970416945683
 21
673.60574394563082
 31
0.0
1001
GENIUS_GENREC_14
1002
{
1000
PYDIR
1011
219.1970416945683
1021
0.0
1031
0.0
1021
664.10574394563082
1031
0.0
1002
}
1002
{
1000
PXDIR
1011
249.6970416945683
1021
0.0
1031
0.0
1021
673.60574394563082
1031
0.0
1002
}
1002
{
1000
PORI
1011
219.1970416945683
1021
0.0
1031
0.0
1021
673.60574394563082
1031
0.0
1002
}
1002
{
1000
PINS
1011
219.1970416945683
1021
0.0
1031
0.0
1021
673.60574394563082
1031
0.0
1002
}
1002
{
1000
PINS2
1011
249.6970416945683
1021
0.0
1031
0.0
1021
664.10574394563082
1031
0.0
1002
}
1002
{
1000
C
1070
     1
1002
}
1001
GENIUS_GENODEF_13
1002
{
1000
HIER
1070
     0
1002
}
1002
{
1000
MANEDIT
1070
     0
1002
}
1002
{
1000
NOSEL
1070
     0
1002
}
1002
{
1000
BEHIND
1070
     0
1002
}
1002
{
1000
OTHER
1070
     0
1002
}
1002
{
1000
REACTOR
1002
}
1001
GENIUS_GENOBJ-N-REC_13
1002
{
1000
OWNER
1000
GEN
1002
}
  0
TEXT
  5
1ECDA
  8
SU
 10
823.18763847356217
 20
417.28474779943531
 30
0.0
 40
7.0
  1
9
 41
0.8299999999999999
  0
TEXT
  5
1ECDC
  8
SU
 10
896.84030514022879
 20
417.28474779943531
 30
0.0
 40
7.0
  1
有効開口
 41
0.8299999999999999
  0
TEXT
  5
1ECDF
  8
SU
 10
988.18763647486014
 20
192.28474779943511
 30
0.0
 40
7.0
  1
9
 41
0.8299999999999999
  0
TEXT
  5
1ECE1
  8
SU
 10
347.64710624401698
 20
144.62300748772091
 30
0.0
 40
7.0
  1
1.5
 50
90.0
 41
0.8299999999999999
  0
TEXT
  5
1ECE4
  8
SU
 10
856.01596980819318
 20
281.9514144661045
 30
0.0
 40
7.0
  1
33
 50
90.0
 41
0.8299999999999999
  0
TEXT
  5
1ECE7
  8
SU
 10
179.5103750279016
 20
598.40571154064867
 30
0.0
 40
7.0
  1
10.3
 41
0.8299999999999999
  0
TEXT
  5
1ECEA
  8
SU
 10
227.08843719618301
 20
598.40574394563055
 30
0.0
 40
7.0
  1
36.1
 41
0.8299999999999999
  0
TEXT
  5
1ECEC
  8
SU
 10
265.36704169456829
 20
704.90574100736126
 30
0.0
 40
7.0
  1
5.6
 41
0.8299999999999999
  0
TEXT
  5
1ECEF
  8
SU
 10
187.81037502790161
 20
154.4786145953754
 30
0.0
 40
7.0
  1
15
 41
0.8299999999999999
  0
TEXT
  5
1ECF1
  8
SU
 10
179.5103750279016
 20
72.583007487720849
 30
0.0
 40
7.0
  1
18.5
 41
0.8299999999999999
  0
TEXT
  5
1ECF3
  8
SU
 10
179.5103750279016
 20
296.40574394672592
 30
0.0
 40
7.0
  1
15.5
 41
0.8299999999999999
  0
TEXT
  5
1ECF6
  8
SU
 10
178.97370836123491
 20
704.90577189412033
 30
0.0
 40
7.0
  1
10.3
 41
0.8299999999999999
  0
TEXT
  5
1ECF9
  8
SU
 10
210.81871214453821
 20
578.40574394562975
 30
0.0
 40
7.0
  1
9
 41
0.8299999999999999
  0
TEXT
  5
1ECFC
  8
SU
 10
265.36704169456829
 20
578.40574394563066
 30
0.0
 40
7.0
  1
4.4
 41
0.8299999999999999
  0
TEXT
  5
1ECFF
  8
SU
 10
224.76370836123499
 20
704.90574100736126
 30
0.0
 40
7.0
  1
30.5
 41
0.8299999999999999
  0
TEXT
  5
1ED00
  8
SU
 10
856.01596980819318
 20
305.85641446610299
 30
0.0
 40
7.0
  1
9
 50
90.0
 41
0.8299999999999999
  0
TEXT
  5
1ED02
  8
SU
 10
794.40930314152695
 20
223.9514144661018
 30
0.0
 40
7.0
  1
(25)
 41
0.8299999999999999
  0
TEXT
  5
1ED03
  8
SU
 10
798.28263647486017
 20
212.28474779943511
 30
0.0
 40
7.0
  1
35
 41
0.8299999999999999
  0
TEXT
  5
1ED06
  8
SU
 10
879.81430314152658
 20
192.28474779943551
 30
0.0
 40
7.0
  1
DW
 41
0.8299999999999999
  0
TEXT
  5
1ED09
  8
SU
 10
229.74321695843699
 20
154.4786145953754
 30
0.0
 40
7.0
  1
21
 41
0.8299999999999999
  0
TEXT
  5
1ED0C
  8
SU
 10
387.64710624401579
 20
112.3346741543875
 30
0.0
 40
7.0
  1
12
 50
90.0
 41
0.8299999999999999
  0
TEXT
  5
1ED0E
  8
SU
 10
228.3603825945082
 20
72.583007487720849
 30
0.0
 40
7.0
  1
14
 41
0.8299999999999999
  0
TEXT
  5
1ED11
  8
SU
 10
228.49821695843701
 20
92.583007487720835
 30
0.0
 40
7.0
  1
12
 41
0.8299999999999999
  0
TEXT
  5
1ED14
  8
SU
 10
367.64710624401579
 20
125.0163408210541
 30
0.0
 40
7.0
  1
7
 50
90.0
 41
0.8299999999999999
  0
TEXT
  5
1ED16
  8
SU
 10
387.6471062440155
 20
211.54330464394559
 30
0.0
 40
10.0
  1
H
 50
90.0
 41
0.8299999999999999
  0
TEXT
  5
1ED17
  8
SU
 10
367.64710624401579
 20
209.67438750812229
 30
0.0
 40
7.0
  1
DH
 50
90.0
 41
0.8299999999999999
  0
TEXT
  5
1ED19
  8
SU
 10
799.07311266533679
 20
172.2847477994344
 30
0.0
 40
10.0
  1
W
 41
0.8299999999999999
  0
TEXT
  5
1ED1A
  8
SU
 10
347.64710624401698
 20
599.7024106122974
 30
0.0
 40
7.0
  1
3.5
 50
90.0
 41
0.8299999999999999
  0
TEXT
  5
1ED1D
  8
SU
 10
367.64710624401698
 20
640.67241061229743
 30
0.0
 40
7.0
  1
27.5
 50
90.0
 41
0.8299999999999999
  0
TEXT
  5
1ED20
  8
SU
 10
367.64710624401698
 20
603.20241109208109
 30
0.0
 40
7.0
  1
9.5
 50
90.0
 41
0.8299999999999999
  0
TEXT
  5
1ED21
  8
SU
 10
229.6559562671701
 20
296.40574394672592
 30
0.0
 40
7.0
  1
28.5
 41
0.8299999999999999
  0
TEXT
  5
1ED23
  8
SU
 10
347.64710624401698
 20
312.5024106133925
 30
0.0
 40
7.0
  1
5
 50
90.0
 41
0.8299999999999999
  0
TEXT
  5
1ED26
  8
SU
 10
228.91371214453841
 20
578.40574394563066
 30
0.0
 40
7.0
  1
33
 41
0.8299999999999999
  0
TEXT
  5
1ED27
  8
SU
 10
367.6471062440171
 20
329.97741061339241
 30
0.0
 40
7.0
  1
9
 50
90.0
 41
0.8299999999999999
  0
TEXT
  5
1ED29
  8
SU
 10
387.64710624401692
 20
478.42451881580507
 30
0.0
 40
10.0
  1
H
 50
90.0
 41
0.8299999999999999
  0
TEXT
  5
1ED2A
  8
SU
 10
367.64710624401698
 20
476.1574112449706
 30
0.0
 40
7.0
  1
DH
 50
90.0
 41
0.8299999999999999
  0
ARC
  5
1ED2D
  8
SU
 10
821.31596980819336
 20
415.9847477994353
 30
0.0
 40
0.6000000000000229
 50
0.0
 51
180.0
  0
ARC
  5
1ED2E
  8
SU
 10
821.31596980819336
 20
415.9847477994353
 30
0.0
 40
0.6000000000000229
 50
180.0
 51
0.0
  0
ARC
  5
1ED2F
  8
SU
 10
830.31597380559765
 20
415.9847477994353
 30
0.0
 40
0.6000000000000229
 50
0.0
 51
180.0
  0
ARC
  5
1ED30
  8
SU
 10
830.31597380559765
 20
415.9847477994353
 30
0.0
 40
0.6000000000000229
 50
180.0
 51
0.0
  0
ARC
  5
1ED31
  8
SU
 10
989.31596980819336
 20
415.9847477994353
 30
0.0
 40
0.6000000000000229
 50
180.0
 51
0.0
  0
ARC
  5
1ED32
  8
SU
 10
989.31596980819336
 20
415.9847477994353
 30
0.0
 40
0.6000000000000229
 50
0.0
 51
180.0
  0
ARC
  5
1ED33
  8
SU
 10
995.31596980819359
 20
190.9847477994351
 30
0.0
 40
0.6000000000000229
 50
180.0
 51
0.0
  0
ARC
  5
1ED34
  8
SU
 10
995.31596980819359
 20
190.9847477994351
 30
0.0
 40
0.6000000000000229
 50
0.0
 51
180.0
  0
ARC
  5
1ED35
  8
SU
 10
348.94710624401699
 20
125.78300748772079
 30
0.0
 40
0.5999999999999944
 50
90.0
 51
270.0
  0
ARC
  5
1ED36
  8
SU
 10
348.94710624401699
 20
125.78300748772079
 30
0.0
 40
0.5999999999999944
 50
270.0
 51
90.0
  0
ARC
  5
1ED37
  8
SU
 10
348.94710624401699
 20
124.28300748772079
 30
0.0
 40
0.5999999999999944
 50
270.0
 51
90.0
  0
ARC
  5
1ED38
  8
SU
 10
348.94710624401699
 20
124.28300748772079
 30
0.0
 40
0.5999999999999944
 50
90.0
 51
270.0
  0
ARC
  5
1ED39
  8
SU
 10
857.31596980819336
 20
270.98474779943791
 30
0.0
 40
0.6000000000000229
 50
90.0
 51
270.0
  0
ARC
  5
1ED3A
  8
SU
 10
857.31596980819336
 20
270.98474779943791
 30
0.0
 40
0.6000000000000229
 50
270.0
 51
90.0
  0
ARC
  5
1ED3B
  8
SU
 10
857.31596980819336
 20
303.98474779943751
 30
0.0
 40
0.6000000000000229
 50
270.0
 51
90.0
  0
ARC
  5
1ED3C
  8
SU
 10
857.31596980819336
 20
303.98474779943751
 30
0.0
 40
0.6000000000000229
 50
90.0
 51
270.0
  0
ARC
  5
1ED3D
  8
SU
 10
208.9470416945683
 20
597.10571154064871
 30
0.0
 40
0.5999999999999944
 50
0.0
 51
180.0
  0
ARC
  5
1ED3E
  8
SU
 10
208.9470416945683
 20
597.10571154064871
 30
0.0
 40
0.5999999999999944
 50
180.0
 51
0.0
  0
ARC
  5
1ED3F
  8
SU
 10
219.1970416945683
 20
597.10571154064871
 30
0.0
 40
0.5999999999999944
 50
180.0
 51
0.0
  0
ARC
  5
1ED40
  8
SU
 10
219.1970416945683
 20
597.10571154064871
 30
0.0
 40
0.5999999999999944
 50
0.0
 51
180.0
  0
ARC
  5
1ED41
  8
SU
 10
255.29704169456829
 20
597.10574394563059
 30
0.0
 40
0.5999999999999944
 50
180.0
 51
0.0
  0
ARC
  5
1ED42
  8
SU
 10
255.29704169456829
 20
597.10574394563059
 30
0.0
 40
0.5999999999999944
 50
0.0
 51
180.0
  0
ARC
  5
1ED43
  8
SU
 10
255.29704169456829
 20
703.60574100736142
 30
0.0
 40
0.5999999999999944
 50
180.0
 51
0.0
  0
ARC
  5
1ED44
  8
SU
 10
255.29704169456829
 20
703.60574100736142
 30
0.0
 40
0.5999999999999944
 50
0.0
 51
180.0
  0
ARC
  5
1ED45
  8
SU
 10
249.6970416945683
 20
703.60574100736142
 30
0.0
 40
0.5999999999999944
 50
0.0
 51
180.0
  0
ARC
  5
1ED46
  8
SU
 10
249.6970416945683
 20
703.60574100736142
 30
0.0
 40
0.5999999999999944
 50
180.0
 51
0.0
  0
ARC
  5
1ED47
  8
SU
 10
208.9470416945683
 20
153.17861459537539
 30
0.0
 40
0.5999999999999944
 50
0.0
 51
180.0
  0
ARC
  5
1ED48
  8
SU
 10
208.9470416945683
 20
153.17861459537539
 30
0.0
 40
0.5999999999999944
 50
180.0
 51
0.0
  0
ARC
  5
1ED49
  8
SU
 10
208.9470416945683
 20
71.283007487720852
 30
0.0
 40
0.5999999999999944
 50
0.0
 51
180.0
  0
ARC
  5
1ED4A
  8
SU
 10
208.9470416945683
 20
71.283007487720852
 30
0.0
 40
0.5999999999999944
 50
180.0
 51
0.0
  0
ARC
  5
1ED4B
  8
SU
 10
208.9470416945683
 20
295.10574394672591
 30
0.0
 40
0.5999999999999944
 50
0.0
 51
180.0
  0
ARC
  5
1ED4C
  8
SU
 10
208.9470416945683
 20
295.10574394672591
 30
0.0
 40
0.5999999999999944
 50
180.0
 51
0.0
  0
ARC
  5
1ED4D
  8
SU
 10
224.44704926124621
 20
295.10574394672591
 30
0.0
 40
0.5999999999999944
 50
180.0
 51
0.0
  0
ARC
  5
1ED4E
  8
SU
 10
224.44704926124621
 20
295.10574394672591
 30
0.0
 40
0.5999999999999944
 50
0.0
 51
180.0
  0
ARC
  5
1ED4F
  8
SU
 10
208.9470416945683
 20
703.60577189412027
 30
0.0
 40
0.5999999999999944
 50
0.0
 51
180.0
  0
ARC
  5
1ED50
  8
SU
 10
208.9470416945683
 20
703.60577189412027
 30
0.0
 40
0.5999999999999944
 50
180.0
 51
0.0
  0
ARC
  5
1ED51
  8
SU
 10
219.1970416945683
 20
703.60577189412027
 30
0.0
 40
0.5999999999999944
 50
180.0
 51
0.0
  0
ARC
  5
1ED52
  8
SU
 10
219.1970416945683
 20
703.60577189412027
 30
0.0
 40
0.5999999999999944
 50
0.0
 51
180.0
  0
ARC
  5
1ED53
  8
SU
 10
208.9470416945683
 20
577.1057439456298
 30
0.0
 40
0.5999999999999944
 50
0.0
 51
180.0
  0
ARC
  5
1ED54
  8
SU
 10
208.9470416945683
 20
577.1057439456298
 30
0.0
 40
0.5999999999999944
 50
180.0
 51
0.0
  0
ARC
  5
1ED55
  8
SU
 10
217.9470492611749
 20
577.1057439456298
 30
0.0
 40
0.5999999999999944
 50
180.0
 51
0.0
  0
ARC
  5
1ED56
  8
SU
 10
217.9470492611749
 20
577.1057439456298
 30
0.0
 40
0.5999999999999944
 50
0.0
 51
180.0
  0
ARC
  5
1ED57
  8
SU
 10
255.29704169456829
 20
577.10574394563082
 30
0.0
 40
0.5999999999999944
 50
180.0
 51
0.0
  0
ARC
  5
1ED58
  8
SU
 10
255.29704169456829
 20
577.10574394563082
 30
0.0
 40
0.5999999999999944
 50
0.0
 51
180.0
  0
ARC
  5
1ED59
  8
SU
 10
250.9470404794929
 20
577.10574394563082
 30
0.0
 40
0.5999999999999944
 50
0.0
 51
180.0
  0
ARC
  5
1ED5A
  8
SU
 10
250.9470404794929
 20
577.10574394563082
 30
0.0
 40
0.5999999999999944
 50
180.0
 51
0.0
  0
ARC
  5
1ED5B
  8
SU
 10
857.31596980819336
 20
312.98474779943513
 30
0.0
 40
0.6000000000000229
 50
270.0
 51
90.0
  0
ARC
  5
1ED5C
  8
SU
 10
857.31596980819336
 20
312.98474779943513
 30
0.0
 40
0.6000000000000229
 50
90.0
 51
270.0
  0
ARC
  5
1ED5D
  8
SU
 10
821.31596980819359
 20
210.9847477994351
 30
0.0
 40
0.6000000000000229
 50
180.0
 51
0.0
  0
ARC
  5
1ED5E
  8
SU
 10
821.31596980819359
 20
210.9847477994351
 30
0.0
 40
0.6000000000000229
 50
0.0
 51
180.0
  0
ARC
  5
1ED5F
  8
SU
 10
786.31596980819336
 20
210.9847477994351
 30
0.0
 40
0.6000000000000229
 50
0.0
 51
180.0
  0
ARC
  5
1ED60
  8
SU
 10
786.31596980819336
 20
210.9847477994351
 30
0.0
 40
0.6000000000000229
 50
180.0
 51
0.0
  0
ARC
  5
1ED61
  8
SU
 10
786.31596980819336
 20
190.98474779943541
 30
0.0
 40
0.6000000000000229
 50
0.0
 51
180.0
  0
ARC
  5
1ED62
  8
SU
 10
786.31596980819336
 20
190.98474779943541
 30
0.0
 40
0.6000000000000229
 50
180.0
 51
0.0
  0
ARC
  5
1ED63
  8
SU
 10
986.31596980819324
 20
190.98474779943541
 30
0.0
 40
0.6000000000000229
 50
180.0
 51
0.0
  0
ARC
  5
1ED64
  8
SU
 10
986.31596980819324
 20
190.98474779943541
 30
0.0
 40
0.6000000000000229
 50
0.0
 51
180.0
  0
ARC
  5
1ED65
  8
SU
 10
244.94655029177031
 20
153.17861459537539
 30
0.0
 40
0.5999999999999944
 50
180.0
 51
0.0
  0
ARC
  5
1ED66
  8
SU
 10
244.94655029177031
 20
153.17861459537539
 30
0.0
 40
0.5999999999999944
 50
0.0
 51
180.0
  0
ARC
  5
1ED67
  8
SU
 10
223.94655029177031
 20
153.17861459537539
 30
0.0
 40
0.5999999999999944
 50
0.0
 51
180.0
  0
ARC
  5
1ED68
  8
SU
 10
223.94655029177031
 20
153.17861459537539
 30
0.0
 40
0.5999999999999944
 50
180.0
 51
0.0
  0
ARC
  5
1ED69
  8
SU
 10
388.94710624401569
 20
112.28300748772079
 30
0.0
 40
0.5999999999999944
 50
90.0
 51
270.0
  0
ARC
  5
1ED6A
  8
SU
 10
388.94710624401569
 20
112.28300748772079
 30
0.0
 40
0.5999999999999944
 50
270.0
 51
90.0
  0
ARC
  5
1ED6B
  8
SU
 10
241.4470492611749
 20
71.283007487720852
 30
0.0
 40
0.5999999999999944
 50
180.0
 51
0.0
  0
ARC
  5
1ED6C
  8
SU
 10
241.4470492611749
 20
71.283007487720852
 30
0.0
 40
0.5999999999999944
 50
0.0
 51
180.0
  0
ARC
  5
1ED6D
  8
SU
 10
227.4470492611749
 20
71.283007487720852
 30
0.0
 40
0.5999999999999944
 50
0.0
 51
180.0
  0
ARC
  5
1ED6E
  8
SU
 10
227.4470492611749
 20
71.283007487720852
 30
0.0
 40
0.5999999999999944
 50
180.0
 51
0.0
  0
ARC
  5
1ED6F
  8
SU
 10
240.44655029177039
 20
91.283007487720852
 30
0.0
 40
0.5999999999999944
 50
180.0
 51
0.0
  0
ARC
  5
1ED70
  8
SU
 10
240.44655029177039
 20
91.283007487720852
 30
0.0
 40
0.5999999999999944
 50
0.0
 51
180.0
  0
ARC
  5
1ED71
  8
SU
 10
228.44655029177031
 20
91.283007487720852
 30
0.0
 40
0.5999999999999944
 50
0.0
 51
180.0
  0
ARC
  5
1ED72
  8
SU
 10
228.44655029177031
 20
91.283007487720852
 30
0.0
 40
0.5999999999999944
 50
180.0
 51
0.0
  0
ARC
  5
1ED73
  8
SU
 10
368.9471062440158
 20
124.28300748772079
 30
0.0
 40
0.5999999999999944
 50
90.0
 51
270.0
  0
ARC
  5
1ED74
  8
SU
 10
368.9471062440158
 20
124.28300748772079
 30
0.0
 40
0.5999999999999944
 50
270.0
 51
90.0
  0
ARC
  5
1ED75
  8
SU
 10
368.9471062440158
 20
131.28300748772079
 30
0.0
 40
0.5999999999999944
 50
90.0
 51
270.0
  0
ARC
  5
1ED76
  8
SU
 10
368.9471062440158
 20
131.28300748772079
 30
0.0
 40
0.5999999999999944
 50
270.0
 51
90.0
  0
ARC
  5
1ED77
  8
SU
 10
348.94710624401711
 20
623.60574394563071
 30
0.0
 40
0.6000000000000229
 50
90.0
 51
270.0
  0
ARC
  5
1ED78
  8
SU
 10
348.94710624401711
 20
623.60574394563071
 30
0.0
 40
0.6000000000000229
 50
270.0
 51
90.0
  0
ARC
  5
1ED79
  8
SU
 10
348.94710624401711
 20
627.1057444254144
 30
0.0
 40
0.6000000000000229
 50
270.0
 51
90.0
  0
ARC
  5
1ED7A
  8
SU
 10
348.94710624401711
 20
627.1057444254144
 30
0.0
 40
0.6000000000000229
 50
90.0
 51
270.0
  0
ARC
  5
1ED7B
  8
SU
 10
368.94710624401699
 20
636.60574394563071
 30
0.0
 40
0.6000000000000229
 50
90.0
 51
270.0
  0
ARC
  5
1ED7C
  8
SU
 10
368.94710624401699
 20
636.60574394563071
 30
0.0
 40
0.6000000000000229
 50
270.0
 51
90.0
  0
ARC
  5
1ED7D
  8
SU
 10
368.94710624401711
 20
664.10574394563093
 30
0.0
 40
0.6000000000000229
 50
270.0
 51
90.0
  0
ARC
  5
1ED7E
  8
SU
 10
368.94710624401711
 20
664.10574394563093
 30
0.0
 40
0.6000000000000229
 50
90.0
 51
270.0
  0
ARC
  5
1ED7F
  8
SU
 10
252.94704926124621
 20
295.10574394672591
 30
0.0
 40
0.5999999999999944
 50
180.0
 51
0.0
  0
ARC
  5
1ED80
  8
SU
 10
252.94704926124621
 20
295.10574394672591
 30
0.0
 40
0.5999999999999944
 50
0.0
 51
180.0
  0
ARC
  5
1ED81
  8
SU
 10
348.94710624401699
 20
328.1057439467258
 30
0.0
 40
0.6000000000000229
 50
90.0
 51
270.0
  0
ARC
  5
1ED82
  8
SU
 10
348.94710624401699
 20
328.1057439467258
 30
0.0
 40
0.6000000000000229
 50
270.0
 51
90.0
  0
ARC
  5
1ED83
  8
SU
 10
348.94710624401699
 20
333.10573902738793
 30
0.0
 40
0.6000000000000229
 50
270.0
 51
90.0
  0
ARC
  5
1ED84
  8
SU
 10
348.94710624401699
 20
333.10573902738793
 30
0.0
 40
0.6000000000000229
 50
90.0
 51
270.0
  0
ARC
  5
1ED85
  8
SU
 10
368.94710624401711
 20
328.1057439467258
 30
0.0
 40
0.6000000000000229
 50
90.0
 51
270.0
  0
ARC
  5
1ED86
  8
SU
 10
368.94710624401711
 20
328.1057439467258
 30
0.0
 40
0.6000000000000229
 50
270.0
 51
90.0
  0
ARC
  5
1ED87
  8
SU
 10
368.94710624401699
 20
627.105745209882
 30
0.0
 40
0.6000000000000229
 50
270.0
 51
90.0
  0
ARC
  5
1ED88
  8
SU
 10
368.94710624401699
 20
627.105745209882
 30
0.0
 40
0.6000000000000229
 50
90.0
 51
270.0
  0
ARC
  5
1ED89
  8
SU
 10
368.94710624401699
 20
337.1057439467258
 30
0.0
 40
0.6000000000000229
 50
90.0
 51
270.0
  0
ARC
  5
1ED8A
  8
SU
 10
368.94710624401699
 20
337.1057439467258
 30
0.0
 40
0.6000000000000229
 50
270.0
 51
90.0
  0
ENDSEC
  0
EOF
