  0
SECTION
  2
HEADER
  9
$ACADVER
  1
AC1009
  9
$INSBASE
 10
0.0
 20
0.0
 30
0.0
  9
$EXTMIN
 10
19.300000000000001
 20
16.25
 30
0.0
  9
$EXTMAX
 10
1165.5
 20
830.74999999999989
 30
0.0
  9
$LIMMIN
 10
0.0
 20
0.0
  9
$LIMMAX
 10
1189.0
 20
841.0
  9
$ORTHOMODE
 70
     1
  9
$REGENMODE
 70
     1
  9
$FILLMODE
 70
     1
  9
$QTEXTMODE
 70
     0
  9
$MIRRTEXT
 70
     0
  9
$DRAGMODE
 70
     2
  9
$LTSCALE
 40
1.0
  9
$OSMODE
 70
  3071
  9
$ATTMODE
 70
     1
  9
$TEXTSIZE
 40
12.5
  9
$TRACEWID
 40
1.0
  9
$TEXTSTYLE
  7
STANDARD
  9
$CLAYER
  8
0
  9
$CELTYPE
  6
BYLAYER
  9
$CECOLOR
 62
   256
  9
$DIMSCALE
 40
1.0
  9
$DIMASZ
 40
7.0
  9
$DIMEXO
 40
1.0
  9
$DIMDLI
 40
7.0
  9
$DIMRND
 40
0.0
  9
$DIMDLE
 40
0.0
  9
$DIMEXE
 40
3.0
  9
$DIMTP
 40
0.1
  9
$DIMTM
 40
0.1
  9
$DIMTXT
 40
7.0
  9
$DIMCEN
 40
0.0
  9
$DIMTSZ
 40
0.0
  9
$DIMTOL
 70
     0
  9
$DIMLIM
 70
     0
  9
$DIMTIH
 70
     0
  9
$DIMTOH
 70
     0
  9
$DIMSE1
 70
     0
  9
$DIMSE2
 70
     0
  9
$DIMTAD
 70
     1
  9
$DIMZIN
 70
     8
  9
$DIMBLK
  1
DOTSMALL
  9
$DIMASO
 70
     1
  9
$DIMSHO
 70
     1
  9
$DIMPOST
  1

  9
$DIMAPOST
  1
"
  9
$DIMALT
 70
     0
  9
$DIMALTD
 70
     2
  9
$DIMALTF
 40
0.0393701
  9
$DIMLFAC
 40
1.0
  9
$DIMTOFL
 70
     1
  9
$DIMTVP
 40
0.0
  9
$DIMTIX
 70
     0
  9
$DIMSOXD
 70
     0
  9
$DIMSAH
 70
     0
  9
$DIMBLK1
  1

  9
$DIMBLK2
  1

  9
$DIMSTYLE
  2
SANKYO
  9
$DIMCLRD
 70
   256
  9
$DIMCLRE
 70
   256
  9
$DIMCLRT
 70
   256
  9
$DIMTFAC
 40
0.71
  9
$DIMGAP
 40
1.3
  9
$LUNITS
 70
     2
  9
$LUPREC
 70
     4
  9
$SKETCHINC
 40
1.0
  9
$FILLETRAD
 40
0.4
  9
$AUNITS
 70
     0
  9
$AUPREC
 70
     0
  9
$MENU
  1
.
  9
$ELEVATION
 40
0.0
  9
$PELEVATION
 40
0.0
  9
$THICKNESS
 40
0.0
  9
$LIMCHECK
 70
     0
  9
$BLIPMODE
 70
     0
  9
$CHAMFERA
 40
10.0
  9
$CHAMFERB
 40
10.0
  9
$SKPOLY
 70
     0
  9
$TDCREATE
 40
2455110.561913426
  9
$TDUPDATE
 40
2459033.4658625121
  9
$TDINDWG
 40
1.8719940855999999
  9
$TDUSRTIMER
 40
1.8717984375000001
  9
$USRTIMER
 70
     1
  9
$ANGBASE
 50
0.0
  9
$ANGDIR
 70
     0
  9
$PDMODE
 70
     0
  9
$PDSIZE
 40
0.0
  9
$PLINEWID
 40
0.0
  9
$COORDS
 70
     2
  9
$SPLFRAME
 70
     0
  9
$SPLINETYPE
 70
     6
  9
$SPLINESEGS
 70
     8
  9
$ATTDIA
 70
     1
  9
$ATTREQ
 70
     1
  9
$HANDLING
 70
     1
  9
$HANDSEED
  5
19164
  9
$SURFTAB1
 70
     6
  9
$SURFTAB2
 70
     6
  9
$SURFTYPE
 70
     6
  9
$SURFU
 70
     6
  9
$SURFV
 70
     6
  9
$UCSNAME
  2

  9
$UCSORG
 10
0.0
 20
0.0
 30
0.0
  9
$UCSXDIR
 10
1.0
 20
0.0
 30
0.0
  9
$UCSYDIR
 10
0.0
 20
1.0
 30
0.0
  9
$PUCSNAME
  2

  9
$PUCSORG
 10
0.0
 20
0.0
 30
0.0
  9
$PUCSXDIR
 10
1.0
 20
0.0
 30
0.0
  9
$PUCSYDIR
 10
0.0
 20
1.0
 30
0.0
  9
$USERI1
 70
     0
  9
$USERI2
 70
     0
  9
$USERI3
 70
     0
  9
$USERI4
 70
     0
  9
$USERI5
 70
     0
  9
$USERR1
 40
0.0
  9
$USERR2
 40
0.0
  9
$USERR3
 40
0.0
  9
$USERR4
 40
0.0
  9
$USERR5
 40
0.0
  9
$WORLDVIEW
 70
     1
  9
$SHADEDGE
 70
     3
  9
$SHADEDIF
 70
    70
  9
$TILEMODE
 70
     1
  9
$MAXACTVP
 70
    48
  9
$PLIMCHECK
 70
     0
  9
$PEXTMIN
 10
1.0000000000000000E+020
 20
1.0000000000000000E+020
 30
1.0000000000000000E+020
  9
$PEXTMAX
 10
-1.0000000000000000E+020
 20
-1.0000000000000000E+020
 30
-1.0000000000000000E+020
  9
$PLIMMIN
 10
0.0
 20
0.0
  9
$PLIMMAX
 10
420.0
 20
297.0
  9
$UNITMODE
 70
     0
  9
$VISRETAIN
 70
     1
  9
$PLINEGEN
 70
     0
  9
$PSLTSCALE
 70
     1
  0
ENDSEC
  0
SECTION
  2
TABLES
  0
TABLE
  2
VPORT
 70
     1
  0
VPORT
  2
*ACTIVE
 70
     0
 10
0.0
 20
0.0
 11
1.0
 21
1.0
 12
592.41359224346638
 22
423.48359113394218
 13
0.0
 23
0.0
 14
2.5
 24
2.5
 15
10.0
 25
10.0
 16
0.0
 26
0.0
 36
1.0
 17
0.0
 27
0.0
 37
0.0
 40
820.92390940123255
 41
2.050913838120104
 42
50.0
 43
0.0
 44
0.0
 50
0.0
 51
0.0
 71
     0
 72
   100
 73
     1
 74
     1
 75
     0
 76
     0
 77
     0
 78
     0
  0
ENDTAB
  0
TABLE
  2
LTYPE
 70
    26
  0
LTYPE
  2
CONTINUOUS
 70
     0
  3
Solid line
 72
    65
 73
     0
 40
0.0
  0
LTYPE
  2
CENTER
 70
     0
  3
Center ____ _ ____ _ ____ _ ____ _ ____ _ ____
 72
    65
 73
     4
 40
50.799999999999997
 49
31.75
 49
-6.3499999999999988
 49
6.3499999999999988
 49
-6.3499999999999988
  0
LTYPE
  2
CENTER2
 70
     0
  3
Center (.5x) ___ _ ___ _ ___ _ ___ _ ___ _ ___
 72
    65
 73
     4
 40
28.574999999999999
 49
19.050000000000001
 49
-3.1749999999999989
 49
3.1749999999999989
 49
-3.1749999999999989
  0
LTYPE
  2
PHANTOM
 70
     0
  3
Phantom ______  __  __  ______  __  __  ______
 72
    65
 73
     6
 40
63.5
 49
31.75
 49
-6.3499999999999988
 49
6.3499999999999988
 49
-6.3499999999999988
 49
6.3499999999999988
 49
-6.3499999999999988
  0
LTYPE
  2
PHANTOM2
 70
     0
  3
Phantom (.5x) ___ _ _ ___ _ _ ___ _ _ ___ _ _
 72
    65
 73
     6
 40
31.75
 49
15.875
 49
-3.1749999999999989
 49
3.1749999999999989
 49
-3.1749999999999989
 49
3.1749999999999989
 49
-3.1749999999999989
  0
LTYPE
  2
DASHED
 70
     0
  3
Dashed __ __ __ __ __ __ __ __ __ __ __ __ __ _
 72
    65
 73
     2
 40
19.050000000000001
 49
12.699999999999999
 49
-6.3499999999999988
  0
LTYPE
  2
DASHED2
 70
     0
  3
Dashed (.5x) _ _ _ _ _ _ _ _ _ _ _ _ _ _ _ _ _
 72
    65
 73
     2
 40
9.5249999999999986
 49
6.3499999999999988
 49
-3.1749999999999989
  0
LTYPE
  2
ZIGZAG
 70
     0
  3
Zig zag /\/\/\/\/\/\/\/\/\/\/\/\/\/\/\/\/\/\/\/
 72
    65
 73
     4
 40
20.32254
 49
0.00254
 49
-5.0800000000000001
 49
-10.16
 49
-5.0800000000000001
  0
LTYPE
  2
AM_ISO02W050
 70
     0
  3
__ __ __ __ __ __ __ __ __ __ __ __ __ __ __
 72
    65
 73
     2
 40
7.5
 49
6.0
 49
-1.5
  0
LTYPE
  2
AMCONSTR
 70
     0
  3
_______________________
 72
    65
 73
     2
 40
9999.0
 49
9999.0
 49
0.0
  0
LTYPE
  2
AMZIGZAG
 70
     0
  3
/\/-/\/-/\/-/\/-/\/-/\/
 72
    65
 73
     2
 40
11.0001
 49
0.0001
 49
-11.0
  0
LTYPE
  2
ACJISTGB
 70
     0
  3
__ . . __ . .
 72
    65
 73
     6
 40
9.0
 49
4.0
 49
-1.0
 49
1.0
 49
-1.0
 49
1.0
 49
-1.0
  0
LTYPE
  2
ACJISTGL
 70
     0
  3
_ _ _ _ _
 72
    65
 73
     2
 40
3.0
 49
2.0
 49
-1.0
  0
LTYPE
  2
ACISOWELD
 70
     0
  3
_ _ _ _ _
 72
    65
 73
     2
 40
2.0
 49
2.0
 49
-1.0
  0
LTYPE
  2
ACISOTGB
 70
     0
  3
__ . . __ . .
 72
    65
 73
     6
 40
9.0
 49
4.0
 49
-1.0
 49
1.0
 49
-1.0
 49
1.0
 49
-1.0
  0
LTYPE
  2
ACISOTGL
 70
     0
  3
_ _ _ _ _
 72
    65
 73
     2
 40
3.0
 49
2.0
 49
-1.0
  0
LTYPE
  2
HIDDEN
 70
     0
  3
Hidden __ __ __ __ __ __ __ __ __ __ __ __ __ _
 72
    65
 73
     2
 40
9.5249999999999986
 49
6.3499999999999988
 49
-3.1749999999999989
  0
LTYPE
  2
AM_ISO08W050
 70
     0
  3
____ . ____ . ____ . ____ . ____ . ____ . ____
 72
    65
 73
     4
 40
18.0
 49
12.0
 49
-1.5
 49
3.0
 49
-1.5
  0
LTYPE
  2
AM_ISO09W050
 70
     0
  3
_____ . . _____ . . _____ . . ____ .. ____
 72
    65
 73
     6
 40
22.5
 49
12.0
 49
-1.5
 49
3.0
 49
-1.5
 49
3.0
 49
-1.5
  0
LTYPE
  2
AM_ISO08W050X2
 70
     0
  3
__ . __ . __ . __ . __ . __
 72
    65
 73
     4
 40
9.0
 49
6.0
 49
-0.75
 49
1.5
 49
-0.75
  0
LTYPE
  2
AM_ISO02W050X2
 70
     0
  3
 _ _ _ _ _ _ _ _ _ _ _ _
 72
    65
 73
     2
 40
3.75
 49
3.0
 49
-0.75
  0
LTYPE
  2
DDM
 70
     0
  3
中点線
 72
    65
 73
     2
 40
3.0
 49
2.0
 49
-1.0
  0
LTYPE
  2
DD2
 70
     0
  3
二点鎖線
 72
    65
 73
     6
 40
12.0
 49
6.0
 49
-1.1999999999999991
 49
1.1999999999999991
 49
-1.1999999999999991
 49
1.1999999999999991
 49
-1.1999999999999991
  0
LTYPE
  2
HIDDEN2
 70
     0
  3
Hidden (.5x) _ _ _ _ _ _ _ _ _ _ _ _ _ _ _ _ _
 72
    65
 73
     2
 40
0.1875
 49
0.125
 49
-0.0625
  0
LTYPE
  2
ACANSTGB
 70
     0
  3
__ . . __ . .
 72
    65
 73
     6
 40
0.35433070866
 49
0.15748031496
 49
-0.03937007874
 49
0.03937007874
 49
-0.03937007874
 49
0.03937007874
 49
-0.03937007874
  0
LTYPE
  2
ACANSTGL
 70
     0
  3
_ _ _ _ _
 72
    65
 73
     2
 40
0.11811023622
 49
0.07874015748
 49
-0.03937007874
  0
ENDTAB
  0
TABLE
  2
LAYER
 70
    11
  0
LAYER
  2
0
 70
     0
 62
     7
  6
CONTINUOUS
  0
LAYER
  2
KI1
 70
     0
 62
     7
  6
CONTINUOUS
  0
LAYER
  2
SU
 70
     0
 62
     3
  6
CONTINUOUS
  0
LAYER
  2
MJ
 70
     0
 62
     2
  6
CONTINUOUS
  0
LAYER
  2
OS
 70
     0
 62
     2
  6
CONTINUOUS
  0
LAYER
  2
KI2
 70
     0
 62
     4
  6
CONTINUOUS
  0
LAYER
  2
PH
 70
     0
 62
     6
  6
PHANTOM2
  0
LAYER
  2
WK
 70
     4
 62
     7
  6
CONTINUOUS
  0
LAYER
  2
DEFPOINTS
 70
     1
 62
    -7
  6
CONTINUOUS
  0
LAYER
  2
TS
 70
     0
 62
     6
  6
DASHED2
  0
LAYER
  2
CL
 70
     0
 62
     4
  6
CENTER2
  0
ENDTAB
  0
TABLE
  2
STYLE
 70
     4
  0
STYLE
  2
STANDARD
 70
     0
 40
0.0
 41
0.8299999999999999
 50
0.0
 71
     0
 42
12.5
  3
romans.shx
  4
extfont.shx
  0
STYLE
  2

 70
     1
 40
0.0
 41
1.0
 50
0.0
 71
     0
 42
2.5
  3
ltypeshp.shx
  4

  0
STYLE
  2
ACISOGDT
 70
     0
 40
0.0
 41
1.0
 50
0.0
 71
     0
 42
2.5
  3
amgdt.shx
  4

  0
STYLE
  2
ACANSGDT
 70
     0
 40
0.0
 41
1.0
 50
0.0
 71
     0
 42
12.5
  3
amgdt.shx
  4

  0
ENDTAB
  0
TABLE
  2
VIEW
 70
     6
  0
VIEW
  2
AM_VIEW1
 70
     0
 40
297.5
 10
-194.33547008547001
 20
148.25
 41
457.32905982905982
 11
0.0
 21
0.0
 31
1.0
 12
0.0
 22
0.0
 32
0.0
 42
50.0
 43
0.0
 44
0.0
 50
0.0
 71
     0
  0
VIEW
  2
AM_VIEW2
 70
     0
 40
297.5
 10
189.33547008547001
 20
148.25
 41
457.32905982905982
 11
0.0
 21
0.0
 31
1.0
 12
0.0
 22
0.0
 32
0.0
 42
50.0
 43
0.0
 44
0.0
 50
0.0
 71
     0
  0
VIEW
  2
AM_VIEW3
 70
     0
 40
297.5
 10
-194.33547008547001
 20
-149.25
 41
457.32905982905982
 11
0.0
 21
0.0
 31
1.0
 12
0.0
 22
0.0
 32
0.0
 42
50.0
 43
0.0
 44
0.0
 50
0.0
 71
     0
  0
VIEW
  2
AM_VIEW4
 70
     0
 40
297.5
 10
189.33547008547001
 20
-149.25
 41
457.32905982905982
 11
0.0
 21
0.0
 31
1.0
 12
0.0
 22
0.0
 32
0.0
 42
50.0
 43
0.0
 44
0.0
 50
0.0
 71
     0
  0
VIEW
  2
AM_VIEW5
 70
     0
 40
297.5
 10
-2.5
 20
-0.5
 41
457.32905982905982
 11
0.0
 21
0.0
 31
1.0
 12
0.0
 22
0.0
 32
0.0
 42
50.0
 43
0.0
 44
0.0
 50
0.0
 71
     0
  0
VIEW
  2
AM_VIEW6
 70
     0
 40
594.99405000000002
 10
-2.5
 20
-0.5
 41
914.6489730769232
 11
0.0
 21
0.0
 31
1.0
 12
0.0
 22
0.0
 32
0.0
 42
50.0
 43
0.0
 44
0.0
 50
0.0
 71
     0
  0
ENDTAB
  0
TABLE
  2
UCS
 70
     0
  0
ENDTAB
  0
TABLE
  2
APPID
 70
    46
  0
APPID
  2
ACAD
 70
     0
  0
APPID
  2
MCAD_NO_VIS
 70
     0
  0
APPID
  2
ACAD_TEMP_GRAPHIC
 70
     0
  0
APPID
  2
ACATTRIBSERVICES
 70
     0
  0
APPID
  2
GENIUS_GENDIMSH_14
 70
     0
  0
APPID
  2
GENIUS_GENODEF_13
 70
     0
  0
APPID
  2
GENIUS_GENOENT_13
 70
     0
  0
APPID
  2
GENIUS_GENOBJ-N-TIT_13
 70
     0
  0
APPID
  2
GENIUS_GENOLIS_13
 70
     0
  0
APPID
  2
GENIUS_GENTITLE_13
 70
     0
  0
APPID
  2
GENIUS_GENOREF_13
 70
     0
  0
APPID
  2
GENIUS_GENSCREG_15
 70
     0
  0
APPID
  2
GENIUS_GENOBJ-N-SDF_13
 70
     0
  0
APPID
  2
GENIUS_GENOBJ-N-REV_13
 70
     0
  0
APPID
  2
GENIUS_GENOBJ-N-RSSYM_13
 70
     0
  0
APPID
  2
GENIUS_GENSYMENT_13
 70
     0
  0
APPID
  2
GENIUS_GENSCSYM_13
 70
     0
  0
APPID
  2
GENIUS_GENOBJ-N-CEN_13
 70
     0
  0
APPID
  2
GENIUS_GENOBJ-N-FIL_13
 70
     0
  0
APPID
  2
GENIUS_GENBH_13
 70
     0
  0
APPID
  2
GENIUS_GENOBJ-NBEHI-BHF_13
 70
     0
  0
APPID
  2
GENIUS_GENFIL_13
 70
     0
  0
APPID
  2
GENIUS_GENOBJ-N-CHA_13
 70
     0
  0
APPID
  2
GENIUS_GENOBJ-NBEHI-BHB_13
 70
     0
  0
APPID
  2
GENIUS_GENOBJ-N-CRS_13
 70
     0
  0
APPID
  2
GENIUS_GENDTOL_13
 70
     0
  0
APPID
  2
AD_DRAW
 70
     0
  0
APPID
  2
DESIGNERASSEMBLIES
 70
     0
  0
APPID
  2
ACADM_DIM_EDIT
 70
     0
  0
APPID
  2
AMDT_DM_ADJ
 70
     0
  0
APPID
  2
ACAD_PSEXT
 70
     0
  0
APPID
  2
ACAECLAYERSTANDARD
 70
     0
  0
APPID
  2
DCO15
 70
     0
  0
APPID
  2
GENIUS_GENOBJ-N-HTC_13
 70
     0
  0
APPID
  2
GENIUS_GENHATCH_13
 70
     0
  0
APPID
  2
ACAD_NAV_VCDISPLAY
 70
     0
  0
APPID
  2
ACAD_DSTYLE_DIMARC_LENGTH_
 70
     0
  0
APPID
  2
GENIUS_GENREC_14
 70
     0
  0
APPID
  2
GENIUS_GENOBJ-N-REC_13
 70
     0
  0
APPID
  2
GENIUS_GENCEN_19
 70
     0
  0
APPID
  2
ACAD_DSTYLE_DIMBREAK
 70
     0
  0
APPID
  2
ACAD_DSTYLE_DIMJAG
 70
     0
  0
APPID
  2
ACAD_DSTYLE_DIMINSPECT
 70
     0
  0
APPID
  2
ACAD_EXEMPT_FROM_CAD_STANDARDS
 70
     0
  0
APPID
  2
CONTENTBLOCKICON
 70
     0
  0
APPID
  2
ACAD_MLEADERVER
 70
     0
  0
ENDTAB
  0
TABLE
  2
DIMSTYLE
 70
    17
  0
DIMSTYLE
  2
SANKYO
 70
     0
  3

  4
"
  5
DOTSMALL
  6

  7

 40
1.0
 41
7.0
 42
1.0
 43
7.0
 44
3.0
 45
0.0
 46
0.0
 47
0.1
 48
0.1
140
7.0
141
0.0
142
0.0
143
0.0393701
144
1.0
145
0.0
146
0.71
147
1.3
 71
     0
 72
     0
 73
     0
 74
     0
 75
     0
 76
     0
 77
     1
 78
     8
170
     0
171
     2
172
     1
173
     0
174
     0
175
     0
176
   256
177
   256
178
   256
  0
DIMSTYLE
  2
AM_ISO
 70
     0
  3

  4
"
  5

  6

  7

 40
1.0
 41
1.6000000000000001
 42
1.0
 43
7.0
 44
1.0
 45
0.0
 46
0.0
 47
0.1
 48
0.1
140
2.5
141
0.0
142
0.0
143
0.0393701
144
1.0
145
0.0
146
0.71
147
0.625
 71
     0
 72
     0
 73
     0
 74
     0
 75
     0
 76
     0
 77
     1
 78
     8
170
     0
171
     2
172
     1
173
     0
174
     0
175
     0
176
   256
177
   256
178
   256
  0
DIMSTYLE
  2
AM_ISO$3
 70
     0
  3

  4
"
  5

  6

  7

 40
1.0
 41
1.6000000000000001
 42
1.0
 43
7.0
 44
1.0
 45
0.0
 46
0.0
 47
0.1
 48
0.1
140
2.5
141
0.0
142
0.0
143
0.0393701
144
1.0
145
0.0
146
0.71
147
0.625
 71
     0
 72
     0
 73
     0
 74
     0
 75
     0
 76
     0
 77
     1
 78
     8
170
     0
171
     2
172
     1
173
     0
174
     0
175
     0
176
   256
177
   256
178
   256
  0
DIMSTYLE
  2
AM_ISO$4
 70
     0
  3

  4
"
  5

  6

  7

 40
1.0
 41
1.6000000000000001
 42
1.0
 43
7.0
 44
1.0
 45
0.0
 46
0.0
 47
0.1
 48
0.1
140
2.5
141
0.0
142
0.0
143
0.0393701
144
1.0
145
0.0
146
0.71
147
0.625
 71
     0
 72
     0
 73
     0
 74
     0
 75
     0
 76
     0
 77
     1
 78
     8
170
     0
171
     2
172
     1
173
     0
174
     0
175
     0
176
   256
177
   256
178
   256
  0
DIMSTYLE
  2
AM_ISO$6
 70
     0
  3

  4
"
  5

  6

  7

 40
1.0
 41
1.6000000000000001
 42
1.0
 43
7.0
 44
1.0
 45
0.0
 46
0.0
 47
0.1
 48
0.1
140
2.5
141
0.0
142
0.0
143
0.0393701
144
1.0
145
0.0
146
0.71
147
0.625
 71
     0
 72
     0
 73
     0
 74
     0
 75
     0
 76
     0
 77
     0
 78
     8
170
     0
171
     2
172
     1
173
     0
174
     0
175
     0
176
   256
177
   256
178
   256
  0
DIMSTYLE
  2
AM_ISO$7
 70
     0
  3

  4
"
  5

  6

  7

 40
1.0
 41
1.6000000000000001
 42
1.0
 43
7.0
 44
1.0
 45
0.0
 46
0.0
 47
0.1
 48
0.1
140
2.5
141
0.0
142
0.0
143
0.0393701
144
1.0
145
0.0
146
0.71
147
0.625
 71
     0
 72
     0
 73
     0
 74
     0
 75
     0
 76
     0
 77
     1
 78
     8
170
     0
171
     2
172
     1
173
     0
174
     0
175
     0
176
   256
177
   256
178
   256
  0
DIMSTYLE
  2
AM_ISO$SF
 70
     0
  3

  4
"
  5

  6

  7

 40
1.0
 41
2.5
 42
1.0
 43
10.0
 44
1.0
 45
0.0
 46
0.0
 47
0.1
 48
0.1
140
3.5
141
0.0
142
0.0
143
0.0393701
144
1.0
145
0.0
146
0.71
147
1.5
 71
     0
 72
     0
 73
     0
 74
     0
 75
     1
 76
     1
 77
     1
 78
     8
170
     0
171
     2
172
     1
173
     0
174
     0
175
     0
176
   256
177
   256
178
     2
  0
DIMSTYLE
  2
AM_ISO$SH
 70
     0
  3

  4
"
  5

  6
GENAXEH
  7

 40
1.0
 41
2.5
 42
1.0
 43
10.0
 44
1.0
 45
0.0
 46
0.0
 47
0.1
 48
0.1
140
3.5
141
0.0
142
0.0
143
0.0393701
144
2.0
145
0.0
146
0.71
147
1.5
 71
     0
 72
     0
 73
     0
 74
     0
 75
     1
 76
     1
 77
     1
 78
     8
170
     0
171
     2
172
     1
173
     1
174
     0
175
     0
176
   256
177
   256
178
     2
  0
DIMSTYLE
  2
AM_ISO$2
 70
     0
  3

  4
"
  5

  6

  7

 40
1.0
 41
1.6000000000000001
 42
1.0
 43
7.0
 44
1.0
 45
0.0
 46
0.0
 47
0.1
 48
0.1
140
2.5
141
0.0
142
0.0
143
0.0393701
144
1.0
145
0.0
146
0.71
147
0.625
 71
     0
 72
     0
 73
     0
 74
     0
 75
     0
 76
     0
 77
     1
 78
     8
170
     0
171
     2
172
     1
173
     0
174
     0
175
     0
176
   256
177
   256
178
   256
  0
DIMSTYLE
  2
AM_ISO$0
 70
     0
  3

  4
"
  5

  6

  7

 40
1.0
 41
1.6000000000000001
 42
1.0
 43
7.0
 44
1.0
 45
0.0
 46
0.0
 47
0.1
 48
0.1
140
2.5
141
0.0
142
0.0
143
0.0393701
144
1.0
145
0.0
146
0.71
147
0.625
 71
     0
 72
     0
 73
     0
 74
     0
 75
     0
 76
     0
 77
     1
 78
     8
170
     0
171
     2
172
     1
173
     0
174
     0
175
     0
176
   256
177
   256
178
   256
  0
DIMSTYLE
  2
SANKYO$0
 70
     0
  3

  4
"
  5
DOTSMALL
  6

  7

 40
1.0
 41
7.0
 42
1.0
 43
7.0
 44
3.0
 45
0.0
 46
0.0
 47
0.1
 48
0.1
140
7.0
141
0.0
142
0.0
143
0.0393701
144
1.0
145
0.0
146
0.71
147
1.3
 71
     0
 72
     0
 73
     0
 74
     0
 75
     0
 76
     0
 77
     1
 78
     8
170
     0
171
     2
172
     1
173
     0
174
     0
175
     0
176
   256
177
   256
178
   256
  0
DIMSTYLE
  2
AM_ANSI
 70
     0
  3

  4
mm
  5

  6

  7

 40
1.0
 41
0.12
 42
0.05
 43
0.5
 44
0.1
 45
0.0
 46
0.0
 47
0.1
 48
0.1
140
0.12
141
0.0
142
0.0
143
25.399999999999999
144
1.0
145
0.0
146
0.71
147
0.06
 71
     0
 72
     0
 73
     1
 74
     1
 75
     0
 76
     0
 77
     0
 78
     7
170
     0
171
     2
172
     0
173
     0
174
     0
175
     0
176
   256
177
   256
178
     2
  0
DIMSTYLE
  2
AM_ANSI$3
 70
     0
  3

  4
mm
  5

  6

  7

 40
1.0
 41
0.12
 42
0.05
 43
0.5
 44
0.1
 45
0.0
 46
0.0
 47
0.1
 48
0.1
140
0.12
141
0.0
142
0.0
143
25.399999999999999
144
1.0
145
0.0
146
0.71
147
0.06
 71
     0
 72
     0
 73
     1
 74
     1
 75
     0
 76
     0
 77
     0
 78
     7
170
     0
171
     2
172
     0
173
     0
174
     0
175
     0
176
   256
177
   256
178
     2
  0
DIMSTYLE
  2
AM_ANSI$4
 70
     0
  3

  4
mm
  5

  6

  7

 40
1.0
 41
0.12
 42
0.05
 43
0.5
 44
0.1
 45
0.0
 46
0.0
 47
0.1
 48
0.1
140
0.12
141
0.0
142
0.0
143
25.399999999999999
144
1.0
145
0.0
146
0.71
147
0.06
 71
     0
 72
     0
 73
     1
 74
     1
 75
     0
 76
     0
 77
     0
 78
     7
170
     0
171
     2
172
     0
173
     0
174
     0
175
     0
176
   256
177
   256
178
     2
  0
DIMSTYLE
  2
AM_ANSI$7
 70
     0
  3

  4
mm
  5

  6

  7

 40
1.0
 41
0.12
 42
0.05
 43
0.5
 44
0.1
 45
0.0
 46
0.0
 47
0.1
 48
0.1
140
0.12
141
0.0
142
0.0
143
25.399999999999999
144
1.0
145
0.0
146
0.71
147
0.06
 71
     0
 72
     0
 73
     1
 74
     1
 75
     0
 76
     0
 77
     0
 78
     7
170
     0
171
     2
172
     0
173
     0
174
     0
175
     0
176
   256
177
   256
178
     2
  0
DIMSTYLE
  2
AM_ANSI$SF
 70
     0
  3

  4
mm
  5

  6

  7

 40
1.0
 41
0.12
 42
0.05
 43
0.5
 44
0.1
 45
0.0
 46
0.0
 47
0.1
 48
0.1
140
0.12
141
0.0
142
0.0
143
25.399999999999999
144
1.0
145
0.0
146
0.71
147
0.06
 71
     0
 72
     0
 73
     1
 74
     1
 75
     1
 76
     1
 77
     0
 78
     7
170
     0
171
     2
172
     0
173
     0
174
     0
175
     0
176
   256
177
   256
178
     2
  0
DIMSTYLE
  2
AM_ANSI$SH
 70
     0
  3

  4
mm
  5

  6
GENAXEH
  7

 40
1.0
 41
0.12
 42
0.05
 43
0.5
 44
0.1
 45
0.0
 46
0.0
 47
0.1
 48
0.1
140
0.12
141
0.0
142
0.0
143
25.399999999999999
144
1.0
145
0.0
146
0.71
147
0.06
 71
     0
 72
     0
 73
     1
 74
     1
 75
     1
 76
     1
 77
     0
 78
     7
170
     0
171
     2
172
     0
173
     1
174
     0
175
     0
176
   256
177
   256
178
     2
  0
ENDTAB
  0
ENDSEC
  0
SECTION
  2
BLOCKS
  0
BLOCK
  8
0
  2
$MODEL_SPACE
 70
     0
 10
0.0
 20
0.0
 30
0.0
  3
$MODEL_SPACE
  1

  0
ENDBLK
  5
1A
  8
0
  0
BLOCK
 67
     1
  8
0
  2
$PAPER_SPACE
 70
     0
 10
0.0
 20
0.0
 30
0.0
  3
$PAPER_SPACE
  1

  0
ENDBLK
  5
17
 67
     1
  8
0
  0
BLOCK
  8
0
  2
GENAXEH
 70
     0
 10
0.0
 20
0.0
 30
0.0
  3
GENAXEH
  1

  0
LINE
  5
102
  8
0
 10
-1.0
 20
0.0
 30
0.0
 11
1.0
 21
0.0
 31
0.0
  0
ENDBLK
  5
104
  8
0
  0
BLOCK
  8
0
  2
_OPEN
 70
     0
 10
0.0
 20
0.0
 30
0.0
  3
_OPEN
  1

  0
LINE
  5
30B
  8
0
  6
BYBLOCK
 62
     0
 10
-1.0
 20
0.1666666666666666
 30
0.0
 11
0.0
 21
0.0
 31
0.0
  0
LINE
  5
30C
  8
0
  6
BYBLOCK
 62
     0
 10
-1.0
 20
-0.1666666666666666
 30
0.0
 11
0.0
 21
0.0
 31
0.0
  0
LINE
  5
30D
  8
0
  6
BYBLOCK
 62
     0
 10
0.0
 20
0.0
 30
0.0
 11
-1.0
 21
0.0
 31
0.0
  0
ENDBLK
  5
30F
  8
0
  0
BLOCK
  8
0
  2
_DOTSMALL
 70
     0
 10
0.0
 20
0.0
 30
0.0
  3
_DOTSMALL
  1

  0
POLYLINE
  5
A331
  8
0
  6
BYBLOCK
 62
     0
 66
     1
 10
0.0
 20
0.0
 30
0.0
 70
     1
 40
0.5
 41
0.5
  0
VERTEX
  5
1914A
  8
0
  6
BYBLOCK
 62
     0
 10
-0.0625
 20
0.0
 30
0.0
 42
1.0
  0
VERTEX
  5
1914B
  8
0
  6
BYBLOCK
 62
     0
 10
0.0625
 20
0.0
 30
0.0
 42
1.0
  0
SEQEND
  5
1914C
  8
0
  6
BYBLOCK
 62
     0
  0
ENDBLK
  5
A333
  8
0
  0
ENDSEC
  0
SECTION
  2
ENTITIES
  0
LINE
  5
9B1A
  8
WK
 10
23.5
 20
16.25
 30
0.0
 11
1165.5
 21
16.25
 31
0.0
  0
LINE
  5
9B1C
  8
WK
 10
23.5
 20
824.75
 30
0.0
 11
23.5
 21
16.25
 31
0.0
  0
TEXT
  5
9BE2
  8
WK
 10
22.5
 20
16.25
 30
0.0
 40
3.2000000000000002
  1
A0
 50
90.0
 41
0.8299999999999999
  0
LINE
  5
9C31
  8
WK
 10
1085.5
 20
34.25
 30
0.0
 11
1085.5
 21
16.25
 31
0.0
  0
LINE
  5
9C32
  8
WK
 10
890.49999999999989
 20
34.25
 30
0.0
 11
890.49999999999989
 21
16.25
 31
0.0
  0
LINE
  5
9C34
  8
WK
 10
1045.5
 20
34.25
 30
0.0
 11
1045.5
 21
16.25
 31
0.0
  0
LINE
  5
9C35
  8
WK
 10
1065.5
 20
34.25
 30
0.0
 11
1065.5
 21
16.25
 31
0.0
  0
LINE
  5
9C37
  8
WK
 10
1005.5
 20
34.25
 30
0.0
 11
1005.5
 21
16.25
 31
0.0
  0
LINE
  5
9C38
  8
WK
 10
985.5
 20
34.25
 30
0.0
 11
985.5
 21
16.25
 31
0.0
  0
LINE
  5
9C3A
  8
WK
 10
890.49999999999989
 20
34.25
 30
0.0
 11
1165.5
 21
34.25
 31
0.0
  0
LINE
  5
9C3B
  8
WK
 10
899.5
 20
26.25
 30
0.0
 11
972.49999999999989
 21
26.25
 31
0.0
  0
LINE
  5
9C3E
  8
WK
 10
1005.5
 20
22.25
 30
0.0
 11
1045.5
 21
22.25
 31
0.0
  0
LINE
  5
9C3F
  8
WK
 10
1005.5
 20
28.25
 30
0.0
 11
1045.5
 21
28.25
 31
0.0
  0
LINE
  5
9C46
  8
WK
 10
1151.8094750193111
 20
25.25
 30
0.0
 11
1163.8094750193111
 21
25.25
 31
0.0
  0
CIRCLE
  5
9C47
  8
WK
 10
1157.8094750193111
 20
25.25
 30
0.0
 40
6.0
  0
TEXT
  5
9C56
  8
WK
 10
992.52780952380954
 20
20.649999643948512
 30
0.0
 40
3.2000000000000002
  1
1:1
 41
0.8299999999999999
 72
     4
 11
995.5
 21
22.249999643948509
 31
0.0
  0
TEXT
  5
9C57
  8
WK
 10
1087.8031333333331
 20
30.150000000000009
 30
0.0
 40
3.2000000000000002
  1
図番
 41
0.8299999999999999
  0
TEXT
  5
9C58
  8
WK
 10
1067.9290000000001
 20
30.150000000000009
 30
0.0
 40
3.2000000000000002
  1
検図
 41
0.8299999999999999
  0
TEXT
  5
9C59
  8
WK
 10
1047.9290000000001
 20
30.150000000000009
 30
0.0
 40
3.2000000000000002
  1
作図
 41
0.8299999999999999
  0
TEXT
  5
9C5A
  8
WK
 10
1006.5535725057121
 20
29.149999999999999
 30
0.0
 40
3.2000000000000002
  1
作成
 41
0.8299999999999999
  0
TEXT
  5
9C5B
  8
WK
 10
1006.5535725057121
 20
23.149999999999999
 30
0.0
 40
3.2000000000000002
  1
制定
 41
0.8299999999999999
  0
TEXT
  5
9C5C
  8
WK
 10
1006.5535725057121
 20
17.149999999999999
 30
0.0
 40
3.2000000000000002
  1
廃止
 41
0.8299999999999999
  0
TEXT
  5
9C5D
  8
WK
 10
986.42899999999997
 20
30.149999999999999
 30
0.0
 40
3.2000000000000002
  1
尺度
 41
0.8299999999999999
  0
TEXT
  5
9C5E
  8
WK
 10
973.49999999999989
 20
18.25
 30
0.0
 40
4.0
  1
基準図
 41
0.8
  0
TEXT
  5
9C77
  8
WK
 10
892.30313333333345
 20
30.150000000000009
 30
0.0
 40
3.2000000000000002
  1
図名
 41
0.8299999999999999
  0
LINE
  5
9E0D
  8
WK
 10
23.5
 20
824.75
 30
0.0
 11
1165.5
 21
824.75
 31
0.0
  0
LINE
  5
9E18
  8
WK
 10
1165.5
 20
824.75
 30
0.0
 11
1165.5
 21
16.25
 31
0.0
  0
TEXT
  5
12887
  8
WK
 10
1130.0726417273511
 20
826.75
 30
0.0
 40
4.0
  1
大栄建材株式会社
 41
0.9
 72
     2
 11
1163.672641727351
 21
826.75
 31
0.0
  0
TEXT
  5
13021
  8
MJ
 10
1005.5
 20
42.25
 30
0.0
 40
7.0
  1
cl11a003
 41
0.8299999999999999
  0
TEXT
  5
13022
  8
MJ
 10
1005.5
 20
69.25
 30
0.0
 40
7.0
  1
クレーヴァ25・35　Ｙレール引戸
 41
0.8299999999999999
  0
TEXT
  5
13023
  8
MJ
 10
1005.5
 20
60.25
 30
0.0
 40
7.0
  1
片引き戸3枚建
 41
0.8299999999999999
  0
TEXT
  5
13024
  8
MJ
 10
1005.5
 20
78.25
 30
0.0
 40
7.0
  1
スーパースクリーン　クレーヴァ
 41
0.8299999999999999
  0
TEXT
  5
13025
  8
MJ
 10
1005.5
 20
51.25
 30
0.0
 40
7.0
  1
たて横断面
 41
0.8299999999999999
  0
LINE
  5
14F32
  8
OS
 10
59.947107195745048
 20
316.10574394672591
 30
0.0
 11
329.9471071957451
 21
316.10574394672591
 31
0.0
  0
LINE
  5
14F36
  8
OS
 10
59.947107195745048
 20
318.10574394672591
 30
0.0
 11
329.9471071957451
 21
318.10574394672591
 31
0.0
  0
LINE
  5
14F37
  8
OS
 10
59.947107195745048
 20
322.10574394672591
 30
0.0
 11
329.9471071957451
 21
322.10574394672591
 31
0.0
  0
LINE
  5
14F38
  8
OS
 10
59.947107195745048
 20
326.10574394672591
 30
0.0
 11
329.9471071957451
 21
326.10574394672591
 31
0.0
  0
LINE
  5
14F3A
  8
OS
 10
59.947107195745048
 20
320.10574394672591
 30
0.0
 11
329.9471071957451
 21
320.1057439467254
 31
0.0
  0
LINE
  5
14F3B
  8
OS
 10
59.947107195745048
 20
324.10574394672591
 30
0.0
 11
329.9471071957451
 21
324.10574394672591
 31
0.0
  0
LINE
  5
14F3C
  8
OS
 10
59.947107195745048
 20
328.10574394672591
 30
0.0
 11
329.9471071957451
 21
328.10574394672591
 31
0.0
  0
LINE
  5
14F41
  8
KI1
 10
166.94704169456821
 20
627.10574473009865
 30
0.0
 11
199.94703291288641
 21
627.10574473009865
 31
0.0
  0
LINE
  5
14F44
  8
KI2
 10
179.94704169463671
 20
333.11057788732762
 30
0.0
 11
182.44704169463671
 21
331.61057788732751
 31
0.0
  0
LINE
  5
14F45
  8
KI2
 10
179.94704169463671
 20
335.60574394672591
 30
0.0
 11
179.94704169463671
 21
333.11057788732762
 31
0.0
  0
LINE
  5
14F46
  8
KI2
 10
184.44704169463671
 20
330.11057788732762
 30
0.0
 11
183.44704169463671
 21
330.11057788732762
 31
0.0
  0
LINE
  5
14F47
  8
KI2
 10
182.44704169463671
 20
330.11057788732762
 30
0.0
 11
183.44704169463671
 21
330.11057788732762
 31
0.0
  0
LINE
  5
14F48
  8
KI2
 10
186.94704169463671
 20
333.11057788732762
 30
0.0
 11
184.44704169463671
 21
331.61057788732751
 31
0.0
  0
LINE
  5
14F49
  8
KI2
 10
186.94704169463671
 20
335.60574394672591
 30
0.0
 11
186.94704169463671
 21
333.11057788732762
 31
0.0
  0
LINE
  5
14F4A
  8
KI2
 10
184.44704169463671
 20
335.60574394672591
 30
0.0
 11
184.44704169463671
 21
330.11057788732762
 31
0.0
  0
LINE
  5
14F4B
  8
KI2
 10
182.44704169463671
 20
335.60574394672591
 30
0.0
 11
182.44704169463671
 21
330.11057788732762
 31
0.0
  0
LINE
  5
14F4C
  8
KI2
 10
168.44704169463759
 20
335.6057439467258
 30
0.0
 11
198.44704169463759
 21
335.60574394672602
 31
0.0
  0
LINE
  5
14F4D
  8
KI1
 10
166.94704169463759
 20
337.1057439467258
 30
0.0
 11
199.94704169456821
 21
337.1057439467258
 31
0.0
  0
ARC
  5
14F4E
  8
KI2
 10
168.44704169463759
 20
337.1057439467258
 30
0.0
 40
1.5
 50
180.0
 51
270.0
  0
ARC
  5
14F4F
  8
KI2
 10
198.44704169463759
 20
337.1057439467258
 30
0.0
 40
1.5
 50
270.0
 51
0.0
  0
LINE
  5
14F51
  8
PH
 10
555.56596780949189
 20
366.98474779943632
 30
0.0
 11
705.56596780949121
 21
366.98474779943717
 31
0.0
  0
LINE
  5
14F52
  8
PH
 10
705.56596780949121
 20
333.98474779943717
 30
0.0
 11
555.56596780949189
 21
333.98474779943621
 31
0.0
  0
LINE
  5
14F53
  8
PH
 10
555.56596780949189
 20
366.98474779943672
 30
0.0
 11
555.56596780949189
 21
333.98474779943672
 31
0.0
  0
LINE
  5
14F54
  8
KI2
 10
552.56596780949178
 20
348.38474875116412
 30
0.0
 11
670.56596780949144
 21
348.38474875116412
 31
0.0
  0
LINE
  5
14F55
  8
KI2
 10
820.56596780949155
 20
348.38474875116418
 30
0.0
 11
1053.565971806895
 21
348.3847487511643
 31
0.0
  0
LINE
  5
14F56
  8
KI2
 10
552.56596780949178
 20
360.48474875116398
 30
0.0
 11
670.56596780949144
 21
360.48474875116398
 31
0.0
  0
LINE
  5
14F57
  8
KI2
 10
820.56596780949155
 20
360.48474875116398
 30
0.0
 11
1053.565971806895
 21
360.48474875116398
 31
0.0
  0
LINE
  5
14F58
  8
KI2
 10
552.56596780949178
 20
352.584748751164
 30
0.0
 11
670.56596780949144
 21
352.584748751164
 31
0.0
  0
LINE
  5
14F59
  8
KI2
 10
820.56596780949155
 20
352.584748751164
 30
0.0
 11
1053.565971806895
 21
352.584748751164
 31
0.0
  0
LINE
  5
14F5A
  8
PH
 10
705.56596780949121
 20
366.98474779943712
 30
0.0
 11
705.56596780949121
 21
333.9847487511625
 31
0.0
  0
LINE
  5
14F5B
  8
KI1
 10
166.94704169456821
 20
627.10574473009865
 30
0.0
 11
166.94704169456821
 21
337.1057439467258
 31
0.0
  0
LINE
  5
14F5C
  8
KI1
 10
199.94704169456821
 20
627.10574473009865
 30
0.0
 11
199.94704169456821
 21
337.1057439467258
 31
0.0
  0
LINE
  5
14F5D
  8
PH
 10
555.56596780949155
 20
330.98474779943632
 30
0.0
 11
705.56596780949121
 21
330.98474779943717
 31
0.0
  0
LINE
  5
14F5E
  8
PH
 10
705.56596780949121
 20
297.98474779943717
 30
0.0
 11
555.56596780949155
 21
297.98474779943632
 31
0.0
  0
LINE
  5
14F5F
  8
PH
 10
555.56596780949155
 20
330.98474779943672
 30
0.0
 11
555.56596780949155
 21
297.98474779943672
 31
0.0
  0
LINE
  5
14F60
  8
KI2
 10
552.56596780949212
 20
312.38474875116412
 30
0.0
 11
785.56596932048069
 21
312.3847487511643
 31
0.0
  0
LINE
  5
14F61
  8
KI2
 10
552.56596780949178
 20
316.58474875116389
 30
0.0
 11
785.56597033586513
 21
316.58474875116389
 31
0.0
  0
LINE
  5
14F62
  8
KI1
 10
785.56596780949167
 20
330.98474779943712
 30
0.0
 11
935.56596780949155
 21
330.98474779943712
 31
0.0
  0
LINE
  5
14F63
  8
KI1
 10
935.56596780949155
 20
330.98474779943712
 30
0.0
 11
935.56596780949155
 21
297.98474875116239
 31
0.0
  0
LINE
  5
14F64
  8
KI1
 10
935.56596780949155
 20
297.98474875116239
 30
0.0
 11
785.56596780949167
 21
297.98474875116239
 31
0.0
  0
LINE
  5
14F65
  8
KI1
 10
785.56596780949167
 20
297.98474875116239
 30
0.0
 11
785.56596780949167
 21
330.98474779943712
 31
0.0
  0
LINE
  5
14F66
  8
PH
 10
705.56596780949121
 20
330.98474779943712
 30
0.0
 11
705.56596780949121
 21
297.98474875116239
 31
0.0
  0
LINE
  5
14F67
  8
KI1
 10
670.56596780949144
 20
366.98474779943712
 30
0.0
 11
820.56596780949155
 21
366.98474779943712
 31
0.0
  0
LINE
  5
14F68
  8
KI1
 10
820.56596780949155
 20
366.98474779943712
 30
0.0
 11
820.56596780949155
 21
333.9847487511625
 31
0.0
  0
LINE
  5
14F69
  8
KI1
 10
820.56596780949155
 20
333.9847487511625
 30
0.0
 11
670.56596780949144
 21
333.9847487511625
 31
0.0
  0
LINE
  5
14F6A
  8
KI1
 10
670.56596780949144
 20
333.9847487511625
 30
0.0
 11
670.56596780949144
 21
366.98474779943712
 31
0.0
  0
LINE
  5
14F6C
  8
KI1
 10
202.9470416945683
 20
627.10574473009865
 30
0.0
 11
235.9470329128865
 21
627.10574473009865
 31
0.0
  0
LINE
  5
14F6E
  8
KI2
 10
215.94704169463671
 20
333.11057788732762
 30
0.0
 11
218.44704169463671
 21
331.61057788732751
 31
0.0
  0
LINE
  5
14F6F
  8
KI2
 10
215.94704169463671
 20
335.60574394672591
 30
0.0
 11
215.94704169463671
 21
333.11057788732762
 31
0.0
  0
LINE
  5
14F70
  8
KI2
 10
222.94704169463671
 20
333.11057788732762
 30
0.0
 11
220.44704169463671
 21
331.61057788732751
 31
0.0
  0
LINE
  5
14F71
  8
KI2
 10
222.94704169463671
 20
335.60574394672591
 30
0.0
 11
222.94704169463671
 21
333.11057788732762
 31
0.0
  0
LINE
  5
14F72
  8
KI2
 10
220.44704169463671
 20
335.60574394672591
 30
0.0
 11
220.44704169463671
 21
330.11057788732762
 31
0.0
  0
LINE
  5
14F73
  8
KI2
 10
218.44704169463671
 20
335.60574394672591
 30
0.0
 11
218.44704169463671
 21
330.11057788732762
 31
0.0
  0
LINE
  5
14F74
  8
KI2
 10
204.44704169463759
 20
335.6057439467258
 30
0.0
 11
234.44704169463759
 21
335.60574394672602
 31
0.0
  0
LINE
  5
14F75
  8
KI1
 10
202.94704169463759
 20
337.1057439467258
 30
0.0
 11
235.9470416945683
 21
337.1057439467258
 31
0.0
  0
ARC
  5
14F76
  8
KI2
 10
204.44704169463759
 20
337.1057439467258
 30
0.0
 40
1.5
 50
180.0
 51
270.0
  0
ARC
  5
14F77
  8
KI2
 10
234.44704169463759
 20
337.1057439467258
 30
0.0
 40
1.5
 50
270.0
 51
0.0
  0
LINE
  5
14F78
  8
KI1
 10
202.9470416945683
 20
627.10574473009865
 30
0.0
 11
202.9470416945683
 21
337.1057439467258
 31
0.0
  0
LINE
  5
14F79
  8
KI1
 10
235.9470416945683
 20
627.10574473009865
 30
0.0
 11
235.9470416945683
 21
337.1057439467258
 31
0.0
  0
LINE
  5
14F7B
  8
PH
 10
555.56596780949189
 20
294.98474779943632
 30
0.0
 11
705.56596780949121
 21
294.98474779943717
 31
0.0
  0
LINE
  5
14F7C
  8
PH
 10
705.56596780949121
 20
261.98474779943717
 30
0.0
 11
555.56596780949189
 21
261.98474779943632
 31
0.0
  0
LINE
  5
14F7D
  8
PH
 10
555.56596780949189
 20
294.98474779943672
 30
0.0
 11
555.56596780949189
 21
261.98474779943672
 31
0.0
  0
LINE
  5
14F7E
  8
KI2
 10
552.56596780949178
 20
276.38474875116412
 30
0.0
 11
900.56596932048058
 21
276.38474875116418
 31
0.0
  0
LINE
  5
14F7F
  8
KI2
 10
552.56596780949212
 20
280.58474875116389
 30
0.0
 11
900.56597033586502
 21
280.58474875116389
 31
0.0
  0
LINE
  5
14F80
  8
KI1
 10
900.56596780949155
 20
294.98474779943712
 30
0.0
 11
1050.565967809491
 21
294.98474779943712
 31
0.0
  0
LINE
  5
14F81
  8
KI1
 10
1050.565967809491
 20
294.98474779943712
 30
0.0
 11
1050.565967809491
 21
261.98474875116239
 31
0.0
  0
LINE
  5
14F82
  8
KI1
 10
1050.565967809491
 20
261.98474875116239
 30
0.0
 11
900.56596780949155
 21
261.98474875116239
 31
0.0
  0
LINE
  5
14F83
  8
KI1
 10
900.56596780949155
 20
261.98474875116239
 30
0.0
 11
900.56596780949155
 21
294.98474779943712
 31
0.0
  0
LINE
  5
14F84
  8
PH
 10
705.56596780949121
 20
294.98474779943712
 30
0.0
 11
705.56596780949121
 21
261.98474875116239
 31
0.0
  0
LINE
  5
14F85
  8
KI2
 10
552.56596780949212
 20
268.48474900039719
 30
0.0
 11
900.56596780949133
 21
268.48474900039719
 31
0.0
  0
LINE
  5
14F87
  8
KI1
 10
238.9470416945683
 20
627.10574473009865
 30
0.0
 11
271.94703291288653
 21
627.10574473009865
 31
0.0
  0
LINE
  5
14F89
  8
KI2
 10
251.94704169463671
 20
333.11057788732762
 30
0.0
 11
254.44704169463671
 21
331.61057788732751
 31
0.0
  0
LINE
  5
14F8A
  8
KI2
 10
251.94704169463671
 20
335.60574394672591
 30
0.0
 11
251.94704169463671
 21
333.11057788732762
 31
0.0
  0
LINE
  5
14F8B
  8
KI2
 10
258.94704169463671
 20
333.11057788732762
 30
0.0
 11
256.44704169463671
 21
331.61057788732751
 31
0.0
  0
LINE
  5
14F8C
  8
KI2
 10
258.94704169463671
 20
335.60574394672591
 30
0.0
 11
258.94704169463671
 21
333.11057788732762
 31
0.0
  0
LINE
  5
14F8D
  8
KI2
 10
256.44704169463671
 20
335.60574394672591
 30
0.0
 11
256.44704169463671
 21
330.11057788732762
 31
0.0
  0
LINE
  5
14F8E
  8
KI2
 10
254.44704169463671
 20
335.60574394672591
 30
0.0
 11
254.44704169463671
 21
330.11057788732762
 31
0.0
  0
LINE
  5
14F8F
  8
KI2
 10
240.44704169463759
 20
335.6057439467258
 30
0.0
 11
270.44704169463762
 21
335.60574394672602
 31
0.0
  0
LINE
  5
14F90
  8
KI1
 10
238.94704169463759
 20
337.1057439467258
 30
0.0
 11
271.94704169456833
 21
337.1057439467258
 31
0.0
  0
ARC
  5
14F91
  8
KI2
 10
240.44704169463759
 20
337.1057439467258
 30
0.0
 40
1.5
 50
180.0
 51
270.0
  0
ARC
  5
14F92
  8
KI2
 10
270.44704169463762
 20
337.1057439467258
 30
0.0
 40
1.5
 50
270.0
 51
0.0
  0
LINE
  5
14F93
  8
KI1
 10
238.9470416945683
 20
627.10574473009865
 30
0.0
 11
238.9470416945683
 21
337.1057439467258
 31
0.0
  0
LINE
  5
14F94
  8
KI1
 10
271.94704169456833
 20
627.10574473009865
 30
0.0
 11
271.94704169456833
 21
337.1057439467258
 31
0.0
  0
LINE
  5
14F99
  8
KI2
 10
1053.565971806895
 20
312.38474875116418
 30
0.0
 11
935.56596629850264
 21
312.3847487511643
 31
0.0
  0
LINE
  5
14F9A
  8
KI2
 10
1053.565971806895
 20
316.58474875116389
 30
0.0
 11
935.56596528311763
 21
316.58474875116389
 31
0.0
  0
LINE
  5
14F9E
  8
OS
 10
59.947107195745048
 20
112.28300748772089
 30
0.0
 11
329.9471071957451
 21
112.28300748772089
 31
0.0
  0
LINE
  5
14FA2
  8
OS
 10
59.947107195745048
 20
114.28300748772089
 30
0.0
 11
174.94704169456691
 21
114.28300748772089
 31
0.0
  0
LINE
  5
14FA3
  8
OS
 10
263.94704169456691
 20
114.28300748772089
 30
0.0
 11
329.9471071957451
 21
114.28300748772089
 31
0.0
  0
LINE
  5
14FA4
  8
OS
 10
59.947107195745048
 20
118.28300748772089
 30
0.0
 11
174.94704169456691
 21
118.28300748772089
 31
0.0
  0
LINE
  5
14FA5
  8
OS
 10
263.94704169456691
 20
118.28300748772079
 30
0.0
 11
329.9471071957451
 21
118.28300748772089
 31
0.0
  0
LINE
  5
14FA6
  8
OS
 10
59.947107195745048
 20
122.28300748772089
 30
0.0
 11
174.94704169456691
 21
122.28300748772089
 31
0.0
  0
LINE
  5
14FA7
  8
OS
 10
263.94704169456691
 20
122.28300748772089
 30
0.0
 11
329.9471071957451
 21
122.28300748772089
 31
0.0
  0
LINE
  5
14FA9
  8
OS
 10
59.947107195745048
 20
116.28300748772089
 30
0.0
 11
174.94704169456691
 21
116.2830074877207
 31
0.0
  0
LINE
  5
14FAA
  8
OS
 10
263.94704169456691
 20
116.2830074877206
 30
0.0
 11
329.9471071957451
 21
116.2830074877204
 31
0.0
  0
LINE
  5
14FAB
  8
OS
 10
59.947107195745048
 20
120.28300748772089
 30
0.0
 11
174.94704169456691
 21
120.28300748772089
 31
0.0
  0
LINE
  5
14FAC
  8
OS
 10
263.94704169456691
 20
120.28300748772089
 30
0.0
 11
329.9471071957451
 21
120.28300748772089
 31
0.0
  0
LINE
  5
14FAD
  8
OS
 10
59.947107195745048
 20
124.28300748772089
 30
0.0
 11
174.94704169456691
 21
124.28300748772089
 31
0.0
  0
LINE
  5
14FAE
  8
OS
 10
263.94704169456691
 20
124.28300748772089
 30
0.0
 11
329.9471071957451
 21
124.28300748772089
 31
0.0
  0
LINE
  5
14FB2
  8
KI2
 10
215.94704169463509
 20
126.1110479335611
 30
0.0
 11
218.44704169463509
 21
124.6110479335611
 31
0.0
  0
LINE
  5
14FB3
  8
KI2
 10
215.94704169463509
 20
129.78300748772091
 30
0.0
 11
215.94704169463509
 21
126.1110479335611
 31
0.0
  0
LINE
  5
14FB4
  8
KI2
 10
220.44704169463509
 20
123.1110479335611
 30
0.0
 11
219.44704169463509
 21
123.1110479335611
 31
0.0
  0
LINE
  5
14FB5
  8
KI2
 10
218.44704169463509
 20
123.1110479335611
 30
0.0
 11
219.44704169463509
 21
123.1110479335611
 31
0.0
  0
LINE
  5
14FB6
  8
KI2
 10
222.94704169463509
 20
126.1110479335611
 30
0.0
 11
220.44704169463509
 21
124.6110479335611
 31
0.0
  0
LINE
  5
14FB7
  8
KI2
 10
222.94704169463509
 20
129.78300748772091
 30
0.0
 11
222.94704169463509
 21
126.1110479335611
 31
0.0
  0
LINE
  5
14FB8
  8
KI2
 10
220.44704169463509
 20
129.78300748772091
 30
0.0
 11
220.44704169463509
 21
123.1110479335611
 31
0.0
  0
LINE
  5
14FB9
  8
KI2
 10
218.44704169463509
 20
129.78300748772091
 30
0.0
 11
218.44704169463509
 21
123.1110479335611
 31
0.0
  0
LINE
  5
14FBA
  8
KI2
 10
204.447041694636
 20
129.78300748772091
 30
0.0
 11
234.447041694636
 21
129.78300748772099
 31
0.0
  0
LINE
  5
14FBB
  8
KI1
 10
202.947041694636
 20
131.28300748772091
 30
0.0
 11
235.94704169456691
 21
131.28300748772091
 31
0.0
  0
ARC
  5
14FBC
  8
KI2
 10
204.447041694636
 20
131.28300748772091
 30
0.0
 40
1.5
 50
180.0
 51
270.0
  0
ARC
  5
14FBD
  8
KI2
 10
234.447041694636
 20
131.28300748772091
 30
0.0
 40
1.5
 50
270.0
 51
0.0
  0
LINE
  5
14FBE
  8
KI1
 10
202.94704169456691
 20
244.28300748772091
 30
0.0
 11
202.94704169456691
 21
131.28300748772091
 31
0.0
  0
LINE
  5
14FBF
  8
KI1
 10
235.94704169456691
 20
244.28300748772091
 30
0.0
 11
235.94704169456691
 21
131.28300748772091
 31
0.0
  0
LINE
  5
14FC0
  8
KI2
 10
179.94704169463509
 20
126.1110479335611
 30
0.0
 11
182.44704169463509
 21
124.6110479335611
 31
0.0
  0
LINE
  5
14FC1
  8
KI2
 10
179.94704169463509
 20
129.78300748772091
 30
0.0
 11
179.94704169463509
 21
126.1110479335611
 31
0.0
  0
LINE
  5
14FC2
  8
KI2
 10
184.44704169463509
 20
123.1110479335611
 30
0.0
 11
183.44704169463509
 21
123.1110479335611
 31
0.0
  0
LINE
  5
14FC3
  8
KI2
 10
182.44704169463509
 20
123.1110479335611
 30
0.0
 11
183.44704169463509
 21
123.1110479335611
 31
0.0
  0
LINE
  5
14FC4
  8
KI2
 10
186.94704169463509
 20
126.1110479335611
 30
0.0
 11
184.44704169463509
 21
124.6110479335611
 31
0.0
  0
LINE
  5
14FC5
  8
KI2
 10
186.94704169463509
 20
129.78300748772091
 30
0.0
 11
186.94704169463509
 21
126.1110479335611
 31
0.0
  0
LINE
  5
14FC6
  8
KI2
 10
184.44704169463509
 20
129.78300748772091
 30
0.0
 11
184.44704169463509
 21
123.1110479335611
 31
0.0
  0
LINE
  5
14FC7
  8
KI2
 10
182.44704169463509
 20
129.78300748772091
 30
0.0
 11
182.44704169463509
 21
123.1110479335611
 31
0.0
  0
LINE
  5
14FC8
  8
KI2
 10
168.447041694636
 20
129.78300748772091
 30
0.0
 11
198.447041694636
 21
129.78300748772099
 31
0.0
  0
LINE
  5
14FC9
  8
KI1
 10
166.947041694636
 20
131.28300748772091
 30
0.0
 11
199.94704169456691
 21
131.28300748772091
 31
0.0
  0
ARC
  5
14FCA
  8
KI2
 10
168.447041694636
 20
131.28300748772091
 30
0.0
 40
1.5
 50
180.0
 51
270.0
  0
ARC
  5
14FCB
  8
KI2
 10
198.447041694636
 20
131.28300748772091
 30
0.0
 40
1.5
 50
270.0
 51
0.0
  0
LINE
  5
14FCC
  8
KI1
 10
166.94704169456691
 20
244.28300748772091
 30
0.0
 11
166.94704169456691
 21
131.28300748772091
 31
0.0
  0
LINE
  5
14FCD
  8
KI1
 10
199.94704169456691
 20
244.28300748772091
 30
0.0
 11
199.94704169456691
 21
131.28300748772091
 31
0.0
  0
LINE
  5
14FCE
  8
OS
 10
174.94704169456691
 20
124.28300748772089
 30
0.0
 11
174.94704169456691
 21
112.28300748772089
 31
0.0
  0
LINE
  5
14FCF
  8
KI2
 10
251.94704169463509
 20
126.1110479335611
 30
0.0
 11
254.44704169463509
 21
124.6110479335611
 31
0.0
  0
LINE
  5
14FD0
  8
KI2
 10
251.94704169463509
 20
129.78300748772091
 30
0.0
 11
251.94704169463509
 21
126.1110479335611
 31
0.0
  0
LINE
  5
14FD1
  8
KI2
 10
256.44704169463512
 20
123.1110479335611
 30
0.0
 11
255.44704169463509
 21
123.1110479335611
 31
0.0
  0
LINE
  5
14FD2
  8
KI2
 10
254.44704169463509
 20
123.1110479335611
 30
0.0
 11
255.44704169463509
 21
123.1110479335611
 31
0.0
  0
LINE
  5
14FD3
  8
KI2
 10
258.94704169463512
 20
126.1110479335611
 30
0.0
 11
256.44704169463512
 21
124.6110479335611
 31
0.0
  0
LINE
  5
14FD4
  8
KI2
 10
258.94704169463512
 20
129.78300748772091
 30
0.0
 11
258.94704169463512
 21
126.1110479335611
 31
0.0
  0
LINE
  5
14FD5
  8
KI2
 10
256.44704169463512
 20
129.78300748772091
 30
0.0
 11
256.44704169463512
 21
123.1110479335611
 31
0.0
  0
LINE
  5
14FD6
  8
KI2
 10
254.44704169463509
 20
129.78300748772091
 30
0.0
 11
254.44704169463509
 21
123.1110479335611
 31
0.0
  0
LINE
  5
14FD7
  8
KI2
 10
240.447041694636
 20
129.78300748772091
 30
0.0
 11
270.44704169463603
 21
129.78300748772099
 31
0.0
  0
LINE
  5
14FD8
  8
KI1
 10
238.947041694636
 20
131.28300748772091
 30
0.0
 11
271.94704169456691
 21
131.28300748772091
 31
0.0
  0
ARC
  5
14FD9
  8
KI2
 10
240.447041694636
 20
131.28300748772091
 30
0.0
 40
1.5
 50
180.0
 51
270.0
  0
ARC
  5
14FDA
  8
KI2
 10
270.44704169463603
 20
131.28300748772091
 30
0.0
 40
1.5
 50
270.0
 51
0.0
  0
LINE
  5
14FDB
  8
KI1
 10
238.94704169456691
 20
244.28300748772091
 30
0.0
 11
238.94704169456691
 21
131.28300748772091
 31
0.0
  0
LINE
  5
14FDC
  8
KI1
 10
271.94704169456691
 20
244.28300748772091
 30
0.0
 11
271.94704169456691
 21
131.28300748772091
 31
0.0
  0
LINE
  5
14FDD
  8
OS
 10
263.94704169456691
 20
124.28300748772089
 30
0.0
 11
263.94704169456691
 21
112.28300748772089
 31
0.0
  0
LINE
  5
14FE3
  8
OS
 10
534.06596780949189
 20
367.48474779943422
 30
0.0
 11
488.06596536096299
 21
321.48467815573667
 31
0.0
  0
LINE
  5
14FE4
  8
OS
 10
488.06596536096299
 20
239.98474779943419
 30
0.0
 11
534.06596780949189
 21
239.98474779943419
 31
0.0
  0
LINE
  5
14FE5
  8
OS
 10
488.06596536096299
 20
237.98474779943419
 30
0.0
 11
546.56596780949189
 21
237.9847477994341
 31
0.0
  0
LINE
  5
14FE6
  8
OS
 10
488.06596536096299
 20
231.98474779943419
 30
0.0
 11
552.56596780949178
 21
231.98474779943419
 31
0.0
  0
LINE
  5
14FE7
  8
OS
 10
488.06596536096299
 20
308.48492125943523
 30
0.0
 11
534.06596780949189
 21
262.48474779943422
 31
0.0
  0
LINE
  5
14FE8
  8
OS
 10
488.06596536096299
 20
248.48474779943419
 30
0.0
 11
534.06596780949189
 21
248.48474779943419
 31
0.0
  0
LINE
  5
14FE9
  8
OS
 10
488.06596536096299
 20
250.48474779943419
 30
0.0
 11
534.06596780950008
 21
250.48474779943419
 31
0.0
  0
LINE
  5
14FEA
  8
OS
 10
488.06596536096299
 20
262.48474779943422
 30
0.0
 11
534.06596780950008
 21
262.48474779943422
 31
0.0
  0
LINE
  5
14FEB
  8
OS
 10
488.06596536096299
 20
428.9847477994341
 30
0.0
 11
693.06596780949144
 21
428.9847477994341
 31
0.0
  0
LINE
  5
14FEC
  8
OS
 10
488.06596536096299
 20
430.98474779943422
 30
0.0
 11
705.56596780949144
 21
430.98474779943427
 31
0.0
  0
LINE
  5
14FED
  8
OS
 10
488.06596536096299
 20
436.9847477994341
 30
0.0
 11
711.56596780949144
 21
436.98474779943427
 31
0.0
  0
LINE
  5
14FEE
  8
OS
 10
488.06596536096299
 20
420.4847477994341
 30
0.0
 11
693.06596780949144
 21
420.48474779943427
 31
0.0
  0
LINE
  5
14FEF
  8
OS
 10
488.06596536096299
 20
418.48474779943422
 30
0.0
 11
693.06596780949144
 21
418.48474779943422
 31
0.0
  0
LINE
  5
14FF0
  8
OS
 10
488.06596536096299
 20
367.48474779943422
 30
0.0
 11
534.06596780949189
 21
367.48474779943422
 31
0.0
  0
LINE
  5
14FF1
  8
OS
 10
534.06596780949189
 20
388.48474779943422
 30
0.0
 11
693.06596780949144
 21
388.48474779943422
 31
0.0
  0
LINE
  5
14FF2
  8
OS
 10
534.06596780949189
 20
375.9847477994341
 30
0.0
 11
705.56596780949144
 21
375.98474779943422
 31
0.0
  0
LINE
  5
14FF3
  8
OS
 10
552.56596780949178
 20
369.9847477994341
 30
0.0
 11
711.56596780949144
 21
369.9847477994341
 31
0.0
  0
LINE
  5
14FF4
  8
OS
 10
534.06596780949189
 20
418.48474779943422
 30
0.0
 11
534.06596780949189
 21
237.98474779943419
 31
0.0
  0
LINE
  5
14FF5
  8
OS
 10
536.06596780949178
 20
375.98474979943569
 30
0.0
 11
536.06596780949178
 21
237.98474779943419
 31
0.0
  0
LINE
  5
14FF6
  8
OS
 10
546.56596780949189
 20
375.9847477994341
 30
0.0
 11
546.56596780949189
 21
237.98474779943419
 31
0.0
  0
LINE
  5
14FF7
  8
OS
 10
544.56596780949178
 20
375.9847477994341
 30
0.0
 11
544.56596780949178
 21
237.98474779943419
 31
0.0
  0
LINE
  5
14FF8
  8
OS
 10
552.56596780949178
 20
369.9847477994341
 30
0.0
 11
552.56596780949178
 21
231.98474779943419
 31
0.0
  0
LINE
  5
14FF9
  8
OS
 10
564.06596780949189
 20
418.48474779943422
 30
0.0
 11
564.06596780949189
 21
388.4847477994341
 31
0.0
  0
LINE
  5
14FFA
  8
OS
 10
564.06596780949189
 20
388.48474779943422
 30
0.0
 11
534.06596780949189
 21
418.48474779943422
 31
0.0
  0
LINE
  5
14FFB
  8
OS
 10
663.06596780949144
 20
418.48474779943422
 30
0.0
 11
663.06596780949144
 21
388.4847477994341
 31
0.0
  0
LINE
  5
14FFC
  8
OS
 10
663.06596780949144
 20
418.48474779943422
 30
0.0
 11
693.06596780949144
 21
388.48474779943422
 31
0.0
  0
LINE
  5
14FFD
  8
OS
 10
534.06596780949189
 20
386.48474779943399
 30
0.0
 11
693.06596780949144
 21
386.4847477994341
 31
0.0
  0
LINE
  5
14FFE
  8
OS
 10
534.06596780949189
 20
377.98474779943422
 30
0.0
 11
693.06596780949144
 21
377.98474779943422
 31
0.0
  0
LINE
  5
14FFF
  8
OS
 10
705.56596780949144
 20
375.98474779943422
 30
0.0
 11
705.56596780949144
 21
430.98474779943427
 31
0.0
  0
LINE
  5
15000
  8
OS
 10
711.56596780949144
 20
369.9847477994341
 30
0.0
 11
711.56596780949144
 21
436.98474779943427
 31
0.0
  0
LINE
  5
15001
  8
OS
 10
703.56596780949144
 20
375.98474779943422
 30
0.0
 11
703.56596780949144
 21
430.98474779943427
 31
0.0
  0
LINE
  5
15002
  8
OS
 10
693.06596780949144
 20
375.98474779943422
 30
0.0
 11
693.06596780949144
 21
430.98474779943427
 31
0.0
  0
LINE
  5
15003
  8
OS
 10
695.06596780949144
 20
375.98474779943422
 30
0.0
 11
695.06596780949144
 21
430.98474779943427
 31
0.0
  0
TEXT
  5
15005
  8
SU
 10
641.59822373737211
 20
454.8615845167663
 30
0.0
 40
7.9999999999999982
  1
巾木
 41
0.9
  0
LINE
  5
1500E
  8
OS
 10
168.19703412796159
 20
664.10574394563082
 30
0.0
 11
59.947107195745048
 21
664.10574394563082
 31
0.0
  0
LINE
  5
1500F
  8
OS
 10
168.19703412796159
 20
673.60574394563082
 30
0.0
 11
59.947107195745048
 21
673.60574394563082
 31
0.0
  0
LINE
  5
15010
  8
OS
 10
271.44704169456833
 20
748.60574394563082
 30
0.0
 11
271.44704169456833
 21
673.60574394563082
 31
0.0
  0
LINE
  5
15011
  8
OS
 10
166.44704169456821
 20
748.60574394563082
 30
0.0
 11
166.44704169456821
 21
673.60574394563082
 31
0.0
  0
LINE
  5
15012
  8
OS
 10
329.9471071957451
 20
671.60574394563071
 30
0.0
 11
270.69703412796162
 21
671.60574394563071
 31
0.0
  0
LINE
  5
15013
  8
OS
 10
168.19703412796159
 20
671.60574394563071
 30
0.0
 11
59.947107195745048
 21
671.60574394563071
 31
0.0
  0
LINE
  5
15014
  8
OS
 10
329.9471071957451
 20
666.10574394563082
 30
0.0
 11
270.69703412796162
 21
666.10574394563082
 31
0.0
  0
LINE
  5
15015
  8
OS
 10
168.19703412796159
 20
666.10574394563082
 30
0.0
 11
59.947107195745048
 21
666.10574394563082
 31
0.0
  0
LINE
  5
15016
  8
OS
 10
121.4471574509666
 20
718.60574394563082
 30
0.0
 11
121.4471574509666
 21
673.60574394563082
 31
0.0
  0
LINE
  5
15017
  8
OS
 10
121.4471574509666
 20
718.60574394563082
 30
0.0
 11
166.44704169456821
 21
718.60574394563082
 31
0.0
  0
LINE
  5
15018
  8
OS
 10
121.4471574509666
 20
673.60574394563082
 30
0.0
 11
166.44704169456821
 21
718.60574394563082
 31
0.0
  0
LINE
  5
15019
  8
OS
 10
316.44544045182153
 20
718.60821967767367
 30
0.0
 11
316.44658310944942
 21
673.60821969218114
 31
0.0
  0
LINE
  5
1501A
  8
OS
 10
316.44544045182153
 20
718.60821967767367
 30
0.0
 11
271.44555622272668
 21
718.6070770229851
 31
0.0
  0
LINE
  5
1501B
  8
OS
 10
271.44704169456833
 20
673.60574394563082
 30
0.0
 11
316.44544045182153
 21
718.60821967767367
 31
0.0
  0
LINE
  5
1501C
  8
OS
 10
329.9471071957451
 20
664.10574394563105
 30
0.0
 11
270.69703412796162
 21
664.10574394563082
 31
0.0
  0
LINE
  5
1501D
  8
OS
 10
329.9471071957451
 20
673.60574394563082
 30
0.0
 11
270.69703412796162
 21
673.60574394563082
 31
0.0
  0
LINE
  5
1501F
  8
OS
 10
168.19703412796159
 20
664.10574394563082
 30
0.0
 11
270.69703412796162
 21
673.60574394563082
 31
0.0
  0
LINE
  5
15020
  8
OS
 10
295.94704264629632
 20
664.10574394563093
 30
0.0
 11
295.94704264629632
 21
590.60574394563002
 31
0.0
  0
LINE
  5
15021
  8
OS
 10
295.94704264629632
 20
575.60574394562991
 30
0.0
 11
295.94704264629632
 21
388.10574394672591
 31
0.0
  0
LINE
  5
15022
  8
OS
 10
102.9470426462962
 20
664.10574394563048
 30
0.0
 11
102.9470426462962
 21
388.10574394672591
 31
0.0
  0
LINE
  5
15023
  8
OS
 10
157.94704264629621
 20
664.10574394563048
 30
0.0
 11
157.94704264629621
 21
388.10574394672591
 31
0.0
  0
LINE
  5
15028
  8
OS
 10
301.94704264629632
 20
388.1057439467258
 30
0.0
 11
271.94704169456833
 21
388.1057439467258
 31
0.0
  0
LINE
  5
15029
  8
TS
 10
295.94704264629632
 20
388.1057439467258
 30
0.0
 11
295.94704264629632
 21
328.10574394672591
 31
0.0
  0
LINE
  5
1502A
  8
OS
 10
301.94704264629632
 20
388.1057439467258
 30
0.0
 11
301.94704264629632
 21
328.10574394672591
 31
0.0
  0
LINE
  5
1502B
  8
OS
 10
166.94704169456821
 20
388.10574394672591
 30
0.0
 11
96.947042646296723
 21
388.10574394672591
 31
0.0
  0
LINE
  5
1502C
  8
TS
 10
157.94704264629621
 20
388.10574394672591
 30
0.0
 11
157.94704264629621
 21
328.10574394672591
 31
0.0
  0
LINE
  5
1502D
  8
OS
 10
163.94704264629669
 20
388.10574394672591
 30
0.0
 11
163.94704264629621
 21
328.10574394672591
 31
0.0
  0
LINE
  5
1502E
  8
TS
 10
102.9470426462962
 20
388.10574394672591
 30
0.0
 11
102.9470426462962
 21
328.10574394672591
 31
0.0
  0
LINE
  5
1502F
  8
OS
 10
96.947042646296282
 20
388.10574394672591
 30
0.0
 11
96.947042646296282
 21
328.10574394672591
 31
0.0
  0
TEXT
  5
15031
  8
SU
 10
65.988140177101741
 20
386.48318990815261
 30
0.0
 40
7.9999999999999956
  1
巾木
 41
0.9
  0
LINE
  5
15032
  8
OS
 10
295.9470426462949
 20
244.28300748772091
 30
0.0
 11
295.9470426462949
 21
184.28300748772091
 31
0.0
  0
LINE
  5
15033
  8
OS
 10
102.9470426462949
 20
244.28300748772091
 30
0.0
 11
102.9470426462949
 21
184.28300748772091
 31
0.0
  0
LINE
  5
15034
  8
OS
 10
157.9470426462949
 20
244.28300748772091
 30
0.0
 11
157.9470426462949
 21
184.28300748772091
 31
0.0
  0
LINE
  5
15035
  8
OS
 10
301.9470426462949
 20
184.28300748772079
 30
0.0
 11
271.94704169456691
 21
184.28300748772079
 31
0.0
  0
LINE
  5
15036
  8
TS
 10
295.9470426462949
 20
184.28300748772079
 30
0.0
 11
295.9470426462949
 21
124.28300748772089
 31
0.0
  0
LINE
  5
15037
  8
OS
 10
301.9470426462949
 20
184.28300748772079
 30
0.0
 11
301.9470426462949
 21
124.28300748772089
 31
0.0
  0
LINE
  5
15038
  8
OS
 10
166.94704169456671
 20
184.28300748772091
 30
0.0
 11
96.947042646295344
 21
184.28300748772091
 31
0.0
  0
LINE
  5
15039
  8
TS
 10
157.9470426462949
 20
184.28300748772091
 30
0.0
 11
157.9470426462949
 21
124.28300748772089
 31
0.0
  0
LINE
  5
1503A
  8
OS
 10
163.9470426462953
 20
184.28300748772091
 30
0.0
 11
163.9470426462949
 21
124.28300748772089
 31
0.0
  0
LINE
  5
1503B
  8
TS
 10
102.9470426462949
 20
184.28300748772091
 30
0.0
 11
102.9470426462949
 21
124.28300748772089
 31
0.0
  0
LINE
  5
1503C
  8
OS
 10
96.947042646294904
 20
184.28300748772091
 30
0.0
 11
96.947042646294904
 21
124.28300748772089
 31
0.0
  0
TEXT
  5
1503E
  8
SU
 10
65.988140177100377
 20
182.66045344914761
 30
0.0
 40
7.9999999999999956
  1
巾木
 41
0.9
  0
LINE
  5
1503F
  8
OS
 10
241.4467628725674
 20
748.60574394563082
 30
0.0
 11
166.44704169456821
 21
673.60574394563082
 31
0.0
  0
LINE
  5
1504C
  8
KI2
 10
220.44704169463671
 20
330.11057788732762
 30
0.0
 11
219.44704169463671
 21
330.11057788732762
 31
0.0
  0
LINE
  5
1504D
  8
KI2
 10
218.44704169463671
 20
330.11057788732762
 30
0.0
 11
219.44704169463671
 21
330.11057788732762
 31
0.0
  0
LINE
  5
1504E
  8
KI2
 10
256.44704169463671
 20
330.11057788732762
 30
0.0
 11
255.44704169463671
 21
330.11057788732762
 31
0.0
  0
LINE
  5
1504F
  8
KI2
 10
254.44704169463671
 20
330.11057788732762
 30
0.0
 11
255.44704169463671
 21
330.11057788732762
 31
0.0
  0
LINE
  5
15061
  8
OS
 10
238.9470416945683
 20
388.10574394672591
 30
0.0
 11
235.9470416945683
 21
388.10574394672591
 31
0.0
  0
LINE
  5
15062
  8
OS
 10
202.9470416945683
 20
388.10574394672591
 30
0.0
 11
199.94704169456821
 21
388.10574394672591
 31
0.0
  0
LINE
  5
15063
  8
OS
 10
238.9470416945683
 20
184.28300748772091
 30
0.0
 11
235.9470416945683
 21
184.28300748772091
 31
0.0
  0
LINE
  5
15064
  8
OS
 10
202.9470416945683
 20
184.28300748772091
 30
0.0
 11
199.94704169456821
 21
184.28300748772091
 31
0.0
  0
LINE
  5
15AA7
  8
KI2
 10
253.72703291304489
 20
653.20574473009844
 30
0.0
 11
257.16703291304498
 21
653.20574473009844
 31
0.0
  0
LINE
  5
15AA8
  8
KI2
 10
257.66703291304498
 20
652.70574473009844
 30
0.0
 11
253.22703291304501
 21
652.70574473009844
 31
0.0
  0
LINE
  5
15AA9
  8
KI2
 10
253.22703291304501
 20
652.70574473009844
 30
0.0
 11
253.22703291304501
 21
644.80574473009847
 31
0.0
  0
LINE
  5
15AAA
  8
KI2
 10
253.72703291304489
 20
653.20574473009844
 30
0.0
 11
253.22703291304501
 21
652.70574473009844
 31
0.0
  0
LINE
  5
15AAB
  8
KI2
 10
257.66703291304498
 20
652.70574473009844
 30
0.0
 11
257.66703291304498
 21
644.80574473009847
 31
0.0
  0
LINE
  5
15AAC
  8
KI2
 10
257.66703291304498
 20
652.70574473009844
 30
0.0
 11
257.16703291304498
 21
653.20574473009844
 31
0.0
  0
LINE
  5
15AAD
  8
KI2
 10
259.44703291304489
 20
644.80574473009847
 30
0.0
 11
259.44703291304489
 21
642.99574473009852
 31
0.0
  0
LINE
  5
15AAE
  8
KI2
 10
261.34703291304493
 20
642.99574473009852
 30
0.0
 11
261.34703291304493
 21
640.99574473009852
 31
0.0
  0
LINE
  5
15AAF
  8
KI2
 10
251.44703291304501
 20
644.80574473009847
 30
0.0
 11
259.44703291304489
 21
644.80574473009847
 31
0.0
  0
LINE
  5
15AB0
  8
KI2
 10
249.547032913045
 20
640.99574473009852
 30
0.0
 11
261.34703291304493
 21
640.99574473009852
 31
0.0
  0
LINE
  5
15AB1
  8
KI2
 10
249.547032913045
 20
642.99574473009852
 30
0.0
 11
261.34703291304493
 21
642.99574473009852
 31
0.0
  0
LINE
  5
15AB2
  8
KI2
 10
251.44703291304501
 20
644.80574473009847
 30
0.0
 11
251.44703291304501
 21
642.99574473009852
 31
0.0
  0
LINE
  5
15AB3
  8
KI2
 10
249.547032913045
 20
642.99574473009852
 30
0.0
 11
249.547032913045
 21
640.99574473009852
 31
0.0
  0
LINE
  5
15AB4
  8
KI2
 10
258.44703291304501
 20
640.99574473009852
 30
0.0
 11
258.44703291304501
 21
627.10574473009865
 31
0.0
  0
LINE
  5
15AB5
  8
KI2
 10
252.44703291304489
 20
640.99574473009852
 30
0.0
 11
252.44703291304489
 21
627.10574473009865
 31
0.0
  0
LINE
  5
15AB6
  8
KI2
 10
252.44703291304489
 20
638.48574473009853
 30
0.0
 11
258.44703291304501
 21
638.48574473009853
 31
0.0
  0
LINE
  5
15AB7
  8
KI2
 10
217.72703291304501
 20
653.20574473009844
 30
0.0
 11
221.16703291304489
 21
653.20574473009844
 31
0.0
  0
LINE
  5
15AB8
  8
KI2
 10
221.66703291304501
 20
652.70574473009844
 30
0.0
 11
217.22703291304501
 21
652.70574473009844
 31
0.0
  0
LINE
  5
15AB9
  8
KI2
 10
217.22703291304501
 20
652.70574473009844
 30
0.0
 11
217.22703291304501
 21
644.80574473009847
 31
0.0
  0
LINE
  5
15ABA
  8
KI2
 10
217.72703291304501
 20
653.20574473009844
 30
0.0
 11
217.22703291304501
 21
652.70574473009844
 31
0.0
  0
LINE
  5
15ABB
  8
KI2
 10
221.66703291304501
 20
652.70574473009844
 30
0.0
 11
221.66703291304501
 21
644.80574473009847
 31
0.0
  0
LINE
  5
15ABC
  8
KI2
 10
221.66703291304501
 20
652.70574473009844
 30
0.0
 11
221.16703291304489
 21
653.20574473009844
 31
0.0
  0
LINE
  5
15ABD
  8
KI2
 10
223.44703291304489
 20
644.80574473009847
 30
0.0
 11
223.44703291304489
 21
642.99574473009852
 31
0.0
  0
LINE
  5
15ABE
  8
KI2
 10
225.34703291304501
 20
642.99574473009852
 30
0.0
 11
225.34703291304501
 21
640.99574473009852
 31
0.0
  0
LINE
  5
15ABF
  8
KI2
 10
215.44703291304489
 20
644.80574473009847
 30
0.0
 11
223.44703291304489
 21
644.80574473009847
 31
0.0
  0
LINE
  5
15AC0
  8
KI2
 10
213.54703291304489
 20
640.99574473009852
 30
0.0
 11
225.34703291304501
 21
640.99574473009852
 31
0.0
  0
LINE
  5
15AC1
  8
KI2
 10
213.54703291304489
 20
642.99574473009852
 30
0.0
 11
225.34703291304501
 21
642.99574473009852
 31
0.0
  0
LINE
  5
15AC2
  8
KI2
 10
215.44703291304489
 20
644.80574473009847
 30
0.0
 11
215.44703291304489
 21
642.99574473009852
 31
0.0
  0
LINE
  5
15AC3
  8
KI2
 10
213.54703291304489
 20
642.99574473009852
 30
0.0
 11
213.54703291304489
 21
640.99574473009852
 31
0.0
  0
LINE
  5
15AC4
  8
KI2
 10
222.44703291304501
 20
640.99574473009852
 30
0.0
 11
222.44703291304501
 21
627.10574473009865
 31
0.0
  0
LINE
  5
15AC5
  8
KI2
 10
216.44703291304501
 20
640.99574473009852
 30
0.0
 11
216.44703291304501
 21
627.10574473009865
 31
0.0
  0
LINE
  5
15AC6
  8
KI2
 10
216.44703291304501
 20
638.48574473009853
 30
0.0
 11
222.44703291304501
 21
638.48574473009853
 31
0.0
  0
LINE
  5
15AC7
  8
KI2
 10
181.72703291304489
 20
653.20574473009844
 30
0.0
 11
185.16703291304489
 21
653.20574473009844
 31
0.0
  0
LINE
  5
15AC8
  8
KI2
 10
185.66703291304489
 20
652.70574473009844
 30
0.0
 11
181.22703291304489
 21
652.70574473009844
 31
0.0
  0
LINE
  5
15AC9
  8
KI2
 10
181.22703291304489
 20
652.70574473009844
 30
0.0
 11
181.22703291304489
 21
644.80574473009847
 31
0.0
  0
LINE
  5
15ACA
  8
KI2
 10
181.72703291304489
 20
653.20574473009844
 30
0.0
 11
181.22703291304489
 21
652.70574473009844
 31
0.0
  0
LINE
  5
15ACB
  8
KI2
 10
185.66703291304489
 20
652.70574473009844
 30
0.0
 11
185.66703291304489
 21
644.80574473009847
 31
0.0
  0
LINE
  5
15ACC
  8
KI2
 10
185.66703291304489
 20
652.70574473009844
 30
0.0
 11
185.16703291304489
 21
653.20574473009844
 31
0.0
  0
LINE
  5
15ACD
  8
KI2
 10
187.44703291304489
 20
644.80574473009847
 30
0.0
 11
187.44703291304489
 21
642.99574473009852
 31
0.0
  0
LINE
  5
15ACE
  8
KI2
 10
189.3470329130449
 20
642.99574473009852
 30
0.0
 11
189.3470329130449
 21
640.99574473009852
 31
0.0
  0
LINE
  5
15ACF
  8
KI2
 10
179.44703291304489
 20
644.80574473009847
 30
0.0
 11
187.44703291304489
 21
644.80574473009847
 31
0.0
  0
LINE
  5
15AD0
  8
KI2
 10
177.54703291304489
 20
640.99574473009852
 30
0.0
 11
189.3470329130449
 21
640.99574473009852
 31
0.0
  0
LINE
  5
15AD1
  8
KI2
 10
177.54703291304489
 20
642.99574473009852
 30
0.0
 11
189.3470329130449
 21
642.99574473009852
 31
0.0
  0
LINE
  5
15AD2
  8
KI2
 10
179.44703291304489
 20
644.80574473009847
 30
0.0
 11
179.44703291304489
 21
642.99574473009852
 31
0.0
  0
LINE
  5
15AD3
  8
KI2
 10
177.54703291304489
 20
642.99574473009852
 30
0.0
 11
177.54703291304489
 21
640.99574473009852
 31
0.0
  0
LINE
  5
15AD4
  8
KI2
 10
186.44703291304489
 20
640.99574473009852
 30
0.0
 11
186.44703291304489
 21
627.10574473009865
 31
0.0
  0
LINE
  5
15AD5
  8
KI2
 10
180.44703291304489
 20
640.99574473009852
 30
0.0
 11
180.44703291304489
 21
627.10574473009865
 31
0.0
  0
LINE
  5
15AD6
  8
KI2
 10
180.44703291304489
 20
638.48574473009853
 30
0.0
 11
186.44703291304489
 21
638.48574473009853
 31
0.0
  0
LINE
  5
15B48
  8
OS
 10
1072.065971806895
 20
430.98474779943427
 30
0.0
 11
1072.065971806895
 21
237.98474779943419
 31
0.0
  0
LINE
  5
15B49
  8
OS
 10
1070.065971806895
 20
430.98474779943427
 30
0.0
 11
1070.065971806895
 21
237.98474779943419
 31
0.0
  0
LINE
  5
15B4A
  8
OS
 10
1059.565971806895
 20
430.98474779943427
 30
0.0
 11
1059.565971806895
 21
237.98474779943419
 31
0.0
  0
LINE
  5
15B4B
  8
OS
 10
1053.565971806895
 20
436.98474779943427
 30
0.0
 11
1053.565971806895
 21
231.9847477994343
 31
0.0
  0
LINE
  5
15B4C
  8
OS
 10
1061.565971806895
 20
430.98474779943427
 30
0.0
 11
1061.565971806895
 21
237.98474779943419
 31
0.0
  0
LINE
  5
15B4D
  8
OS
 10
1072.065971806895
 20
367.48474779943427
 30
0.0
 11
1118.065974255424
 21
321.48467815573667
 31
0.0
  0
LINE
  5
15B4E
  8
OS
 10
1118.065974255424
 20
239.9847477994343
 30
0.0
 11
1072.065971806895
 21
239.9847477994343
 31
0.0
  0
LINE
  5
15B4F
  8
OS
 10
1118.065974255424
 20
237.9847477994343
 30
0.0
 11
1059.565971806895
 21
237.98474779943419
 31
0.0
  0
LINE
  5
15B50
  8
OS
 10
1118.065974255424
 20
231.9847477994343
 30
0.0
 11
1053.565971806895
 21
231.9847477994343
 31
0.0
  0
LINE
  5
15B51
  8
OS
 10
1118.065974255424
 20
308.48492125943523
 30
0.0
 11
1072.065971806895
 21
262.48474779943427
 31
0.0
  0
LINE
  5
15B52
  8
OS
 10
1118.065974255424
 20
248.4847477994343
 30
0.0
 11
1072.065971806895
 21
248.4847477994343
 31
0.0
  0
LINE
  5
15B53
  8
OS
 10
1118.065974255424
 20
250.4847477994343
 30
0.0
 11
1072.065971806895
 21
250.4847477994343
 31
0.0
  0
LINE
  5
15B54
  8
OS
 10
1118.065974255424
 20
262.48474779943427
 30
0.0
 11
1072.065971806895
 21
262.48474779943427
 31
0.0
  0
LINE
  5
15B55
  8
OS
 10
1118.065974255424
 20
428.98474779943427
 30
0.0
 11
1072.065971806895
 21
428.98474779943427
 31
0.0
  0
LINE
  5
15B56
  8
OS
 10
1118.065974255424
 20
430.98474779943427
 30
0.0
 11
1059.565971806895
 21
430.98474779943427
 31
0.0
  0
LINE
  5
15B57
  8
OS
 10
1118.065974255424
 20
436.98474779943427
 30
0.0
 11
1053.565971806895
 21
436.98474779943427
 31
0.0
  0
LINE
  5
15B58
  8
OS
 10
1118.065974255424
 20
420.48474779943427
 30
0.0
 11
1072.065971806895
 21
420.48474779943427
 31
0.0
  0
LINE
  5
15B59
  8
OS
 10
1118.065974255424
 20
418.48474779943427
 30
0.0
 11
1072.065971806895
 21
418.48474779943427
 31
0.0
  0
LINE
  5
15B5A
  8
OS
 10
1118.065974255424
 20
367.48474779943427
 30
0.0
 11
1072.065971806895
 21
367.48474779943427
 31
0.0
  0
TEXT
  5
15B5B
  8
SU
 10
1108.6038156386089
 20
454.86158451676641
 30
0.0
 40
7.9999999999999982
  1
巾木
 41
0.9
  0
LINE
  5
15B65
  8
SU
 10
1098.1345175070221
 20
435.7993916397437
 30
0.0
 11
1096.298003166786
 21
433.3750948183727
 31
0.0
  0
LINE
  5
15B66
  8
SU
 10
1097.2489880330511
 20
436.26397484082707
 30
0.0
 11
1096.298003166786
 21
433.3750948183727
 31
0.0
  0
LINE
  5
15B67
  8
SU
 10
1096.298003166786
 20
433.3750948183727
 30
0.0
 11
1097.6917527700359
 21
436.0316832402853
 31
0.0
  0
LINE
  5
15B68
  8
SU
 10
1097.6917527700359
 20
436.0316832402853
 30
0.0
 11
1106.306419811478
 21
452.45186708648021
 31
0.0
1001
ACAD
1000
DSTYLE
1002
{
1070
   371
1070
    13
1070
   176
1070
   256
1070
    41
1040
1.5
1070
   147
1040
1.0
1070
    77
1070
     0
1002
}
  0
LINE
  5
15B69
  8
SU
 10
1106.306419811478
 20
452.45186708648021
 30
0.0
 11
1127.668082497778
 21
452.45186708648021
 31
0.0
1001
ACAD
1000
DSTYLE
1002
{
1070
   371
1070
    13
1070
   176
1070
   256
1070
    41
1040
1.5
1070
   147
1040
1.0
1070
    77
1070
     0
1002
}
  0
LINE
  5
15B6A
  8
SU
 10
668.35028660594537
 20
436.03168324028519
 30
0.0
 11
659.73561956450317
 21
452.45186708647998
 31
0.0
1001
ACAD
1000
DSTYLE
1002
{
1070
   371
1070
    13
1070
   176
1070
   256
1070
    41
1040
1.5
1070
   147
1040
1.0
1070
    77
1070
     0
1002
}
  0
LINE
  5
15B6B
  8
SU
 10
659.73561956450317
 20
452.45186708647998
 30
0.0
 11
638.37395687820322
 21
452.45186708647998
 31
0.0
1001
ACAD
1000
DSTYLE
1002
{
1070
   371
1070
    13
1070
   176
1070
   256
1070
    41
1040
1.5
1070
   147
1040
1.0
1070
    77
1070
     0
1002
}
  0
LINE
  5
15B74
  8
SU
 10
668.79305134293065
 20
436.2639748408269
 30
0.0
 11
669.74403620919543
 21
433.37509481837259
 31
0.0
  0
LINE
  5
15B75
  8
SU
 10
667.90752186895975
 20
435.79939163974348
 30
0.0
 11
669.74403620919543
 21
433.37509481837259
 31
0.0
  0
LINE
  5
15B76
  8
SU
 10
669.74403620919543
 20
433.37509481837259
 30
0.0
 11
668.35028660594537
 21
436.03168324028519
 31
0.0
  0
LINE
  5
15B77
  8
SU
 10
95.014029944404058
 20
365.45382015807922
 30
0.0
 11
96.947042646296282
 21
363.10574394672591
 31
0.0
210
0.0
220
0.0
230
-1.0
  0
LINE
  5
15B78
  8
SU
 10
95.880055348188506
 20
365.95382015807922
 30
0.0
 11
96.947042646296282
 21
363.10574394672591
 31
0.0
210
0.0
220
0.0
230
-1.0
  0
LINE
  5
15B79
  8
SU
 10
96.947042646296282
 20
363.10574394672591
 30
0.0
 11
95.447042646296268
 21
365.70382015807922
 31
0.0
210
0.0
220
0.0
230
-1.0
  0
LINE
  5
15B7A
  8
SU
 10
95.447042646296268
 20
365.70382015807922
 30
0.0
 11
84.841318934547417
 21
384.07347247786652
 31
0.0
210
0.0
220
0.0
230
-1.0
1001
ACAD
1000
DSTYLE
1002
{
1070
    41
1040
1.5
1070
    77
1070
     0
1070
   371
1070
    13
1002
}
  0
LINE
  5
15B7B
  8
SU
 10
84.841318934547417
 20
384.07347247786652
 30
0.0
 11
63.479656248247458
 21
384.07347247786652
 31
0.0
210
0.0
220
0.0
230
-1.0
1001
ACAD
1000
DSTYLE
1002
{
1070
    41
1040
1.5
1070
    77
1070
     0
1070
   371
1070
    13
1002
}
  0
LINE
  5
15B7C
  8
SU
 10
95.014029944402694
 20
161.63108369907431
 30
0.0
 11
96.947042646294904
 21
159.28300748772091
 31
0.0
210
0.0
220
0.0
230
-1.0
  0
LINE
  5
15B7D
  8
SU
 10
95.880055348187142
 20
162.1310836990742
 30
0.0
 11
96.947042646294904
 21
159.28300748772091
 31
0.0
210
0.0
220
0.0
230
-1.0
  0
LINE
  5
15B7E
  8
SU
 10
96.947042646294904
 20
159.28300748772091
 30
0.0
 11
95.447042646294918
 21
161.88108369907431
 31
0.0
210
0.0
220
0.0
230
-1.0
  0
LINE
  5
15B7F
  8
SU
 10
95.447042646294918
 20
161.88108369907431
 30
0.0
 11
84.841318934546052
 21
180.25073601886149
 31
0.0
210
0.0
220
0.0
230
-1.0
1001
ACAD
1000
DSTYLE
1002
{
1070
    41
1040
1.5
1070
    77
1070
     0
1070
   371
1070
    13
1002
}
  0
LINE
  5
15B80
  8
SU
 10
84.841318934546052
 20
180.25073601886149
 30
0.0
 11
63.479656248246101
 21
180.25073601886149
 31
0.0
210
0.0
220
0.0
230
-1.0
1001
ACAD
1000
DSTYLE
1002
{
1070
    41
1040
1.5
1070
    77
1070
     0
1070
   371
1070
    13
1002
}
  0
LINE
  5
1606C
  8
KI1
 10
247.49703412796171
 20
637.75574394563091
 30
0.0
 11
241.34703412796171
 21
637.75574394563091
 31
0.0
  0
LINE
  5
1606D
  8
KI1
 10
248.64703412796169
 20
636.60574394563082
 30
0.0
 11
232.26703412796169
 21
636.60574394563082
 31
0.0
  0
LINE
  5
1606E
  8
KI1
 10
241.19703412796159
 20
662.40574394563089
 30
0.0
 11
249.94703412796159
 21
662.40574394563089
 31
0.0
  0
LINE
  5
1606F
  8
KI1
 10
241.84703412796171
 20
661.25574394563091
 30
0.0
 11
269.04703412796158
 21
661.25574394563091
 31
0.0
  0
LINE
  5
16070
  8
KI1
 10
240.19703412796159
 20
637.75574394563091
 30
0.0
 11
233.4670341279616
 21
637.75574394563091
 31
0.0
  0
ARC
  5
16071
  8
KI1
 10
232.86703412796169
 20
639.00574394563091
 30
0.0
 40
0.5999999999999996
 50
0.0
 51
180.0
  0
LINE
  5
16072
  8
KI1
 10
232.26703412796169
 20
639.00574394563091
 30
0.0
 11
232.26703412796169
 21
636.60574394563082
 31
0.0
  0
LINE
  5
16073
  8
KI1
 10
233.4670341279616
 20
639.00574394563091
 30
0.0
 11
233.4670341279616
 21
637.75574394563091
 31
0.0
  0
ARC
  5
16074
  8
KI1
 10
240.69703412796159
 20
663.60574394563082
 30
0.0
 40
0.5
 50
0.0
 51
180.0
  0
LINE
  5
16075
  8
KI1
 10
240.19703412796159
 20
637.75574394563091
 30
0.0
 11
240.19703412796159
 21
663.60574394563082
 31
0.0
  0
LINE
  5
16076
  8
KI1
 10
241.19703412796159
 20
663.60574394563082
 30
0.0
 11
241.19703412796159
 21
662.40574394563089
 31
0.0
  0
LINE
  5
16077
  8
KI1
 10
241.34703412796171
 20
637.75574394563091
 30
0.0
 11
241.34703412796171
 21
660.75574394563091
 31
0.0
  0
ARC
  5
16078
  8
KI1
 10
241.84703412796171
 20
660.75574394563091
 30
0.0
 40
0.4999999999999999
 50
90.0
 51
180.0
  0
LINE
  5
16079
  8
KI1
 10
274.99703412796168
 20
636.60574394563082
 30
0.0
 11
262.24703412796168
 21
636.60574394563082
 31
0.0
  0
LINE
  5
1607A
  8
KI1
 10
275.79703412796158
 20
637.60574394563082
 30
0.0
 11
270.69703412796162
 21
637.60574394563082
 31
0.0
  0
LINE
  5
1607B
  8
KI1
 10
259.99703412796168
 20
637.60574394563082
 30
0.0
 11
261.94703412796162
 21
637.60574394563082
 31
0.0
  0
LINE
  5
1607C
  8
KI1
 10
259.99829826731059
 20
645.05574394563075
 30
0.0
 11
261.94703412796162
 21
645.05574394563075
 31
0.0
  0
ARC
  5
1607D
  8
KI1
 10
260.19829826731052
 20
644.40574394563066
 30
0.0
 40
0.5
 50
180.0
 51
270.0
  0
LINE
  5
1607E
  8
KI1
 10
259.99703412796168
 20
640.30574394563064
 30
0.0
 11
260.19703412796162
 21
640.30574394563064
 31
0.0
  0
ARC
  5
1607F
  8
KI1
 10
260.44703412796162
 20
663.60574394563082
 30
0.0
 40
0.5
 50
0.0
 51
180.0
  0
LINE
  5
16080
  8
KI1
 10
250.69829826731049
 20
643.90574394563066
 30
0.0
 11
249.14703412796169
 21
643.90574394563066
 31
0.0
  0
LINE
  5
16081
  8
KI1
 10
250.89703412796169
 20
637.60574394563082
 30
0.0
 11
248.94703412796159
 21
637.60574394563082
 31
0.0
  0
LINE
  5
16082
  8
KI1
 10
250.89829826731059
 20
645.05574394563075
 30
0.0
 11
248.94703412796159
 21
645.05574394563075
 31
0.0
  0
LINE
  5
16083
  8
KI1
 10
250.04703412796161
 20
639.30574394563075
 30
0.0
 11
250.69703412796159
 21
640.30574394563064
 31
0.0
  0
ARC
  5
16084
  8
KI1
 10
250.44703412796159
 20
663.60574394563082
 30
0.0
 40
0.5
 50
0.0
 51
180.0
  0
LINE
  5
16085
  8
KI1
 10
249.94703412796159
 20
663.60574394563082
 30
0.0
 11
249.94703412796159
 21
662.40574394563089
 31
0.0
  0
ARC
  5
16086
  8
KI1
 10
248.37203412796171
 20
645.78074394563089
 30
0.0
 40
0.5749999999999959
 50
0.0
 51
180.0
  0
ARC
  5
16087
  8
KI1
 10
248.64703412796169
 20
636.90574394563089
 30
0.0
 40
0.2999999999999999
 50
270.0
 51
0.0
  0
LINE
  5
16088
  8
KI1
 10
247.79703412796169
 20
638.05574394563087
 30
0.0
 11
247.79703412796169
 21
645.78074394563089
 31
0.0
  0
ARC
  5
16089
  8
KI1
 10
247.49703412796171
 20
638.05574394563087
 30
0.0
 40
0.2999999999999999
 50
270.0
 51
0.0
  0
LINE
  5
1608A
  8
KI1
 10
249.14703412796169
 20
643.90574394563066
 30
0.0
 11
248.94703412796159
 21
642.40574394563077
 31
0.0
  0
LINE
  5
1608B
  8
KI1
 10
248.94703412796159
 20
638.90574394563066
 30
0.0
 11
248.94703412796159
 21
642.40574394563077
 31
0.0
  0
LINE
  5
1608C
  8
KI1
 10
250.04703412796161
 20
638.90574394563066
 30
0.0
 11
248.94703412796159
 21
638.90574394563066
 31
0.0
  0
LINE
  5
1608D
  8
KI1
 10
250.04703412796161
 20
638.90574394563066
 30
0.0
 11
250.04703412796161
 21
639.30574394563075
 31
0.0
  0
LINE
  5
1608E
  8
KI1
 10
248.94703412796159
 20
645.78074394563089
 30
0.0
 11
248.94703412796159
 21
645.05574394563075
 31
0.0
  0
LINE
  5
1608F
  8
KI1
 10
248.94703412796159
 20
636.90574394563089
 30
0.0
 11
248.94703412796159
 21
637.60574394563082
 31
0.0
  0
LINE
  5
16090
  8
KI1
 10
250.94703412796159
 20
663.60574394563082
 30
0.0
 11
250.94703412796159
 21
662.40574394563089
 31
0.0
  0
ARC
  5
16091
  8
KI1
 10
250.89703412796169
 20
637.90574394563077
 30
0.0
 40
0.2999999999999999
 50
270.0
 51
0.0
  0
ARC
  5
16092
  8
KI1
 10
250.89829826731059
 20
644.75574394563057
 30
0.0
 40
0.2999999999999999
 50
0.0
 51
90.0
  0
LINE
  5
16093
  8
KI1
 10
251.19829826731049
 20
644.75574394563057
 30
0.0
 11
251.19829826731049
 21
644.40574394563066
 31
0.0
  0
LINE
  5
16094
  8
KI1
 10
251.19703412796159
 20
640.00574394563068
 30
0.0
 11
251.19703412796159
 21
637.90574394563077
 31
0.0
  0
ARC
  5
16095
  8
KI1
 10
250.89703412796169
 20
640.00574394563068
 30
0.0
 40
0.2999999999999999
 50
0.0
 51
90.0
  0
LINE
  5
16096
  8
KI1
 10
250.89703412796169
 20
640.30574394563064
 30
0.0
 11
250.69703412796159
 21
640.30574394563064
 31
0.0
  0
ARC
  5
16097
  8
KI1
 10
250.69829826731049
 20
644.40574394563066
 30
0.0
 40
0.5
 50
270.0
 51
0.0
  0
LINE
  5
16098
  8
KI1
 10
259.94703412796162
 20
662.40574394563089
 30
0.0
 11
250.94703412796159
 21
662.40574394563089
 31
0.0
  0
LINE
  5
16099
  8
KI1
 10
259.94703412796162
 20
663.60574394563082
 30
0.0
 11
259.94703412796162
 21
662.40574394563089
 31
0.0
  0
ARC
  5
1609A
  8
KI1
 10
259.99703412796168
 20
637.90574394563077
 30
0.0
 40
0.2999999999999999
 50
180.0
 51
270.0
  0
ARC
  5
1609B
  8
KI1
 10
259.99829826731059
 20
644.75574394563057
 30
0.0
 40
0.2999999999999999
 50
90.0
 51
180.0
  0
LINE
  5
1609C
  8
KI1
 10
259.69829826731052
 20
644.75574394563057
 30
0.0
 11
259.69829826731052
 21
644.40574394563066
 31
0.0
  0
LINE
  5
1609D
  8
KI1
 10
259.69703412796162
 20
640.00574394563068
 30
0.0
 11
259.69703412796162
 21
637.90574394563077
 31
0.0
  0
ARC
  5
1609E
  8
KI1
 10
259.99703412796168
 20
640.00574394563068
 30
0.0
 40
0.2999999999999999
 50
90.0
 51
180.0
  0
LINE
  5
1609F
  8
KI1
 10
263.39703412796172
 20
637.75574394563091
 30
0.0
 11
269.54703412796158
 21
637.75574394563091
 31
0.0
  0
LINE
  5
160A0
  8
KI1
 10
269.69703412796162
 20
662.40574394563089
 30
0.0
 11
260.94703412796162
 21
662.40574394563089
 31
0.0
  0
ARC
  5
160A1
  8
KI1
 10
263.39703412796172
 20
638.05574394563087
 30
0.0
 40
0.2999999999999999
 50
180.0
 51
270.0
  0
LINE
  5
160A2
  8
KI1
 10
260.94703412796162
 20
663.60574394563082
 30
0.0
 11
260.94703412796162
 21
662.40574394563089
 31
0.0
  0
LINE
  5
160A3
  8
KI1
 10
260.19829826731052
 20
643.90574394563066
 30
0.0
 11
261.74703412796168
 21
643.90574394563066
 31
0.0
  0
LINE
  5
160A4
  8
KI1
 10
260.84703412796171
 20
638.90574394563066
 30
0.0
 11
261.94703412796162
 21
638.90574394563066
 31
0.0
  0
LINE
  5
160A5
  8
KI1
 10
260.84703412796171
 20
638.90574394563066
 30
0.0
 11
260.84703412796171
 21
639.30574394563075
 31
0.0
  0
LINE
  5
160A6
  8
KI1
 10
260.84703412796171
 20
639.30574394563075
 30
0.0
 11
260.19703412796162
 21
640.30574394563064
 31
0.0
  0
LINE
  5
160A7
  8
KI1
 10
261.74703412796168
 20
643.90574394563066
 30
0.0
 11
261.94703412796162
 21
642.40574394563077
 31
0.0
  0
LINE
  5
160A8
  8
KI1
 10
261.94703412796162
 20
638.90574394563066
 30
0.0
 11
261.94703412796162
 21
642.40574394563077
 31
0.0
  0
LINE
  5
160A9
  8
KI1
 10
263.09703412796171
 20
638.05574394563087
 30
0.0
 11
263.09703412796171
 21
645.78074394563089
 31
0.0
  0
LINE
  5
160AA
  8
KI1
 10
261.94703412796162
 20
645.78074394563089
 30
0.0
 11
261.94703412796162
 21
645.05574394563075
 31
0.0
  0
ARC
  5
160AB
  8
KI1
 10
262.52203412796172
 20
645.78074394563089
 30
0.0
 40
0.5749999999999959
 50
0.0
 51
180.0
  0
LINE
  5
160AC
  8
KI1
 10
261.94703412796162
 20
636.90574394563089
 30
0.0
 11
261.94703412796162
 21
637.60574394563082
 31
0.0
  0
ARC
  5
160AD
  8
KI1
 10
262.24703412796168
 20
636.90574394563089
 30
0.0
 40
0.2999999999999999
 50
180.0
 51
270.0
  0
ARC
  5
160AE
  8
KI1
 10
270.19703412796162
 20
663.60574394563082
 30
0.0
 40
0.5
 50
0.0
 51
180.0
  0
LINE
  5
160AF
  8
KI1
 10
269.69703412796162
 20
663.60574394563082
 30
0.0
 11
269.69703412796162
 21
662.40574394563089
 31
0.0
  0
LINE
  5
160B0
  8
KI1
 10
269.54703412796158
 20
637.75574394563091
 30
0.0
 11
269.54703412796158
 21
660.75574394563091
 31
0.0
  0
ARC
  5
160B1
  8
KI1
 10
269.04703412796158
 20
660.75574394563091
 30
0.0
 40
0.4999999999999999
 50
0.0
 51
90.0
  0
LINE
  5
160B2
  8
KI1
 10
270.69703412796162
 20
637.60574394563082
 30
0.0
 11
270.69703412796162
 21
663.60574394563082
 31
0.0
  0
ARC
  5
160B3
  8
KI1
 10
275.79703412796158
 20
637.10574394563082
 30
0.0
 40
0.5
 50
0.0
 51
90.0
  0
ARC
  5
160B4
  8
KI1
 10
274.99703412796168
 20
636.30574394563087
 30
0.0
 40
0.2999999999999999
 50
0.0
 51
90.0
  0
LINE
  5
160B5
  8
KI1
 10
275.29703412796158
 20
636.30574394563087
 30
0.0
 11
275.29703412796158
 21
624.10574394563082
 31
0.0
  0
LINE
  5
160B6
  8
KI1
 10
276.29703412796158
 20
637.10574394563082
 30
0.0
 11
276.29703412796158
 21
624.10574394563082
 31
0.0
  0
ARC
  5
160B7
  8
KI1
 10
275.79703412796158
 20
624.10574394563082
 30
0.0
 40
0.5
 50
180.0
 51
0.0
  0
LINE
  5
160B8
  8
KI1
 10
233.69703412796159
 20
662.40574394563089
 30
0.0
 11
224.94703412796159
 21
662.40574394563089
 31
0.0
  0
ARC
  5
160B9
  8
KI1
 10
231.5470341279615
 20
637.10574394563082
 30
0.0
 40
0.5
 50
270.0
 51
0.0
  0
LINE
  5
160BA
  8
KI1
 10
233.5470341279615
 20
640.10574394563082
 30
0.0
 11
232.0470341279615
 21
640.10574394563082
 31
0.0
  0
LINE
  5
160BB
  8
KI1
 10
231.39703412796149
 20
641.25574394563091
 30
0.0
 11
233.5470341279615
 21
641.25574394563091
 31
0.0
  0
LINE
  5
160BC
  8
KI1
 10
205.19703412796159
 20
662.40574394563089
 30
0.0
 11
213.94703412796159
 21
662.40574394563089
 31
0.0
  0
LINE
  5
160BD
  8
KI1
 10
207.4970341279616
 20
641.25574394563091
 30
0.0
 11
205.34703412796159
 21
641.25574394563091
 31
0.0
  0
LINE
  5
160BE
  8
KI1
 10
205.34703412796159
 20
640.10574394563082
 30
0.0
 11
206.84703412796159
 21
640.10574394563082
 31
0.0
  0
LINE
  5
160BF
  8
KI1
 10
205.84703412796159
 20
661.25574394563091
 30
0.0
 11
233.0470341279615
 21
661.25574394563091
 31
0.0
  0
ARC
  5
160C0
  8
KI1
 10
204.69703412796159
 20
663.60574394563082
 30
0.0
 40
0.5
 50
0.0
 51
180.0
  0
ARC
  5
160C1
  8
KI1
 10
204.7720341279616
 20
638.33574394563084
 30
0.0
 40
0.575000000000003
 50
180.0
 51
0.0
  0
LINE
  5
160C2
  8
KI1
 10
204.19703412796159
 20
638.33574394563084
 30
0.0
 11
204.19703412796159
 21
663.60574394563082
 31
0.0
  0
LINE
  5
160C3
  8
KI1
 10
205.19703412796159
 20
663.60574394563082
 30
0.0
 11
205.19703412796159
 21
662.40574394563089
 31
0.0
  0
LINE
  5
160C4
  8
KI1
 10
205.34703412796159
 20
641.25574394563091
 30
0.0
 11
205.34703412796159
 21
660.75574394563091
 31
0.0
  0
LINE
  5
160C5
  8
KI1
 10
205.34703412796159
 20
638.33574394563084
 30
0.0
 11
205.34703412796159
 21
640.10574394563082
 31
0.0
  0
ARC
  5
160C6
  8
KI1
 10
205.84703412796159
 20
660.75574394563091
 30
0.0
 40
0.4999999999999999
 50
90.0
 51
180.0
  0
LINE
  5
160C7
  8
KI1
 10
214.94703412796159
 20
662.40574394563089
 30
0.0
 11
223.9470341279615
 21
662.40574394563089
 31
0.0
  0
ARC
  5
160C8
  8
KI1
 10
212.3720341279616
 20
645.78074394563089
 30
0.0
 40
0.5749999999999959
 50
0.0
 51
180.0
  0
LINE
  5
160C9
  8
KI1
 10
212.6470341279616
 20
636.60574394563082
 30
0.0
 11
207.34703412796159
 21
636.60574394563082
 31
0.0
  0
LINE
  5
160CA
  8
KI1
 10
211.4970341279616
 20
637.75574394563091
 30
0.0
 11
207.99703412796151
 21
637.75574394563091
 31
0.0
  0
ARC
  5
160CB
  8
KI1
 10
207.4970341279616
 20
640.75574394563091
 30
0.0
 40
0.5
 50
0.0
 51
90.0
  0
ARC
  5
160CC
  8
KI1
 10
207.34703412796159
 20
637.10574394563082
 30
0.0
 40
0.5
 50
180.0
 51
270.0
  0
LINE
  5
160CD
  8
KI1
 10
206.84703412796159
 20
637.10574394563082
 30
0.0
 11
206.84703412796159
 21
640.10574394563082
 31
0.0
  0
LINE
  5
160CE
  8
KI1
 10
207.99703412796151
 20
640.75574394563091
 30
0.0
 11
207.99703412796151
 21
637.75574394563091
 31
0.0
  0
LINE
  5
160CF
  8
KI1
 10
211.7970341279615
 20
638.05574394563087
 30
0.0
 11
211.7970341279615
 21
645.78074394563089
 31
0.0
  0
ARC
  5
160D0
  8
KI1
 10
211.4970341279616
 20
638.05574394563087
 30
0.0
 40
0.2999999999999999
 50
270.0
 51
0.0
  0
LINE
  5
160D1
  8
KI1
 10
214.69829826731049
 20
643.90574394563066
 30
0.0
 11
213.14703412796169
 21
643.90574394563066
 31
0.0
  0
LINE
  5
160D2
  8
KI1
 10
214.89703412796169
 20
637.60574394563082
 30
0.0
 11
212.94703412796159
 21
637.60574394563082
 31
0.0
  0
LINE
  5
160D3
  8
KI1
 10
214.89829826731059
 20
645.05574394563064
 30
0.0
 11
212.94703412796159
 21
645.05574394563064
 31
0.0
  0
LINE
  5
160D4
  8
KI1
 10
214.0470341279615
 20
639.30574394563064
 30
0.0
 11
214.69703412796159
 21
640.30574394563064
 31
0.0
  0
ARC
  5
160D5
  8
KI1
 10
214.44703412796159
 20
663.60574394563082
 30
0.0
 40
0.5
 50
0.0
 51
180.0
  0
LINE
  5
160D6
  8
KI1
 10
212.94703412796159
 20
642.40574394563077
 30
0.0
 11
213.14703412796169
 21
643.90574394563066
 31
0.0
  0
LINE
  5
160D7
  8
KI1
 10
212.94703412796159
 20
638.90574394563066
 30
0.0
 11
212.94703412796159
 21
642.40574394563077
 31
0.0
  0
LINE
  5
160D8
  8
KI1
 10
214.0470341279615
 20
638.90574394563066
 30
0.0
 11
212.94703412796159
 21
638.90574394563066
 31
0.0
  0
LINE
  5
160D9
  8
KI1
 10
214.0470341279615
 20
638.90574394563066
 30
0.0
 11
214.0470341279615
 21
639.30574394563064
 31
0.0
  0
LINE
  5
160DA
  8
KI1
 10
212.94703412796159
 20
645.78074394563089
 30
0.0
 11
212.94703412796159
 21
645.05574394563064
 31
0.0
  0
LINE
  5
160DB
  8
KI1
 10
213.94703412796159
 20
663.60574394563082
 30
0.0
 11
213.94703412796159
 21
662.40574394563089
 31
0.0
  0
ARC
  5
160DC
  8
KI1
 10
212.6470341279616
 20
636.90574394563089
 30
0.0
 40
0.2999999999999999
 50
270.0
 51
0.0
  0
LINE
  5
160DD
  8
KI1
 10
212.94703412796159
 20
636.90574394563089
 30
0.0
 11
212.94703412796159
 21
637.60574394563082
 31
0.0
  0
ARC
  5
160DE
  8
KI1
 10
214.89703412796169
 20
637.90574394563077
 30
0.0
 40
0.2999999999999999
 50
270.0
 51
0.0
  0
ARC
  5
160DF
  8
KI1
 10
214.89829826731059
 20
644.75574394563057
 30
0.0
 40
0.2999999999999999
 50
0.0
 51
90.0
  0
LINE
  5
160E0
  8
KI1
 10
215.19829826731049
 20
644.75574394563057
 30
0.0
 11
215.19829826731049
 21
644.40574394563066
 31
0.0
  0
LINE
  5
160E1
  8
KI1
 10
215.19703412796159
 20
640.00574394563068
 30
0.0
 11
215.19703412796159
 21
637.90574394563077
 31
0.0
  0
ARC
  5
160E2
  8
KI1
 10
214.89703412796169
 20
640.00574394563068
 30
0.0
 40
0.2999999999999999
 50
0.0
 51
90.0
  0
LINE
  5
160E3
  8
KI1
 10
214.89703412796169
 20
640.30574394563064
 30
0.0
 11
214.69703412796159
 21
640.30574394563064
 31
0.0
  0
ARC
  5
160E4
  8
KI1
 10
214.69829826731049
 20
644.40574394563066
 30
0.0
 40
0.5
 50
270.0
 51
0.0
  0
LINE
  5
160E5
  8
KI1
 10
214.94703412796159
 20
663.60574394563082
 30
0.0
 11
214.94703412796159
 21
662.40574394563089
 31
0.0
  0
LINE
  5
160E6
  8
KI1
 10
224.19829826731049
 20
643.90574394563066
 30
0.0
 11
225.7470341279616
 21
643.90574394563066
 31
0.0
  0
LINE
  5
160E7
  8
KI1
 10
223.9970341279616
 20
637.60574394563082
 30
0.0
 11
225.94703412796159
 21
637.60574394563082
 31
0.0
  0
LINE
  5
160E8
  8
KI1
 10
224.84703412796159
 20
638.90574394563066
 30
0.0
 11
225.94703412796159
 21
638.90574394563066
 31
0.0
  0
LINE
  5
160E9
  8
KI1
 10
223.9982982673105
 20
645.05574394563064
 30
0.0
 11
225.94703412796159
 21
645.05574394563064
 31
0.0
  0
ARC
  5
160EA
  8
KI1
 10
224.19829826731049
 20
644.40574394563066
 30
0.0
 40
0.5
 50
180.0
 51
270.0
  0
LINE
  5
160EB
  8
KI1
 10
223.9970341279616
 20
640.30574394563064
 30
0.0
 11
224.19703412796159
 21
640.30574394563064
 31
0.0
  0
ARC
  5
160EC
  8
KI1
 10
224.44703412796159
 20
663.60574394563082
 30
0.0
 40
0.5
 50
0.0
 51
180.0
  0
ARC
  5
160ED
  8
KI1
 10
223.9970341279616
 20
637.90574394563077
 30
0.0
 40
0.2999999999999999
 50
180.0
 51
270.0
  0
ARC
  5
160EE
  8
KI1
 10
223.9982982673105
 20
644.75574394563057
 30
0.0
 40
0.2999999999999999
 50
90.0
 51
180.0
  0
LINE
  5
160EF
  8
KI1
 10
223.69829826731049
 20
644.75574394563057
 30
0.0
 11
223.69829826731049
 21
644.40574394563066
 31
0.0
  0
LINE
  5
160F0
  8
KI1
 10
223.69703412796159
 20
640.00574394563068
 30
0.0
 11
223.69703412796159
 21
637.90574394563077
 31
0.0
  0
ARC
  5
160F1
  8
KI1
 10
223.9970341279616
 20
640.00574394563068
 30
0.0
 40
0.2999999999999999
 50
90.0
 51
180.0
  0
LINE
  5
160F2
  8
KI1
 10
223.94703412796159
 20
663.60574394563082
 30
0.0
 11
223.94703412796159
 21
662.40574394563089
 31
0.0
  0
LINE
  5
160F3
  8
KI1
 10
224.84703412796159
 20
638.90574394563066
 30
0.0
 11
224.84703412796159
 21
639.30574394563064
 31
0.0
  0
LINE
  5
160F4
  8
KI1
 10
224.84703412796159
 20
639.30574394563064
 30
0.0
 11
224.19703412796159
 21
640.30574394563064
 31
0.0
  0
LINE
  5
160F5
  8
KI1
 10
224.94703412796159
 20
663.60574394563082
 30
0.0
 11
224.94703412796159
 21
662.40574394563089
 31
0.0
  0
LINE
  5
160F6
  8
KI1
 10
226.2470341279616
 20
636.60574394563082
 30
0.0
 11
231.5470341279615
 21
636.60574394563082
 31
0.0
  0
LINE
  5
160F7
  8
KI1
 10
227.39703412796149
 20
637.75574394563091
 30
0.0
 11
230.8970341279616
 21
637.75574394563091
 31
0.0
  0
ARC
  5
160F8
  8
KI1
 10
227.39703412796149
 20
638.05574394563087
 30
0.0
 40
0.2999999999999999
 50
180.0
 51
270.0
  0
LINE
  5
160F9
  8
KI1
 10
225.7470341279616
 20
643.90574394563066
 30
0.0
 11
225.94703412796159
 21
642.40574394563077
 31
0.0
  0
LINE
  5
160FA
  8
KI1
 10
225.94703412796159
 20
638.90574394563066
 30
0.0
 11
225.94703412796159
 21
642.40574394563077
 31
0.0
  0
LINE
  5
160FB
  8
KI1
 10
227.09703412796159
 20
638.05574394563087
 30
0.0
 11
227.09703412796159
 21
645.78074394563089
 31
0.0
  0
LINE
  5
160FC
  8
KI1
 10
225.94703412796159
 20
645.78074394563089
 30
0.0
 11
225.94703412796159
 21
645.05574394563064
 31
0.0
  0
ARC
  5
160FD
  8
KI1
 10
226.52203412796149
 20
645.78074394563089
 30
0.0
 40
0.5749999999999959
 50
0.0
 51
180.0
  0
LINE
  5
160FE
  8
KI1
 10
225.94703412796159
 20
636.90574394563089
 30
0.0
 11
225.94703412796159
 21
637.60574394563082
 31
0.0
  0
ARC
  5
160FF
  8
KI1
 10
226.2470341279616
 20
636.90574394563089
 30
0.0
 40
0.2999999999999999
 50
180.0
 51
270.0
  0
LINE
  5
16100
  8
KI1
 10
232.0470341279615
 20
637.10574394563082
 30
0.0
 11
232.0470341279615
 21
640.10574394563082
 31
0.0
  0
ARC
  5
16101
  8
KI1
 10
234.19703412796159
 20
663.60574394563082
 30
0.0
 40
0.5
 50
0.0
 51
180.0
  0
ARC
  5
16102
  8
KI1
 10
234.12203412796151
 20
638.33574394563084
 30
0.0
 40
0.575000000000003
 50
180.0
 51
0.0
  0
LINE
  5
16103
  8
KI1
 10
233.69703412796159
 20
663.60574394563082
 30
0.0
 11
233.69703412796159
 21
662.40574394563089
 31
0.0
  0
LINE
  5
16104
  8
KI1
 10
233.5470341279615
 20
641.25574394563091
 30
0.0
 11
233.5470341279615
 21
660.75574394563091
 31
0.0
  0
LINE
  5
16105
  8
KI1
 10
233.5470341279615
 20
638.33574394563084
 30
0.0
 11
233.5470341279615
 21
640.10574394563082
 31
0.0
  0
ARC
  5
16106
  8
KI1
 10
233.0470341279615
 20
660.75574394563091
 30
0.0
 40
0.4999999999999999
 50
0.0
 51
90.0
  0
LINE
  5
16107
  8
KI1
 10
234.69703412796159
 20
638.33574394563084
 30
0.0
 11
234.69703412796159
 21
663.60574394563082
 31
0.0
  0
ARC
  5
16108
  8
KI1
 10
231.39703412796169
 20
640.75574394563091
 30
0.0
 40
0.5
 50
90.0
 51
180.0
  0
LINE
  5
16109
  8
KI1
 10
230.8970341279616
 20
640.75574394563091
 30
0.0
 11
230.8970341279616
 21
637.75574394563091
 31
0.0
  0
LINE
  5
1610A
  8
KI1
 10
191.39703412796149
 20
637.75574394563091
 30
0.0
 11
197.5470341279615
 21
637.75574394563091
 31
0.0
  0
LINE
  5
1610B
  8
KI1
 10
190.2470341279616
 20
636.60574394563082
 30
0.0
 11
206.62703412796151
 21
636.60574394563082
 31
0.0
  0
LINE
  5
1610C
  8
KI1
 10
197.69703412796159
 20
662.40574394563089
 30
0.0
 11
188.94703412796159
 21
662.40574394563089
 31
0.0
  0
LINE
  5
1610D
  8
KI1
 10
197.0470341279615
 20
661.25574394563091
 30
0.0
 11
169.84703412796159
 21
661.25574394563091
 31
0.0
  0
LINE
  5
1610E
  8
KI1
 10
198.69703412796159
 20
637.75574394563091
 30
0.0
 11
205.4270341279616
 21
637.75574394563091
 31
0.0
  0
ARC
  5
1610F
  8
KI1
 10
206.02703412796151
 20
639.00574394563091
 30
0.0
 40
0.5999999999999996
 50
0.0
 51
180.0
  0
LINE
  5
16110
  8
KI1
 10
206.62703412796151
 20
639.00574394563091
 30
0.0
 11
206.62703412796151
 21
636.60574394563082
 31
0.0
  0
LINE
  5
16111
  8
KI1
 10
205.4270341279616
 20
639.00574394563091
 30
0.0
 11
205.4270341279616
 21
637.75574394563091
 31
0.0
  0
ARC
  5
16112
  8
KI1
 10
198.19703412796159
 20
663.60574394563082
 30
0.0
 40
0.5
 50
0.0
 51
180.0
  0
LINE
  5
16113
  8
KI1
 10
198.69703412796159
 20
637.75574394563091
 30
0.0
 11
198.69703412796159
 21
663.60574394563082
 31
0.0
  0
LINE
  5
16114
  8
KI1
 10
197.69703412796159
 20
663.60574394563082
 30
0.0
 11
197.69703412796159
 21
662.40574394563089
 31
0.0
  0
LINE
  5
16115
  8
KI1
 10
197.5470341279615
 20
637.75574394563091
 30
0.0
 11
197.5470341279615
 21
660.75574394563091
 31
0.0
  0
ARC
  5
16116
  8
KI1
 10
197.0470341279615
 20
660.75574394563091
 30
0.0
 40
0.4999999999999999
 50
0.0
 51
90.0
  0
LINE
  5
16117
  8
KI1
 10
163.89703412796149
 20
636.60574394563082
 30
0.0
 11
176.64703412796149
 21
636.60574394563082
 31
0.0
  0
LINE
  5
16118
  8
KI1
 10
163.09703412796159
 20
637.60574394563082
 30
0.0
 11
168.19703412796159
 21
637.60574394563082
 31
0.0
  0
LINE
  5
16119
  8
KI1
 10
178.89703412796149
 20
637.60574394563082
 30
0.0
 11
176.94703412796159
 21
637.60574394563082
 31
0.0
  0
LINE
  5
1611A
  8
KI1
 10
178.89576998861261
 20
645.05574394563075
 30
0.0
 11
176.94703412796159
 21
645.05574394563075
 31
0.0
  0
ARC
  5
1611B
  8
KI1
 10
178.69576998861271
 20
644.40574394563066
 30
0.0
 40
0.5
 50
270.0
 51
0.0
  0
LINE
  5
1611C
  8
KI1
 10
178.89703412796149
 20
640.30574394563064
 30
0.0
 11
178.69703412796159
 21
640.30574394563064
 31
0.0
  0
ARC
  5
1611D
  8
KI1
 10
178.44703412796159
 20
663.60574394563082
 30
0.0
 40
0.5
 50
0.0
 51
180.0
  0
LINE
  5
1611E
  8
KI1
 10
188.19576998861271
 20
643.90574394563066
 30
0.0
 11
189.74703412796151
 21
643.90574394563066
 31
0.0
  0
LINE
  5
1611F
  8
KI1
 10
187.9970341279616
 20
637.60574394563082
 30
0.0
 11
189.94703412796159
 21
637.60574394563082
 31
0.0
  0
LINE
  5
16120
  8
KI1
 10
187.99576998861261
 20
645.05574394563075
 30
0.0
 11
189.94703412796159
 21
645.05574394563075
 31
0.0
  0
LINE
  5
16121
  8
KI1
 10
188.84703412796159
 20
639.30574394563075
 30
0.0
 11
188.19703412796159
 21
640.30574394563064
 31
0.0
  0
ARC
  5
16122
  8
KI1
 10
188.44703412796159
 20
663.60574394563082
 30
0.0
 40
0.5
 50
0.0
 51
180.0
  0
LINE
  5
16123
  8
KI1
 10
188.94703412796159
 20
663.60574394563082
 30
0.0
 11
188.94703412796159
 21
662.40574394563089
 31
0.0
  0
ARC
  5
16124
  8
KI1
 10
190.52203412796149
 20
645.78074394563089
 30
0.0
 40
0.5749999999999959
 50
0.0
 51
180.0
  0
ARC
  5
16125
  8
KI1
 10
190.2470341279616
 20
636.90574394563089
 30
0.0
 40
0.2999999999999999
 50
180.0
 51
270.0
  0
LINE
  5
16126
  8
KI1
 10
191.09703412796159
 20
638.05574394563087
 30
0.0
 11
191.09703412796159
 21
645.78074394563089
 31
0.0
  0
ARC
  5
16127
  8
KI1
 10
191.39703412796149
 20
638.05574394563087
 30
0.0
 40
0.2999999999999999
 50
180.0
 51
270.0
  0
LINE
  5
16128
  8
KI1
 10
189.74703412796151
 20
643.90574394563066
 30
0.0
 11
189.94703412796159
 21
642.40574394563077
 31
0.0
  0
LINE
  5
16129
  8
KI1
 10
189.94703412796159
 20
638.90574394563066
 30
0.0
 11
189.94703412796159
 21
642.40574394563077
 31
0.0
  0
LINE
  5
1612A
  8
KI1
 10
188.84703412796159
 20
638.90574394563066
 30
0.0
 11
189.94703412796159
 21
638.90574394563066
 31
0.0
  0
LINE
  5
1612B
  8
KI1
 10
188.84703412796159
 20
638.90574394563066
 30
0.0
 11
188.84703412796159
 21
639.30574394563075
 31
0.0
  0
LINE
  5
1612C
  8
KI1
 10
189.94703412796159
 20
645.78074394563089
 30
0.0
 11
189.94703412796159
 21
645.05574394563075
 31
0.0
  0
LINE
  5
1612D
  8
KI1
 10
189.94703412796159
 20
636.90574394563089
 30
0.0
 11
189.94703412796159
 21
637.60574394563082
 31
0.0
  0
LINE
  5
1612E
  8
KI1
 10
187.94703412796159
 20
663.60574394563082
 30
0.0
 11
187.94703412796159
 21
662.40574394563089
 31
0.0
  0
ARC
  5
1612F
  8
KI1
 10
187.9970341279616
 20
637.90574394563077
 30
0.0
 40
0.2999999999999999
 50
180.0
 51
270.0
  0
ARC
  5
16130
  8
KI1
 10
187.99576998861261
 20
644.75574394563057
 30
0.0
 40
0.2999999999999999
 50
90.0
 51
180.0
  0
LINE
  5
16131
  8
KI1
 10
187.69576998861271
 20
644.75574394563057
 30
0.0
 11
187.69576998861271
 21
644.40574394563066
 31
0.0
  0
LINE
  5
16132
  8
KI1
 10
187.69703412796159
 20
640.00574394563068
 30
0.0
 11
187.69703412796159
 21
637.90574394563077
 31
0.0
  0
ARC
  5
16133
  8
KI1
 10
187.9970341279616
 20
640.00574394563068
 30
0.0
 40
0.2999999999999999
 50
90.0
 51
180.0
  0
LINE
  5
16134
  8
KI1
 10
187.9970341279616
 20
640.30574394563064
 30
0.0
 11
188.19703412796159
 21
640.30574394563064
 31
0.0
  0
ARC
  5
16135
  8
KI1
 10
188.19576998861271
 20
644.40574394563066
 30
0.0
 40
0.5
 50
180.0
 51
270.0
  0
LINE
  5
16136
  8
KI1
 10
178.94703412796159
 20
662.40574394563089
 30
0.0
 11
187.94703412796159
 21
662.40574394563089
 31
0.0
  0
LINE
  5
16137
  8
KI1
 10
178.94703412796159
 20
663.60574394563082
 30
0.0
 11
178.94703412796159
 21
662.40574394563089
 31
0.0
  0
ARC
  5
16138
  8
KI1
 10
178.89703412796149
 20
637.90574394563077
 30
0.0
 40
0.2999999999999999
 50
270.0
 51
0.0
  0
ARC
  5
16139
  8
KI1
 10
178.89576998861261
 20
644.75574394563057
 30
0.0
 40
0.2999999999999999
 50
0.0
 51
90.0
  0
LINE
  5
1613A
  8
KI1
 10
179.19576998861271
 20
644.75574394563057
 30
0.0
 11
179.19576998861271
 21
644.40574394563066
 31
0.0
  0
LINE
  5
1613B
  8
KI1
 10
179.19703412796159
 20
640.00574394563068
 30
0.0
 11
179.19703412796159
 21
637.90574394563077
 31
0.0
  0
ARC
  5
1613C
  8
KI1
 10
178.89703412796149
 20
640.00574394563068
 30
0.0
 40
0.2999999999999999
 50
0.0
 51
90.0
  0
LINE
  5
1613D
  8
KI1
 10
175.4970341279616
 20
637.75574394563091
 30
0.0
 11
169.34703412796159
 21
637.75574394563091
 31
0.0
  0
LINE
  5
1613E
  8
KI1
 10
169.19703412796159
 20
662.40574394563089
 30
0.0
 11
177.94703412796159
 21
662.40574394563089
 31
0.0
  0
ARC
  5
1613F
  8
KI1
 10
175.4970341279616
 20
638.05574394563087
 30
0.0
 40
0.2999999999999999
 50
270.0
 51
0.0
  0
LINE
  5
16140
  8
KI1
 10
177.94703412796159
 20
663.60574394563082
 30
0.0
 11
177.94703412796159
 21
662.40574394563089
 31
0.0
  0
LINE
  5
16141
  8
KI1
 10
178.69576998861271
 20
643.90574394563066
 30
0.0
 11
177.14703412796149
 21
643.90574394563066
 31
0.0
  0
LINE
  5
16142
  8
KI1
 10
178.0470341279615
 20
638.90574394563066
 30
0.0
 11
176.94703412796159
 21
638.90574394563066
 31
0.0
  0
LINE
  5
16143
  8
KI1
 10
178.0470341279615
 20
638.90574394563066
 30
0.0
 11
178.0470341279615
 21
639.30574394563075
 31
0.0
  0
LINE
  5
16144
  8
KI1
 10
178.0470341279615
 20
639.30574394563075
 30
0.0
 11
178.69703412796159
 21
640.30574394563064
 31
0.0
  0
LINE
  5
16145
  8
KI1
 10
177.14703412796149
 20
643.90574394563066
 30
0.0
 11
176.94703412796159
 21
642.40574394563077
 31
0.0
  0
LINE
  5
16146
  8
KI1
 10
176.94703412796159
 20
638.90574394563066
 30
0.0
 11
176.94703412796159
 21
642.40574394563077
 31
0.0
  0
LINE
  5
16147
  8
KI1
 10
175.7970341279615
 20
638.05574394563087
 30
0.0
 11
175.7970341279615
 21
645.78074394563089
 31
0.0
  0
LINE
  5
16148
  8
KI1
 10
176.94703412796159
 20
645.78074394563089
 30
0.0
 11
176.94703412796159
 21
645.05574394563075
 31
0.0
  0
ARC
  5
16149
  8
KI1
 10
176.37203412796151
 20
645.78074394563089
 30
0.0
 40
0.5749999999999959
 50
0.0
 51
180.0
  0
LINE
  5
1614A
  8
KI1
 10
176.94703412796159
 20
636.90574394563089
 30
0.0
 11
176.94703412796159
 21
637.60574394563082
 31
0.0
  0
ARC
  5
1614B
  8
KI1
 10
176.64703412796149
 20
636.90574394563089
 30
0.0
 40
0.2999999999999999
 50
270.0
 51
0.0
  0
ARC
  5
1614C
  8
KI1
 10
168.69703412796159
 20
663.60574394563082
 30
0.0
 40
0.5
 50
0.0
 51
180.0
  0
LINE
  5
1614D
  8
KI1
 10
169.19703412796159
 20
663.60574394563082
 30
0.0
 11
169.19703412796159
 21
662.40574394563089
 31
0.0
  0
LINE
  5
1614E
  8
KI1
 10
169.34703412796159
 20
637.75574394563091
 30
0.0
 11
169.34703412796159
 21
660.75574394563091
 31
0.0
  0
ARC
  5
1614F
  8
KI1
 10
169.84703412796159
 20
660.75574394563091
 30
0.0
 40
0.4999999999999999
 50
90.0
 51
180.0
  0
LINE
  5
16150
  8
KI1
 10
168.19703412796159
 20
637.60574394563082
 30
0.0
 11
168.19703412796159
 21
663.60574394563082
 31
0.0
  0
ARC
  5
16151
  8
KI1
 10
163.09703412796159
 20
637.10574394563082
 30
0.0
 40
0.5
 50
90.0
 51
180.0
  0
ARC
  5
16152
  8
KI1
 10
163.89703412796149
 20
636.30574394563087
 30
0.0
 40
0.2999999999999999
 50
90.0
 51
180.0
  0
LINE
  5
16153
  8
KI1
 10
163.59703412796159
 20
636.30574394563087
 30
0.0
 11
163.59703412796159
 21
624.10574394563082
 31
0.0
  0
LINE
  5
16154
  8
KI1
 10
162.59703412796159
 20
637.10574394563082
 30
0.0
 11
162.59703412796159
 21
624.10574394563082
 31
0.0
  0
ARC
  5
16155
  8
KI1
 10
163.09703412796159
 20
624.10574394563082
 30
0.0
 40
0.5
 50
180.0
 51
0.0
  0
LINE
  5
16156
  8
KI1
 10
250.64703816413251
 20
332.80573652058609
 30
0.0
 11
224.247045225005
 21
332.80573652058609
 31
0.0
  0
LINE
  5
16157
  8
KI1
 10
237.72988040893691
 20
329.30573646167181
 30
0.0
 11
250.04703909350559
 21
329.30573646167181
 31
0.0
  0
LINE
  5
16158
  8
KI1
 10
250.19319743537969
 20
328.10574394672608
 30
0.0
 11
237.4470416945683
 21
328.10574394672608
 31
0.0
  0
LINE
  5
16159
  8
KI1
 10
242.6470416945686
 20
331.60574400564218
 30
0.0
 11
248.34704813242249
 21
331.60574400564218
 31
0.0
  0
LINE
  5
1615A
  8
KI1
 10
201.14703930844459
 20
329.30573646167181
 30
0.0
 11
188.84704429563271
 21
329.30573646167181
 31
0.0
  0
LINE
  5
1615B
  8
KI1
 10
188.7008859537568
 20
328.10574394672608
 30
0.0
 11
201.4470416945683
 21
328.10574394672608
 31
0.0
  0
ARC
  5
1615C
  8
KI1
 10
196.6970416945683
 20
330.05573652058609
 30
0.0
 40
0.4499999999999992
 50
180.0
 51
0.0
  0
LINE
  5
1615D
  8
KI1
 10
214.64703816413251
 20
332.80573652058609
 30
0.0
 11
188.247045225005
 21
332.80573652058609
 31
0.0
  0
LINE
  5
1615E
  8
KI1
 10
189.58361584692241
 20
330.21062990230189
 30
0.0
 11
189.86030953715999
 21
329.8153431949579
 31
0.0
  0
ARC
  5
1615F
  8
KI1
 10
190.46712681946471
 20
329.99598214526048
 30
0.0
 40
0.3000000099360252
 50
304.99198913573298
 51
34.858993530266311
  0
LINE
  5
16160
  8
KI1
 10
196.2470416945684
 20
331.80573652058621
 30
0.0
 11
196.2470416945684
 21
330.05573652058609
 31
0.0
  0
LINE
  5
16161
  8
KI1
 10
188.84704429563271
 20
330.60574148705678
 30
0.0
 11
188.84704429563271
 21
329.30573646167181
 31
0.0
  0
LINE
  5
16162
  8
KI1
 10
181.3470416945683
 20
329.30574394672681
 30
0.0
 11
181.3470416945683
 21
331.84708958062203
 31
0.0
  0
LINE
  5
16163
  8
KI1
 10
185.54704169456821
 20
329.30574394672681
 30
0.0
 11
185.54704169456821
 21
331.84708958062203
 31
0.0
  0
LINE
  5
16164
  8
KI1
 10
178.44843741620801
 20
331.7865081499578
 30
0.0
 11
174.64704169456849
 21
328.55126617303608
 31
0.0
  0
LINE
  5
16165
  8
KI1
 10
180.14704169456849
 20
329.10574394672699
 30
0.0
 11
180.14704169456849
 21
331.14762809338868
 31
0.0
  0
LINE
  5
16166
  8
KI1
 10
178.14701909801079
 20
333.10573902738793
 30
0.0
 11
173.4470416945683
 21
329.10574394672699
 31
0.0
  0
LINE
  5
16167
  8
KI1
 10
185.54704169456821
 20
329.30574394672681
 30
0.0
 11
183.44704169456821
 21
329.30574394672681
 31
0.0
  0
LINE
  5
16168
  8
KI1
 10
181.14704169456849
 20
328.10574394672608
 30
0.0
 11
185.69319743537969
 21
328.10574394672608
 31
0.0
  0
LINE
  5
16169
  8
KI1
 10
181.3470416945683
 20
329.30574394672681
 30
0.0
 11
183.44704169456821
 21
329.30574394672681
 31
0.0
  0
LINE
  5
1616A
  8
KI1
 10
174.64704169456849
 20
328.55126617303608
 30
0.0
 11
174.64704169456849
 21
328.10574394672608
 31
0.0
  0
LINE
  5
1616B
  8
KI1
 10
173.4470416945683
 20
329.10574394672699
 30
0.0
 11
173.4470416945683
 21
328.10574394672608
 31
0.0
  0
LINE
  5
1616C
  8
KI1
 10
174.64704169456849
 20
328.10574394672608
 30
0.0
 11
173.4470416945683
 21
328.10574394672608
 31
0.0
  0
ARC
  5
1616D
  8
KI1
 10
181.14704169456849
 20
329.10574394672699
 30
0.0
 40
1.0
 50
180.0
 51
270.0
  0
LINE
  5
1616E
  8
KI1
 10
190.55666699909671
 20
329.6924596744268
 30
0.0
 11
190.6391497384015
 21
329.75019759193918
 31
0.0
  0
ARC
  5
1616F
  8
KI1
 10
190.26993878452319
 20
330.10208892178912
 30
0.0
 40
0.4999999937576218
 50
214.99197387695901
 51
304.99198913573298
  0
ARC
  5
16170
  8
KI1
 10
187.19704169456821
 20
328.85574394672608
 30
0.0
 40
0.5
 50
19.720842471960889
 51
160.27915752803909
  0
LINE
  5
16171
  8
KI1
 10
186.63454529284149
 20
328.7683062321002
 30
0.0
 11
186.72636776583721
 21
329.0244628040391
 31
0.0
  0
ARC
  5
16172
  8
KI1
 10
185.69319743537969
 20
329.10574394672608
 30
0.0
 40
1.0
 50
270.0
 51
340.27915752803909
  0
ARC
  5
16173
  8
KI1
 10
188.7008859537568
 20
329.10574394672608
 30
0.0
 40
1.0
 50
199.72084247196091
 51
270.0
  0
LINE
  5
16174
  8
KI1
 10
187.75953809629499
 20
328.7683062321002
 30
0.0
 11
187.66771562329919
 21
329.0244628040391
 31
0.0
  0
ARC
  5
16175
  8
KI1
 10
179.8470416945683
 20
331.14762809338868
 30
0.0
 40
0.3
 50
0.0
 51
50.000000000013671
  0
ARC
  5
16176
  8
KI1
 10
178.7724974033963
 20
331.40573902738771
 30
0.0
 40
0.5
 50
90.0
 51
130.40000551601739
  0
LINE
  5
16177
  8
KI1
 10
179.22829229631631
 20
331.9057390273872
 30
0.0
 11
178.7724974033963
 21
331.9057390273872
 31
0.0
  0
LINE
  5
16178
  8
KI1
 10
179.54968610115969
 20
331.78876124894742
 30
0.0
 11
180.03987797747499
 21
331.37744142632499
 31
0.0
  0
ARC
  5
16179
  8
KI1
 10
179.22829229631631
 20
331.40573902738771
 30
0.0
 40
0.5
 50
50.000000000013671
 51
90.0
  0
LINE
  5
1617A
  8
KI1
 10
179.8470466374738
 20
333.10573902738793
 30
0.0
 11
178.14701909801079
 21
333.10573902738793
 31
0.0
  0
LINE
  5
1617B
  8
KI1
 10
179.8470416945683
 20
333.10573902738793
 30
0.0
 11
181.3470416945683
 21
331.84708958062203
 31
0.0
  0
ARC
  5
1617C
  8
KI1
 10
189.24704430741571
 20
330.90574148705701
 30
0.0
 40
0.3
 50
270.0
 51
0.0
  0
LINE
  5
1617D
  8
KI1
 10
190.71329664248151
 20
330.1674446719137
 30
0.0
 11
190.4308414190732
 21
330.57294102618312
 31
0.0
  0
LINE
  5
1617E
  8
KI1
 10
190.4308414190732
 20
330.57294102618312
 30
0.0
 11
190.54705276897309
 21
330.97968075083207
 31
0.0
  0
LINE
  5
1617F
  8
KI1
 10
189.64704524857049
 20
331.60574400564218
 30
0.0
 11
189.64704524857049
 21
331.10573399021968
 31
0.0
  0
LINE
  5
16180
  8
KI1
 10
189.64704524857049
 20
331.10573399021968
 30
0.0
 11
189.51248105136941
 21
330.63472427549573
 31
0.0
  0
ARC
  5
16181
  8
KI1
 10
189.99322758202689
 20
330.49735811687492
 30
0.0
 40
0.4999999937576218
 50
164.0549926757796
 51
214.99198913572849
  0
LINE
  5
16182
  8
KI1
 10
189.54704430741549
 20
331.00574400564102
 30
0.0
 11
189.54704430741549
 21
330.90574148705701
 31
0.0
  0
ARC
  5
16183
  8
KI1
 10
188.94704430741561
 20
331.00574400564102
 30
0.0
 40
0.6
 50
0.0
 51
90.0
  0
LINE
  5
16184
  8
KI1
 10
190.54705276897309
 20
330.97968075083207
 30
0.0
 11
190.54705276897309
 21
331.80573652058621
 31
0.0
  0
LINE
  5
16185
  8
KI1
 10
196.2470416945684
 20
331.80573652058621
 30
0.0
 11
190.54705276897309
 21
331.80573652058621
 31
0.0
  0
LINE
  5
16186
  8
KI1
 10
188.04704928566889
 20
332.80573902738729
 30
0.0
 11
188.04704928566889
 21
331.60574400564218
 31
0.0
  0
ARC
  5
16187
  8
KI1
 10
187.74704928566871
 20
332.80573902738729
 30
0.0
 40
0.3
 50
0.0
 51
90.0
  0
LINE
  5
16188
  8
KI1
 10
188.247045225005
 20
332.80573652058609
 30
0.0
 11
188.247045225005
 21
331.60574400564218
 31
0.0
  0
LINE
  5
16189
  8
KI1
 10
187.04704169456821
 20
333.10573902738793
 30
0.0
 11
185.54704169456821
 21
331.84708958062203
 31
0.0
  0
LINE
  5
1618A
  8
KI1
 10
187.04704169456821
 20
333.10573902738793
 30
0.0
 11
187.74704928566871
 21
333.10573902738793
 31
0.0
  0
LINE
  5
1618B
  8
KI1
 10
189.24704430741571
 20
330.60574148705678
 30
0.0
 11
188.84704429563271
 21
330.60574148705678
 31
0.0
  0
LINE
  5
1618D
  8
KI1
 10
189.64704524857049
 20
331.60574400564218
 30
0.0
 11
188.04704928566889
 21
331.60574400564218
 31
0.0
  0
LINE
  5
1618E
  8
KI1
 10
241.7470416945684
 20
331.60574400564218
 30
0.0
 11
241.7470416945684
 21
330.05573652058609
 31
0.0
  0
LINE
  5
1618F
  8
KI1
 10
242.6470416945686
 20
331.60574400564218
 30
0.0
 11
242.6470416945686
 21
330.05573652058609
 31
0.0
  0
LINE
  5
16190
  8
KI1
 10
232.24704169456851
 20
331.60574400564218
 30
0.0
 11
232.24704169456851
 21
330.05573652058609
 31
0.0
  0
LINE
  5
16191
  8
KI1
 10
233.14704169456849
 20
331.60574400564218
 30
0.0
 11
233.14704169456849
 21
330.05573652058609
 31
0.0
  0
LINE
  5
16192
  8
KI1
 10
224.84704429563271
 20
330.60574148705678
 30
0.0
 11
224.84704429563271
 21
329.30573646167181
 31
0.0
  0
LINE
  5
16193
  8
KI1
 10
225.58361584692241
 20
330.21062990230189
 30
0.0
 11
225.86030953715999
 21
329.8153431949579
 31
0.0
  0
ARC
  5
16194
  8
KI1
 10
226.46712681946471
 20
329.99598214526048
 30
0.0
 40
0.3000000099360252
 50
304.99198913573298
 51
34.858993530266311
  0
LINE
  5
16195
  8
KI1
 10
214.04703909350559
 20
330.60574148705678
 30
0.0
 11
214.04703909350559
 21
329.30573646167181
 31
0.0
  0
LINE
  5
16196
  8
KI1
 10
217.34704169456839
 20
329.30574394672681
 30
0.0
 11
217.34704169456839
 21
331.84708958062203
 31
0.0
  0
LINE
  5
16197
  8
KI1
 10
221.54704169456821
 20
329.30574394672681
 30
0.0
 11
221.54704169456821
 21
331.84708958062203
 31
0.0
  0
LINE
  5
16198
  8
KI1
 10
213.31048505447461
 20
330.21062990230189
 30
0.0
 11
213.033791364237
 21
329.8153431949579
 31
0.0
  0
ARC
  5
16199
  8
KI1
 10
212.4269740819318
 20
329.99598214526048
 30
0.0
 40
0.3000000099360252
 50
145.14099121094441
 51
235.0079956054567
  0
LINE
  5
1619A
  8
KI1
 10
205.7470416945684
 20
331.80573652058621
 30
0.0
 11
205.7470416945684
 21
330.05573652058609
 31
0.0
  0
LINE
  5
1619B
  8
KI1
 10
206.64704169456849
 20
331.80573652058621
 30
0.0
 11
206.64704169456849
 21
330.05573652058609
 31
0.0
  0
LINE
  5
1619C
  8
KI1
 10
197.14704169456849
 20
331.80573652058621
 30
0.0
 11
197.14704169456849
 21
330.05573652058609
 31
0.0
  0
LINE
  5
1619D
  8
KI1
 10
221.54704169456821
 20
329.30574394672681
 30
0.0
 11
219.4470416945683
 21
329.30574394672681
 31
0.0
  0
LINE
  5
1619E
  8
KI1
 10
221.69319743537969
 20
328.10574394672608
 30
0.0
 11
217.2008859537568
 21
328.10574394672608
 31
0.0
  0
LINE
  5
1619F
  8
KI1
 10
201.74703930844589
 20
329.30573646167181
 30
0.0
 11
214.04703909350559
 21
329.30573646167181
 31
0.0
  0
LINE
  5
161A0
  8
KI1
 10
214.19319743537969
 20
328.10574394672608
 30
0.0
 11
201.4470416945683
 21
328.10574394672608
 31
0.0
  0
ARC
  5
161A1
  8
KI1
 10
206.1970416945683
 20
330.05573652058609
 30
0.0
 40
0.4499999999999992
 50
180.0
 51
0.0
  0
ARC
  5
161A2
  8
KI1
 10
201.44703930844619
 20
329.30573646167181
 30
0.0
 40
0.3
 50
180.0
 51
0.0
  0
LINE
  5
161A3
  8
KI1
 10
217.34704169456839
 20
329.30574394672681
 30
0.0
 11
219.4470416945683
 21
329.30574394672681
 31
0.0
  0
ARC
  5
161A4
  8
KI1
 10
217.2008859537568
 20
329.10574394672608
 30
0.0
 40
1.0
 50
199.72084247196091
 51
270.0
  0
ARC
  5
161A5
  8
KI1
 10
214.19319743537969
 20
329.10574394672608
 30
0.0
 40
1.0
 50
270.0
 51
340.27915752803909
  0
LINE
  5
161A6
  8
KI1
 10
215.13454529284149
 20
328.7683062321002
 30
0.0
 11
215.2263677658373
 21
329.0244628040391
 31
0.0
  0
LINE
  5
161A7
  8
KI1
 10
216.2595380962951
 20
328.7683062321002
 30
0.0
 11
216.1677156232993
 21
329.0244628040391
 31
0.0
  0
ARC
  5
161A8
  8
KI1
 10
215.6970416945683
 20
328.85574394672608
 30
0.0
 40
0.5
 50
19.720842471960889
 51
160.27915752803909
  0
LINE
  5
161A9
  8
KI1
 10
212.33743390230069
 20
329.6924596744268
 30
0.0
 11
212.2549336507368
 21
329.75019759193918
 31
0.0
  0
ARC
  5
161AA
  8
KI1
 10
212.6241621168738
 20
330.10208892178912
 30
0.0
 40
0.4999999937576218
 50
235.0079956054567
 51
325.00799560546392
  0
ARC
  5
161AB
  8
KI1
 10
232.6970416945683
 20
330.05573652058609
 30
0.0
 40
0.4499999999999992
 50
180.0
 51
0.0
  0
LINE
  5
161AC
  8
KI1
 10
237.1642029802006
 20
329.30573646167181
 30
0.0
 11
224.84704429563271
 21
329.30573646167181
 31
0.0
  0
LINE
  5
161AD
  8
KI1
 10
224.7008859537568
 20
328.10574394672608
 30
0.0
 11
237.4470416945683
 21
328.10574394672608
 31
0.0
  0
LINE
  5
161AE
  8
KI1
 10
226.5566669990958
 20
329.6924596744268
 30
0.0
 11
226.63914973840161
 21
329.75019759193918
 31
0.0
  0
ARC
  5
161AF
  8
KI1
 10
226.26993878452319
 20
330.10208892178912
 30
0.0
 40
0.4999999937576218
 50
214.99197387695901
 51
304.99198913573298
  0
ARC
  5
161B0
  8
KI1
 10
223.1970416945683
 20
328.85574394672608
 30
0.0
 40
0.5
 50
19.720842471960889
 51
160.27915752803909
  0
LINE
  5
161B1
  8
KI1
 10
222.63454529284149
 20
328.7683062321002
 30
0.0
 11
222.72636776583749
 21
329.0244628040391
 31
0.0
  0
LINE
  5
161B2
  8
KI1
 10
223.75953809629499
 20
328.7683062321002
 30
0.0
 11
223.66771562329899
 21
329.0244628040391
 31
0.0
  0
ARC
  5
161B3
  8
KI1
 10
224.7008859537568
 20
329.10574394672608
 30
0.0
 40
1.0
 50
199.72084247196091
 51
270.0
  0
ARC
  5
161B4
  8
KI1
 10
221.69319743537969
 20
329.10574394672608
 30
0.0
 40
1.0
 50
270.0
 51
340.27915752803909
  0
ARC
  5
161B5
  8
KI1
 10
242.1970416945683
 20
330.05573652058609
 30
0.0
 40
0.4499999999999992
 50
180.0
 51
0.0
  0
ARC
  5
161B6
  8
KI1
 10
237.44704408069271
 20
329.30573646167181
 30
0.0
 40
0.3
 50
180.0
 51
0.0
  0
LINE
  5
161B7
  8
KI1
 10
212.34704813242249
 20
331.80573652058621
 30
0.0
 11
206.64704169456849
 21
331.80573652058621
 31
0.0
  0
LINE
  5
161B8
  8
KI1
 10
205.7470416945684
 20
331.80573652058621
 30
0.0
 11
197.14704169456849
 21
331.80573652058621
 31
0.0
  0
LINE
  5
161B9
  8
KI1
 10
214.8470341034685
 20
332.80573902738729
 30
0.0
 11
214.8470341034685
 21
331.60574400564218
 31
0.0
  0
ARC
  5
161BA
  8
KI1
 10
215.14703410346871
 20
332.80573902738729
 30
0.0
 40
0.3
 50
90.0
 51
180.0
  0
LINE
  5
161BB
  8
KI1
 10
214.64703816413251
 20
331.60574400564218
 30
0.0
 11
214.64703816413251
 21
332.80573652058609
 31
0.0
  0
LINE
  5
161BC
  8
KI1
 10
215.84704169456839
 20
333.10573902738793
 30
0.0
 11
217.34704169456839
 21
331.84708958062203
 31
0.0
  0
LINE
  5
161BE
  8
KI1
 10
215.14703410346871
 20
333.10573902738702
 30
0.0
 11
215.84704169456839
 21
333.10573902738793
 31
0.0
  0
ARC
  5
161BF
  8
KI1
 10
213.64703908172169
 20
330.90574148705701
 30
0.0
 40
0.3
 50
180.0
 51
270.0
  0
LINE
  5
161C0
  8
KI1
 10
213.24705565282599
 20
331.10573399021968
 30
0.0
 11
213.3816373622858
 21
330.63472427549573
 31
0.0
  0
LINE
  5
161C1
  8
KI1
 10
213.24705565282599
 20
331.60574400564218
 30
0.0
 11
213.24705565282599
 21
331.10573399021968
 31
0.0
  0
LINE
  5
161C2
  8
KI1
 10
212.1808217711737
 20
330.1674446719137
 30
0.0
 11
212.46325948232149
 21
330.57294102618312
 31
0.0
  0
LINE
  5
161C3
  8
KI1
 10
212.46325948232149
 20
330.57294102618312
 30
0.0
 11
212.34704813242249
 21
330.97968075083207
 31
0.0
  0
ARC
  5
161C4
  8
KI1
 10
212.90085580710999
 20
330.49735811687492
 30
0.0
 40
0.4999999937576218
 50
325.00799560546392
 51
15.94499206543477
  0
LINE
  5
161C5
  8
KI1
 10
213.3470390817229
 20
331.00574400564102
 30
0.0
 11
213.3470390817229
 21
330.90574148705701
 31
0.0
  0
LINE
  5
161C6
  8
KI1
 10
212.34704813242249
 20
330.97968075083207
 30
0.0
 11
212.34704813242249
 21
331.80573652058621
 31
0.0
  0
LINE
  5
161C7
  8
KI1
 10
213.64703908172169
 20
330.60574148705678
 30
0.0
 11
214.04703909350559
 21
330.60574148705678
 31
0.0
  0
LINE
  5
161C8
  8
KI1
 10
213.24705565282599
 20
331.60574400564218
 30
0.0
 11
214.8470341034685
 21
331.60574400564218
 31
0.0
  0
ARC
  5
161C9
  8
KI1
 10
213.9470390817219
 20
331.00574400564102
 30
0.0
 40
0.6
 50
90.0
 51
180.0
  0
LINE
  5
161CA
  8
KI1
 10
225.24704430741579
 20
330.60574148705678
 30
0.0
 11
224.84704429563271
 21
330.60574148705678
 31
0.0
  0
ARC
  5
161CB
  8
KI1
 10
225.24704430741579
 20
330.90574148705701
 30
0.0
 40
0.3
 50
270.0
 51
0.0
  0
LINE
  5
161CC
  8
KI1
 10
223.74704928566871
 20
333.10573902738793
 30
0.0
 11
223.04703675166371
 21
333.10573902738793
 31
0.0
  0
LINE
  5
161CD
  8
KI1
 10
224.04704928566889
 20
332.80573902738729
 30
0.0
 11
224.04704928566889
 21
331.60574400564218
 31
0.0
  0
ARC
  5
161CE
  8
KI1
 10
223.74704928566871
 20
332.80573902738729
 30
0.0
 40
0.3
 50
0.0
 51
90.0
  0
LINE
  5
161CF
  8
KI1
 10
226.7132966424806
 20
330.1674446719137
 30
0.0
 11
226.4308414190732
 21
330.57294102618312
 31
0.0
  0
LINE
  5
161D0
  8
KI1
 10
226.54705276897309
 20
330.97968075083207
 30
0.0
 11
226.54705276897309
 21
331.60574400564218
 31
0.0
  0
LINE
  5
161D1
  8
KI1
 10
226.4308414190732
 20
330.57294102618312
 30
0.0
 11
226.54705276897309
 21
330.97968075083207
 31
0.0
  0
LINE
  5
161D3
  8
KI1
 10
225.64704524857049
 20
331.60574400564218
 30
0.0
 11
225.64704524857049
 21
331.10573399021968
 31
0.0
  0
LINE
  5
161D4
  8
KI1
 10
225.64704524857049
 20
331.10573399021968
 30
0.0
 11
225.51248105136941
 21
330.63472427549573
 31
0.0
  0
LINE
  5
161D5
  8
KI1
 10
224.247045225005
 20
332.80573652058609
 30
0.0
 11
224.247045225005
 21
331.60574400564218
 31
0.0
  0
ARC
  5
161D6
  8
KI1
 10
225.993227582027
 20
330.49735811687492
 30
0.0
 40
0.4999999937576218
 50
164.0549926757796
 51
214.99198913572849
  0
LINE
  5
161D7
  8
KI1
 10
225.64704524857049
 20
331.60574400564218
 30
0.0
 11
224.04704928566889
 21
331.60574400564218
 31
0.0
  0
LINE
  5
161D8
  8
KI1
 10
225.54704430741549
 20
331.00574400564102
 30
0.0
 11
225.54704430741549
 21
330.90574148705701
 31
0.0
  0
ARC
  5
161D9
  8
KI1
 10
224.94704430741561
 20
331.00574400564102
 30
0.0
 40
0.6
 50
0.0
 51
90.0
  0
LINE
  5
161DA
  8
KI1
 10
223.04704169456821
 20
333.10573902738793
 30
0.0
 11
221.54704169456821
 21
331.84708958062203
 31
0.0
  0
LINE
  5
161DC
  8
KI1
 10
226.54705276897309
 20
331.60574400564218
 30
0.0
 11
232.24704169456851
 21
331.60574400564218
 31
0.0
  0
LINE
  5
161DD
  8
KI1
 10
233.14704169456849
 20
331.60574400564218
 30
0.0
 11
241.7470416945684
 21
331.60574400564218
 31
0.0
  0
LINE
  5
161DE
  8
KI1
 10
258.7470416945684
 20
329.10574394672699
 30
0.0
 11
258.7470416945684
 21
331.05436656175812
 31
0.0
  0
LINE
  5
161DF
  8
KI1
 10
257.54704169456818
 20
331.84708958062203
 30
0.0
 11
257.54704169456818
 21
329.30574394672681
 31
0.0
  0
LINE
  5
161E0
  8
KI1
 10
250.04703909350559
 20
330.60574148705678
 30
0.0
 11
250.04703909350559
 21
329.30573646167181
 31
0.0
  0
LINE
  5
161E1
  8
KI1
 10
249.3104850544737
 20
330.21062990230189
 30
0.0
 11
249.033791364237
 21
329.8153431949579
 31
0.0
  0
ARC
  5
161E2
  8
KI1
 10
248.4269740819318
 20
329.99598214526048
 30
0.0
 40
0.3000000099360252
 50
145.14099121094441
 51
235.0079956054567
  0
LINE
  5
161E3
  8
KI1
 10
253.34704169456839
 20
329.30574394672681
 30
0.0
 11
253.34704169456839
 21
331.84708958062203
 31
0.0
  0
LINE
  5
161E4
  8
KI1
 10
260.44564597293078
 20
331.7865081499578
 30
0.0
 11
264.2470416945684
 21
328.55126617303608
 31
0.0
  0
LINE
  5
161E5
  8
KI1
 10
260.74706429112672
 20
333.10573902738793
 30
0.0
 11
265.44704169456833
 21
329.10574394672699
 31
0.0
  0
LINE
  5
161E7
  8
KI1
 10
257.54704169456818
 20
329.30574394672681
 30
0.0
 11
255.44704169456961
 21
329.30574394672681
 31
0.0
  0
LINE
  5
161E8
  8
KI1
 10
257.74704169456851
 20
328.10574394672608
 30
0.0
 11
253.2008859537568
 21
328.10574394672608
 31
0.0
  0
LINE
  5
161E9
  8
KI1
 10
248.33743390230069
 20
329.6924596744268
 30
0.0
 11
248.2549336507368
 21
329.75019759193918
 31
0.0
  0
ARC
  5
161EA
  8
KI1
 10
248.6241621168738
 20
330.10208892178912
 30
0.0
 40
0.4999999937576218
 50
235.0079956054567
 51
325.00799560546392
  0
ARC
  5
161EB
  8
KI1
 10
250.19319743537969
 20
329.10574394672608
 30
0.0
 40
1.0
 50
270.0
 51
340.27915752803909
  0
ARC
  5
161EC
  8
KI1
 10
251.6970416945683
 20
328.85574394672608
 30
0.0
 40
0.5
 50
19.720842471960889
 51
160.27915752803909
  0
LINE
  5
161ED
  8
KI1
 10
251.13454529284149
 20
328.7683062321002
 30
0.0
 11
251.22636776583749
 21
329.02446280403899
 31
0.0
  0
ARC
  5
161EE
  8
KI1
 10
253.2008859537568
 20
329.10574394672608
 30
0.0
 40
1.0
 50
199.72084247196091
 51
270.0
  0
LINE
  5
161EF
  8
KI1
 10
252.25953809629499
 20
328.7683062321002
 30
0.0
 11
252.16771562329899
 21
329.02446280403899
 31
0.0
  0
LINE
  5
161F0
  8
KI1
 10
253.34704169456839
 20
329.30574394672681
 30
0.0
 11
255.44704169456961
 21
329.30574394672681
 31
0.0
  0
LINE
  5
161F1
  8
KI1
 10
265.44704169456833
 20
329.10574394672699
 30
0.0
 11
265.44704169456833
 21
328.10574394672608
 31
0.0
  0
LINE
  5
161F2
  8
KI1
 10
264.2470416945684
 20
328.55126617303608
 30
0.0
 11
264.2470416945684
 21
328.10574394672608
 31
0.0
  0
LINE
  5
161F4
  8
KI1
 10
265.44704169456833
 20
328.10574394672608
 30
0.0
 11
264.2470416945684
 21
328.10574394672608
 31
0.0
  0
ARC
  5
161F5
  8
KI1
 10
257.74704169456851
 20
329.10574394672699
 30
0.0
 40
1.0
 50
270.0
 51
0.0
  0
LINE
  5
161F6
  8
KI1
 10
249.24705565282599
 20
331.60574400564218
 30
0.0
 11
250.84703410346859
 21
331.60574400564218
 31
0.0
  0
LINE
  5
161F8
  8
KI1
 10
249.64703908172169
 20
330.60574148705678
 30
0.0
 11
250.04703909350559
 21
330.60574148705678
 31
0.0
  0
ARC
  5
161F9
  8
KI1
 10
249.64703908172169
 20
330.90574148705701
 30
0.0
 40
0.3
 50
180.0
 51
270.0
  0
LINE
  5
161FA
  8
KI1
 10
249.24705565282599
 20
331.10573399021968
 30
0.0
 11
249.38163736228671
 21
330.63472427549573
 31
0.0
  0
LINE
  5
161FB
  8
KI1
 10
249.24705565282599
 20
331.60574400564218
 30
0.0
 11
249.24705565282599
 21
331.10573399021968
 31
0.0
  0
LINE
  5
161FC
  8
KI1
 10
248.1808217711737
 20
330.1674446719137
 30
0.0
 11
248.46325948232149
 21
330.57294102618312
 31
0.0
  0
LINE
  5
161FD
  8
KI1
 10
248.34704813242249
 20
330.97968075083207
 30
0.0
 11
248.34704813242249
 21
331.60574400564218
 31
0.0
  0
LINE
  5
161FE
  8
KI1
 10
248.46325948232149
 20
330.57294102618312
 30
0.0
 11
248.34704813242249
 21
330.97968075083207
 31
0.0
  0
ARC
  5
161FF
  8
KI1
 10
248.90085580710999
 20
330.49735811687492
 30
0.0
 40
0.4999999937576218
 50
325.00799560546392
 51
15.94499206543477
  0
LINE
  5
16200
  8
KI1
 10
249.3470390817229
 20
331.00574400564102
 30
0.0
 11
249.3470390817229
 21
330.90574148705701
 31
0.0
  0
ARC
  5
16201
  8
KI1
 10
249.9470390817219
 20
331.00574400564102
 30
0.0
 40
0.6
 50
90.0
 51
180.0
  0
LINE
  5
16203
  8
KI1
 10
251.8470416945683
 20
333.10573902738793
 30
0.0
 11
253.34704169456839
 21
331.84708958062203
 31
0.0
  0
LINE
  5
16204
  8
KI1
 10
250.84703410346859
 20
332.80573902738729
 30
0.0
 11
250.84703410346859
 21
331.60574400564218
 31
0.0
  0
LINE
  5
16205
  8
KI1
 10
251.14703410346871
 20
333.10573902738793
 30
0.0
 11
251.8470466374738
 21
333.10573902738793
 31
0.0
  0
ARC
  5
16206
  8
KI1
 10
251.14703410346871
 20
332.80573902738729
 30
0.0
 40
0.3
 50
90.0
 51
180.0
  0
LINE
  5
16207
  8
KI1
 10
250.64703816413251
 20
331.60574400564218
 30
0.0
 11
250.64703816413251
 21
332.80573652058609
 31
0.0
  0
LINE
  5
16209
  8
KI1
 10
259.04704169456818
 20
333.10573902738793
 30
0.0
 11
257.54704169456818
 21
331.84708958062203
 31
0.0
  0
ARC
  5
1620A
  8
KI1
 10
259.24704169456851
 20
331.05436656175812
 30
0.0
 40
0.5
 50
129.9999999999863
 51
180.0
  0
LINE
  5
1620B
  8
KI1
 10
259.3443972879777
 20
331.78876124894742
 30
0.0
 11
258.92564788972589
 21
331.43738878331692
 31
0.0
  0
ARC
  5
1620C
  8
KI1
 10
259.66579109282151
 20
331.40573902738771
 30
0.0
 40
0.5
 50
90.0
 51
129.9999999999863
  0
LINE
  5
1620D
  8
KI1
 10
260.12158598574069
 20
331.9057390273872
 30
0.0
 11
259.66579109282151
 21
331.9057390273872
 31
0.0
  0
ARC
  5
1620E
  8
KI1
 10
260.12158598574069
 20
331.40573902738771
 30
0.0
 40
0.5
 50
49.599994483982563
 51
90.0
  0
LINE
  5
16210
  8
KI1
 10
259.0470367516636
 20
333.10573902738793
 30
0.0
 11
260.74706429112672
 21
333.10573902738793
 31
0.0
  0
LINE
  5
16212
  8
KI1
 10
227.1970816945659
 20
125.5830310987441
 30
0.0
 11
247.69708169456729
 21
125.5830310987441
 31
0.0
  0
LINE
  5
16213
  8
KI1
 10
225.99708169456611
 20
126.8830310987443
 30
0.0
 11
248.89708169456711
 21
126.8830310987443
 31
0.0
  0
LINE
  5
16214
  8
KI1
 10
191.1970816945659
 20
125.5830310987441
 30
0.0
 11
211.69708169456729
 21
125.5830310987441
 31
0.0
  0
LINE
  5
16215
  8
KI1
 10
189.99708169456611
 20
126.8830310987443
 30
0.0
 11
212.89708169456711
 21
126.8830310987443
 31
0.0
  0
LINE
  5
16216
  8
KI1
 10
177.24708169456699
 20
112.98303109874369
 30
0.0
 11
177.24708169456721
 21
124.8830310987438
 31
0.0
  0
LINE
  5
16217
  8
KI1
 10
176.1970816945672
 20
124.8830310987438
 30
0.0
 11
177.24708169456721
 21
124.8830310987438
 31
0.0
  0
LINE
  5
16218
  8
KI1
 10
189.99708169456611
 20
126.0830310987441
 30
0.0
 11
188.9470816945672
 21
126.0830310987441
 31
0.0
  0
LINE
  5
16219
  8
KI1
 10
188.0470816945662
 20
120.47322529418
 30
0.0
 11
188.4470816945672
 21
121.1730310987443
 31
0.0
  0
LINE
  5
1621A
  8
KI1
 10
189.64708169456699
 20
112.98303109874369
 30
0.0
 11
189.64708169456699
 21
124.8830310987438
 31
0.0
  0
ARC
  5
1621B
  8
KI1
 10
188.54708168661409
 20
120.4731361198953
 30
0.0
 40
0.5000000000001135
 50
179.9897813795902
 51
258.46304189731683
  0
ARC
  5
1621C
  8
KI1
 10
189.24708169456699
 20
112.98303109874369
 30
0.0
 40
0.39999999999921
 50
180.0
 51
0.0
  0
LINE
  5
1621D
  8
KI1
 10
188.4470816945672
 20
114.183031098744
 30
0.0
 11
188.4470816945672
 21
119.98323816971489
 31
0.0
  0
LINE
  5
1621E
  8
KI1
 10
188.4470816945672
 20
121.1730310987443
 30
0.0
 11
188.4470816945672
 21
125.5830310987441
 31
0.0
  0
LINE
  5
1621F
  8
KI1
 10
191.1970816945659
 20
125.3830310987443
 30
0.0
 11
191.1970816945659
 21
125.5830310987441
 31
0.0
  0
LINE
  5
16220
  8
KI1
 10
189.64708169456699
 20
124.8830310987438
 30
0.0
 11
190.69708169456629
 21
124.8830310987438
 31
0.0
  0
ARC
  5
16221
  8
KI1
 10
190.69708169456629
 20
125.3830310987443
 30
0.0
 40
0.5000000000000993
 50
270.0
 51
0.0
  0
ARC
  5
16222
  8
KI1
 10
183.4470816945668
 20
114.3830310987438
 30
0.0
 40
0.4999999999992742
 50
203.57817847820709
 51
336.4218215218512
  0
LINE
  5
16223
  8
KI1
 10
183.905339264063
 20
114.183031098744
 30
0.0
 11
188.4470816945672
 21
114.183031098744
 31
0.0
  0
ARC
  5
16224
  8
KI1
 10
188.9470816945672
 20
125.5830310987441
 30
0.0
 40
0.5000000000000993
 50
90.0
 51
180.0
  0
LINE
  5
16225
  8
KI1
 10
189.99708169456611
 20
126.8830310987443
 30
0.0
 11
189.99708169456611
 21
126.0830310987441
 31
0.0
  0
LINE
  5
16226
  8
KI1
 10
169.4470816945672
 20
126.8830310987443
 30
0.0
 11
176.89708169456711
 21
126.8830310987443
 31
0.0
  0
LINE
  5
16227
  8
KI1
 10
177.9470816945672
 20
126.0830310987441
 30
0.0
 11
176.89708169456711
 21
126.0830310987441
 31
0.0
  0
LINE
  5
16228
  8
KI1
 10
178.4470816945659
 20
121.1730310987443
 30
0.0
 11
178.8470816945669
 21
120.47322529418
 31
0.0
  0
ARC
  5
16229
  8
KI1
 10
178.34708170251901
 20
120.4731361198953
 30
0.0
 40
0.500000000000056
 50
281.53695810268312
 51
0.0102186204097569
  0
ARC
  5
1622A
  8
KI1
 10
177.64708169456711
 20
112.98303109874369
 30
0.0
 40
0.3999999999998492
 50
180.0
 51
0.0
  0
LINE
  5
1622B
  8
KI1
 10
178.4470816945672
 20
114.183031098744
 30
0.0
 11
178.4470816945659
 21
119.98323816971489
 31
0.0
  0
LINE
  5
1622C
  8
KI1
 10
178.4470816945659
 20
121.1730310987443
 30
0.0
 11
178.4470816945672
 21
125.5830310987441
 31
0.0
  0
LINE
  5
1622D
  8
KI1
 10
175.6970816945672
 20
125.5830310987441
 30
0.0
 11
175.6970816945672
 21
125.3830310987443
 31
0.0
  0
ARC
  5
1622E
  8
KI1
 10
176.1970816945672
 20
125.3830310987443
 30
0.0
 40
0.5000000000000142
 50
180.0
 51
270.0
  0
ARC
  5
1622F
  8
KI1
 10
177.9470816945672
 20
125.5830310987441
 30
0.0
 40
0.5000000000000142
 50
0.0
 51
90.0
  0
LINE
  5
16230
  8
KI1
 10
169.71187086582901
 20
125.5830310987441
 30
0.0
 11
171.9470816945672
 21
125.5830310987441
 31
0.0
  0
LINE
  5
16231
  8
KI1
 10
172.9470816945682
 20
125.5830310987441
 30
0.0
 11
172.9470816945682
 21
124.5830310987441
 31
0.0
  0
LINE
  5
16232
  8
KI1
 10
171.9470816945682
 20
124.5830310987441
 30
0.0
 11
171.9470816945672
 21
125.5830310987441
 31
0.0
  0
ARC
  5
16233
  8
KI1
 10
172.44708169456811
 20
124.5830310987441
 30
0.0
 40
0.5000000000000142
 50
180.0
 51
0.0
  0
LINE
  5
16234
  8
KI1
 10
172.9470816945682
 20
125.5830310987441
 30
0.0
 11
175.6970816945672
 21
125.5830310987441
 31
0.0
  0
LINE
  5
16235
  8
KI1
 10
165.4470816945668
 20
124.2830310987439
 30
0.0
 11
166.65304733641909
 21
124.2830310987439
 31
0.0
  0
LINE
  5
16236
  8
KI1
 10
165.4470816945668
 20
124.2830310987439
 30
0.0
 11
165.4470816945668
 21
125.183031098744
 31
0.0
  0
LINE
  5
16237
  8
KI1
 10
169.71187086582901
 20
125.5830310987441
 30
0.0
 11
166.65304733641909
 21
124.2830310987439
 31
0.0
  0
LINE
  5
16238
  8
KI1
 10
176.89708169456711
 20
126.0830310987441
 30
0.0
 11
176.89708169456711
 21
126.8830310987443
 31
0.0
  0
LINE
  5
16239
  8
KI1
 10
165.4470816945668
 20
125.183031098744
 30
0.0
 11
169.4470816945672
 21
126.8830310987443
 31
0.0
  0
LINE
  5
1623A
  8
KI1
 10
178.4470816945672
 20
114.183031098744
 30
0.0
 11
182.98882412507189
 21
114.183031098744
 31
0.0
  0
LINE
  5
1623B
  8
KI1
 10
178.0470816945672
 20
112.98303109874369
 30
0.0
 11
188.8470816945682
 21
112.98303109874369
 31
0.0
  0
LINE
  5
1623C
  8
KI1
 10
225.6470566945672
 20
124.8830310987439
 30
0.0
 11
225.6470566945672
 21
112.97855903266201
 31
0.0
  0
LINE
  5
1623D
  8
KI1
 10
225.6470566945672
 20
124.8830310987439
 30
0.0
 11
226.69708169456641
 21
124.8830310987438
 31
0.0
  0
LINE
  5
1623E
  8
KI1
 10
225.99708169456611
 20
126.0830310987441
 30
0.0
 11
224.9470816945672
 21
126.0830310987441
 31
0.0
  0
LINE
  5
1623F
  8
KI1
 10
224.04708169456629
 20
120.47322529418
 30
0.0
 11
224.44708169456729
 21
121.1730310987443
 31
0.0
  0
ARC
  5
16240
  8
KI1
 10
224.54708168661409
 20
120.4731361198953
 30
0.0
 40
0.5000000000001135
 50
179.9897813795902
 51
258.46304189731683
  0
ARC
  5
16241
  8
KI1
 10
225.24708169456699
 20
112.98303109874369
 30
0.0
 40
0.39999999999921
 50
180.0
 51
0.0
  0
LINE
  5
16242
  8
KI1
 10
224.44708169456729
 20
114.183031098744
 30
0.0
 11
224.44708169456729
 21
119.98323816971489
 31
0.0
  0
LINE
  5
16243
  8
KI1
 10
224.44708169456729
 20
121.1730310987443
 30
0.0
 11
224.44708169456729
 21
125.5830310987441
 31
0.0
  0
LINE
  5
16244
  8
KI1
 10
227.1970816945659
 20
125.3830310987443
 30
0.0
 11
227.1970816945659
 21
125.5830310987441
 31
0.0
  0
ARC
  5
16245
  8
KI1
 10
226.69708169456641
 20
125.3830310987443
 30
0.0
 40
0.5000000000000993
 50
270.0
 51
0.0
  0
ARC
  5
16246
  8
KI1
 10
224.9470816945672
 20
125.5830310987441
 30
0.0
 40
0.5000000000000993
 50
90.0
 51
180.0
  0
ARC
  5
16247
  8
KI1
 10
219.4470816945668
 20
114.3830310987438
 30
0.0
 40
0.4999999999992742
 50
203.57817847820709
 51
336.4218215218512
  0
LINE
  5
16248
  8
KI1
 10
219.90533926406309
 20
114.183031098744
 30
0.0
 11
224.44708169456729
 21
114.183031098744
 31
0.0
  0
LINE
  5
16249
  8
KI1
 10
213.94708169456729
 20
126.0830310987441
 30
0.0
 11
212.89708169456711
 21
126.0830310987441
 31
0.0
  0
LINE
  5
1624A
  8
KI1
 10
214.4470816945672
 20
121.1730310987443
 30
0.0
 11
214.8470816945669
 21
120.47322529418
 31
0.0
  0
LINE
  5
1624B
  8
KI1
 10
213.24708169456699
 20
112.98303109874369
 30
0.0
 11
213.24708169456699
 21
124.8830310987438
 31
0.0
  0
ARC
  5
1624C
  8
KI1
 10
214.34708170251909
 20
120.4731361198953
 30
0.0
 40
0.5000000000002347
 50
281.53695810278953
 51
0.0102186204097569
  0
ARC
  5
1624D
  8
KI1
 10
213.64708169456711
 20
112.98303109874369
 30
0.0
 40
0.3999999999998492
 50
180.0
 51
0.0
  0
LINE
  5
1624E
  8
KI1
 10
214.4470816945672
 20
114.183031098744
 30
0.0
 11
214.4470816945672
 21
119.98323816971489
 31
0.0
  0
LINE
  5
1624F
  8
KI1
 10
214.4470816945672
 20
121.1730310987443
 30
0.0
 11
214.4470816945672
 21
125.5830310987441
 31
0.0
  0
LINE
  5
16250
  8
KI1
 10
212.19708169456729
 20
124.8830310987438
 30
0.0
 11
213.24708169456699
 21
124.8830310987438
 31
0.0
  0
LINE
  5
16251
  8
KI1
 10
211.69708169456729
 20
125.5830310987441
 30
0.0
 11
211.69708169456729
 21
125.3830310987443
 31
0.0
  0
ARC
  5
16252
  8
KI1
 10
212.19708169456729
 20
125.3830310987443
 30
0.0
 40
0.5000000000000142
 50
180.0
 51
270.0
  0
ARC
  5
16253
  8
KI1
 10
213.94708169456729
 20
125.5830310987441
 30
0.0
 40
0.5000000000000142
 50
0.0
 51
90.0
  0
LINE
  5
16254
  8
KI1
 10
214.4470816945672
 20
114.183031098744
 30
0.0
 11
218.98882412507189
 21
114.183031098744
 31
0.0
  0
LINE
  5
16255
  8
KI1
 10
214.04708169456759
 20
112.98303109874369
 30
0.0
 11
224.84708169456829
 21
112.98303109874369
 31
0.0
  0
LINE
  5
16256
  8
KI1
 10
225.99708169456611
 20
126.8830310987443
 30
0.0
 11
225.99708169456611
 21
126.0830310987441
 31
0.0
  0
LINE
  5
16257
  8
KI1
 10
212.89708169456711
 20
126.0830310987441
 30
0.0
 11
212.89708169456711
 21
126.8830310987443
 31
0.0
  0
LINE
  5
16258
  8
KI1
 10
249.24708169456699
 20
112.98303109874369
 30
0.0
 11
249.24708169456699
 21
124.8830310987438
 31
0.0
  0
LINE
  5
16259
  8
KI1
 10
261.64705669456703
 20
124.8830310987439
 30
0.0
 11
261.64705669456731
 21
112.97855903266201
 31
0.0
  0
LINE
  5
1625A
  8
KI1
 10
261.64705669456703
 20
124.8830310987439
 30
0.0
 11
262.69708169456641
 21
124.8830310987438
 31
0.0
  0
LINE
  5
1625B
  8
KI1
 10
273.4470816945668
 20
125.183031098744
 30
0.0
 11
273.4470816945668
 21
124.2830310987439
 31
0.0
  0
LINE
  5
1625C
  8
KI1
 10
272.24111605271628
 20
124.2830310987439
 30
0.0
 11
273.4470816945668
 21
124.2830310987439
 31
0.0
  0
LINE
  5
1625D
  8
KI1
 10
266.9470816945672
 20
124.5830310987441
 30
0.0
 11
266.9470816945672
 21
125.5830310987441
 31
0.0
  0
LINE
  5
1625E
  8
KI1
 10
266.9470816945672
 20
125.5830310987441
 30
0.0
 11
269.18229252330411
 21
125.5830310987441
 31
0.0
  0
LINE
  5
1625F
  8
KI1
 10
269.18229252330411
 20
125.5830310987441
 30
0.0
 11
272.24111605271628
 21
124.2830310987439
 31
0.0
  0
LINE
  5
16260
  8
KI1
 10
269.44708169456732
 20
126.8830310987443
 30
0.0
 11
273.4470816945668
 21
125.183031098744
 31
0.0
  0
LINE
  5
16261
  8
KI1
 10
265.9470816945668
 20
125.5830310987441
 30
0.0
 11
265.9470816945668
 21
124.5830310987441
 31
0.0
  0
LINE
  5
16262
  8
KI1
 10
261.99708169456608
 20
126.0830310987441
 30
0.0
 11
260.94708169456732
 21
126.0830310987441
 31
0.0
  0
LINE
  5
16263
  8
KI1
 10
260.04708169456632
 20
120.47322529418
 30
0.0
 11
260.4470816945672
 21
121.1730310987443
 31
0.0
  0
ARC
  5
16264
  8
KI1
 10
260.54708168661409
 20
120.4731361198953
 30
0.0
 40
0.5000000000001135
 50
179.9897813795902
 51
258.46304189731683
  0
ARC
  5
16265
  8
KI1
 10
261.24708169456699
 20
112.98303109874369
 30
0.0
 40
0.39999999999921
 50
180.0
 51
0.0
  0
LINE
  5
16266
  8
KI1
 10
260.4470816945672
 20
114.183031098744
 30
0.0
 11
260.4470816945672
 21
119.98323816971489
 31
0.0
  0
LINE
  5
16267
  8
KI1
 10
263.1970816945659
 20
125.3830310987443
 30
0.0
 11
263.1970816945659
 21
125.5830310987441
 31
0.0
  0
ARC
  5
16268
  8
KI1
 10
262.69708169456641
 20
125.3830310987443
 30
0.0
 40
0.5000000000000993
 50
270.0
 51
0.0
  0
LINE
  5
16269
  8
KI1
 10
260.4470816945672
 20
121.1730310987443
 30
0.0
 11
260.4470816945672
 21
125.5830310987441
 31
0.0
  0
ARC
  5
1626A
  8
KI1
 10
255.4470816945668
 20
114.3830310987438
 30
0.0
 40
0.4999999999992742
 50
203.57817847820709
 51
336.4218215218512
  0
LINE
  5
1626B
  8
KI1
 10
255.90533926406309
 20
114.183031098744
 30
0.0
 11
260.4470816945672
 21
114.183031098744
 31
0.0
  0
ARC
  5
1626C
  8
KI1
 10
260.94708169456732
 20
125.5830310987441
 30
0.0
 40
0.5000000000000993
 50
90.0
 51
180.0
  0
LINE
  5
1626D
  8
KI1
 10
263.1970816945659
 20
125.5830310987441
 30
0.0
 11
265.9470816945668
 21
125.5830310987441
 31
0.0
  0
LINE
  5
1626E
  8
KI1
 10
261.99708169456608
 20
126.8830310987443
 30
0.0
 11
261.99708169456608
 21
126.0830310987441
 31
0.0
  0
LINE
  5
1626F
  8
KI1
 10
249.9470816945672
 20
126.0830310987441
 30
0.0
 11
248.89708169456711
 21
126.0830310987441
 31
0.0
  0
LINE
  5
16270
  8
KI1
 10
250.44708169456729
 20
121.1730310987443
 30
0.0
 11
250.8470816945669
 21
120.47322529418
 31
0.0
  0
ARC
  5
16271
  8
KI1
 10
250.34708170251909
 20
120.4731361198953
 30
0.0
 40
0.5000000000002347
 50
281.53695810278953
 51
0.0102186204097569
  0
ARC
  5
16272
  8
KI1
 10
249.64708169456711
 20
112.98303109874369
 30
0.0
 40
0.3999999999998492
 50
180.0
 51
0.0
  0
LINE
  5
16273
  8
KI1
 10
250.44708169456729
 20
114.183031098744
 30
0.0
 11
250.44708169456729
 21
119.98323816971489
 31
0.0
  0
LINE
  5
16274
  8
KI1
 10
248.1970816945672
 20
124.8830310987438
 30
0.0
 11
249.24708169456699
 21
124.8830310987438
 31
0.0
  0
LINE
  5
16275
  8
KI1
 10
250.44708169456729
 20
121.1730310987443
 30
0.0
 11
250.44708169456729
 21
125.5830310987441
 31
0.0
  0
LINE
  5
16276
  8
KI1
 10
247.69708169456729
 20
125.5830310987441
 30
0.0
 11
247.69708169456729
 21
125.3830310987443
 31
0.0
  0
ARC
  5
16277
  8
KI1
 10
248.1970816945672
 20
125.3830310987443
 30
0.0
 40
0.5000000000000142
 50
180.0
 51
270.0
  0
ARC
  5
16278
  8
KI1
 10
249.9470816945672
 20
125.5830310987441
 30
0.0
 40
0.5000000000000142
 50
0.0
 51
90.0
  0
LINE
  5
16279
  8
KI1
 10
248.89708169456711
 20
126.0830310987441
 30
0.0
 11
248.89708169456711
 21
126.8830310987443
 31
0.0
  0
LINE
  5
1627A
  8
KI1
 10
250.44708169456729
 20
114.183031098744
 30
0.0
 11
254.98882412507189
 21
114.183031098744
 31
0.0
  0
LINE
  5
1627B
  8
KI1
 10
250.04708169456759
 20
112.98303109874369
 30
0.0
 11
260.84708169456832
 21
112.98303109874369
 31
0.0
  0
LINE
  5
1627C
  8
KI1
 10
261.99708169456608
 20
126.8830310987443
 30
0.0
 11
269.44708169456732
 21
126.8830310987443
 31
0.0
  0
ARC
  5
1627D
  8
KI1
 10
266.44708169456732
 20
124.5830310987441
 30
0.0
 40
0.4999999999999716
 50
180.0
 51
0.0
  0
LINE
  5
1627E
  8
KI2
 10
214.84708169456729
 20
126.0830310987441
 30
0.0
 11
215.84708169456741
 21
126.0830310987441
 31
0.0
  0
LINE
  5
1627F
  8
KI2
 10
215.94708169456729
 20
118.98303109874411
 30
0.0
 11
214.84708169456729
 21
122.0230310987442
 31
0.0
  0
LINE
  5
16280
  8
KI2
 10
215.24708169456721
 20
116.0830310987441
 30
0.0
 11
215.94708169456729
 21
116.0830310987441
 31
0.0
  0
LINE
  5
16281
  8
KI2
 10
215.94708169456729
 20
117.5830310987441
 30
0.0
 11
215.34708169456741
 21
116.8830310987441
 31
0.0
  0
ARC
  5
16282
  8
KI2
 10
214.84708169456729
 20
125.7830310987442
 30
0.0
 40
0.3
 50
90.0
 51
180.0
  0
LINE
  5
16283
  8
KI2
 10
214.5470816945674
 20
122.3830310987441
 30
0.0
 11
214.84708169456729
 21
122.0230310987442
 31
0.0
  0
LINE
  5
16284
  8
KI2
 10
214.74708169456721
 20
116.8830310987441
 30
0.0
 11
214.74708169456721
 21
116.5830310987441
 31
0.0
  0
ARC
  5
16285
  8
KI2
 10
215.24708169456721
 20
116.5830310987441
 30
0.0
 40
0.5
 50
180.0
 51
270.0
  0
LINE
  5
16286
  8
KI2
 10
214.74708169456721
 20
116.8830310987441
 30
0.0
 11
215.34708169456741
 21
116.8830310987441
 31
0.0
  0
LINE
  5
16287
  8
KI2
 10
214.5470816945674
 20
125.7830310987442
 30
0.0
 11
214.5470816945674
 21
122.3830310987441
 31
0.0
  0
ARC
  5
16288
  8
KI2
 10
224.0470816945674
 20
125.7830310987442
 30
0.0
 40
0.3
 50
0.0
 51
90.0
  0
ARC
  5
16289
  8
KI2
 10
221.84708169456741
 20
124.68448935453171
 30
0.0
 40
0.3
 50
130.00000000000179
 51
180.0
  0
LINE
  5
1628A
  8
KI2
 10
221.65424541166141
 20
124.9143026874674
 30
0.0
 11
223.0470816945674
 21
126.0830310987441
 31
0.0
  0
LINE
  5
1628B
  8
KI2
 10
224.0470816945674
 20
126.0830310987441
 30
0.0
 11
223.0470816945674
 21
126.0830310987441
 31
0.0
  0
LINE
  5
1628C
  8
KI2
 10
224.34708169456741
 20
122.3830310987441
 30
0.0
 11
224.0470816945674
 21
122.0230310987442
 31
0.0
  0
ARC
  5
1628D
  8
KI2
 10
221.64708169456731
 20
122.3330310987442
 30
0.0
 40
0.75
 50
270.0
 51
90.0
  0
LINE
  5
1628E
  8
KI2
 10
221.59864725830471
 20
121.2830310987442
 30
0.0
 11
221.59864725830471
 21
121.5830310987442
 31
0.0
  0
LINE
  5
1628F
  8
KI2
 10
221.59864725830471
 20
121.5830310987442
 30
0.0
 11
221.64708169456731
 21
121.5830310987442
 31
0.0
  0
LINE
  5
16290
  8
KI2
 10
221.64708169456731
 20
123.0830310987442
 30
0.0
 11
221.5470816945674
 21
123.0830310987442
 31
0.0
  0
LINE
  5
16291
  8
KI2
 10
222.9470816945672
 20
118.98303109874411
 30
0.0
 11
222.9470816945672
 21
117.5830310987441
 31
0.0
  0
POINT
  5
16292
  8
KI2
 10
222.9470816945672
 20
118.46894282592849
 30
0.0
  0
LINE
  5
16293
  8
KI2
 10
222.9470816945672
 20
118.98303109874411
 30
0.0
 11
224.0470816945674
 21
122.0230310987442
 31
0.0
  0
ARC
  5
16294
  8
KI2
 10
221.09864725830471
 20
121.2830310987442
 30
0.0
 40
0.5
 50
270.0
 51
0.0
  0
LINE
  5
16295
  8
KI2
 10
224.14708169456731
 20
116.8830310987441
 30
0.0
 11
224.14708169456731
 21
116.5830310987441
 31
0.0
  0
LINE
  5
16296
  8
KI2
 10
223.64708169456731
 20
116.0830310987441
 30
0.0
 11
222.9470816945672
 21
116.0830310987441
 31
0.0
  0
LINE
  5
16297
  8
KI2
 10
222.64708169456731
 20
116.3830310987441
 30
0.0
 11
222.9470816945672
 21
116.0830310987441
 31
0.0
  0
LINE
  5
16298
  8
KI2
 10
220.19708169456729
 20
117.0830310987441
 30
0.0
 11
220.6970816945672
 21
116.3830310987441
 31
0.0
  0
LINE
  5
16299
  8
KI2
 10
222.64708169456731
 20
116.3830310987441
 30
0.0
 11
220.6970816945672
 21
116.3830310987441
 31
0.0
  0
ARC
  5
1629A
  8
KI2
 10
223.64708169456731
 20
116.5830310987441
 30
0.0
 40
0.5
 50
270.0
 51
0.0
  0
LINE
  5
1629B
  8
KI2
 10
224.14708169456731
 20
116.8830310987441
 30
0.0
 11
223.5470816945674
 21
116.8830310987441
 31
0.0
  0
LINE
  5
1629C
  8
KI2
 10
222.9470816945672
 20
117.5830310987441
 30
0.0
 11
223.5470816945674
 21
116.8830310987441
 31
0.0
  0
LINE
  5
1629D
  8
KI2
 10
224.34708169456741
 20
125.7830310987442
 30
0.0
 11
224.34708169456741
 21
122.3830310987441
 31
0.0
  0
LINE
  5
1629E
  8
KI2
 10
221.5470816945674
 20
124.68448935453171
 30
0.0
 11
221.5470816945674
 21
123.0830310987442
 31
0.0
  0
ARC
  5
1629F
  8
KI2
 10
217.0470816945674
 20
124.68448935453171
 30
0.0
 40
0.3
 50
0.0
 51
49.99999999999811
  0
LINE
  5
162A0
  8
KI2
 10
217.2399179774732
 20
124.9143026874674
 30
0.0
 11
215.84708169456709
 21
126.0830310987441
 31
0.0
  0
ARC
  5
162A1
  8
KI2
 10
217.24708169456721
 20
122.3330310987442
 30
0.0
 40
0.75
 50
90.0
 51
270.0
  0
LINE
  5
162A2
  8
KI2
 10
217.29551613083001
 20
121.2830310987442
 30
0.0
 11
217.29551613083001
 21
121.5830310987442
 31
0.0
  0
LINE
  5
162A3
  8
KI2
 10
217.29551613083001
 20
121.5830310987442
 30
0.0
 11
217.24708169456721
 21
121.5830310987442
 31
0.0
  0
LINE
  5
162A4
  8
KI2
 10
217.24708169456721
 20
123.0830310987442
 30
0.0
 11
217.34708169456729
 21
123.0830310987442
 31
0.0
  0
ARC
  5
162A5
  8
KI2
 10
219.44708169456729
 20
120.7830310987441
 30
0.0
 40
0.3
 50
270.0
 51
0.0
  0
LINE
  5
162A6
  8
KI2
 10
215.94708169456729
 20
118.98303109874411
 30
0.0
 11
215.94708169456729
 21
117.5830310987441
 31
0.0
  0
LINE
  5
162A7
  8
KI2
 10
217.79551613083001
 20
120.7830310987441
 30
0.0
 11
219.14708169456731
 21
120.7830310987441
 31
0.0
  0
POINT
  5
162A8
  8
KI2
 10
215.94708169456729
 20
118.46894282592849
 30
0.0
  0
ARC
  5
162A9
  8
KI2
 10
219.44708169456729
 20
120.7830310987441
 30
0.0
 40
0.3
 50
180.0
 51
270.0
  0
ARC
  5
162AA
  8
KI2
 10
217.79551613083001
 20
121.2830310987442
 30
0.0
 40
0.5
 50
180.0
 51
270.0
  0
LINE
  5
162AB
  8
KI2
 10
216.24708169456721
 20
116.3830310987441
 30
0.0
 11
218.19708169456729
 21
116.3830310987441
 31
0.0
  0
LINE
  5
162AC
  8
KI2
 10
216.24708169456721
 20
116.3830310987441
 30
0.0
 11
215.94708169456729
 21
116.0830310987441
 31
0.0
  0
LINE
  5
162AD
  8
KI2
 10
218.6970816945672
 20
117.0830310987441
 30
0.0
 11
218.19708169456729
 21
116.3830310987441
 31
0.0
  0
LINE
  5
162AE
  8
KI2
 10
219.14708169456731
 20
117.0830310987441
 30
0.0
 11
218.6970816945672
 21
117.0830310987441
 31
0.0
  0
ARC
  5
162AF
  8
KI2
 10
219.44708169456729
 20
117.0830310987441
 30
0.0
 40
0.3
 50
0.0
 51
90.0
  0
ARC
  5
162B0
  8
KI2
 10
219.44708169456729
 20
117.0830310987441
 30
0.0
 40
0.3
 50
90.0
 51
180.0
  0
LINE
  5
162B1
  8
KI2
 10
217.34708169456729
 20
124.68448935453171
 30
0.0
 11
217.34708169456729
 21
123.0830310987442
 31
0.0
  0
LINE
  5
162B2
  8
KI2
 10
219.74708169456721
 20
117.0830310987441
 30
0.0
 11
220.19708169456729
 21
117.0830310987441
 31
0.0
  0
LINE
  5
162B3
  8
KI2
 10
221.09864725830471
 20
120.7830310987441
 30
0.0
 11
219.74708169456721
 21
120.7830310987441
 31
0.0
  0
LINE
  5
162B4
  8
KI2
 10
178.84708169456729
 20
126.0830310987441
 30
0.0
 11
179.84708169456729
 21
126.0830310987441
 31
0.0
  0
LINE
  5
162B5
  8
KI2
 10
179.9470816945672
 20
118.98303109874411
 30
0.0
 11
178.84708169456729
 21
122.0230310987442
 31
0.0
  0
LINE
  5
162B6
  8
KI2
 10
179.24708169456721
 20
116.0830310987441
 30
0.0
 11
179.9470816945672
 21
116.0830310987441
 31
0.0
  0
LINE
  5
162B7
  8
KI2
 10
179.9470816945672
 20
117.5830310987441
 30
0.0
 11
179.34708169456729
 21
116.8830310987441
 31
0.0
  0
ARC
  5
162B8
  8
KI2
 10
178.84708169456729
 20
125.7830310987442
 30
0.0
 40
0.3
 50
90.0
 51
180.0
  0
LINE
  5
162B9
  8
KI2
 10
178.5470816945674
 20
122.3830310987441
 30
0.0
 11
178.84708169456729
 21
122.0230310987442
 31
0.0
  0
LINE
  5
162BA
  8
KI2
 10
178.74708169456721
 20
116.8830310987441
 30
0.0
 11
178.74708169456721
 21
116.5830310987441
 31
0.0
  0
ARC
  5
162BB
  8
KI2
 10
179.24708169456721
 20
116.5830310987441
 30
0.0
 40
0.5
 50
180.0
 51
270.0
  0
LINE
  5
162BC
  8
KI2
 10
178.74708169456721
 20
116.8830310987441
 30
0.0
 11
179.34708169456729
 21
116.8830310987441
 31
0.0
  0
LINE
  5
162BD
  8
KI2
 10
178.5470816945674
 20
125.7830310987442
 30
0.0
 11
178.5470816945674
 21
122.3830310987441
 31
0.0
  0
ARC
  5
162BE
  8
KI2
 10
188.0470816945674
 20
125.7830310987442
 30
0.0
 40
0.3
 50
0.0
 51
90.0
  0
ARC
  5
162BF
  8
KI2
 10
185.84708169456729
 20
124.68448935453171
 30
0.0
 40
0.3
 50
130.00000000000179
 51
180.0
  0
LINE
  5
162C0
  8
KI2
 10
185.65424541166129
 20
124.9143026874674
 30
0.0
 11
187.0470816945674
 21
126.0830310987441
 31
0.0
  0
LINE
  5
162C1
  8
KI2
 10
188.0470816945674
 20
126.0830310987441
 30
0.0
 11
187.0470816945674
 21
126.0830310987441
 31
0.0
  0
LINE
  5
162C2
  8
KI2
 10
188.34708169456729
 20
122.3830310987441
 30
0.0
 11
188.0470816945674
 21
122.0230310987442
 31
0.0
  0
ARC
  5
162C3
  8
KI2
 10
185.64708169456731
 20
122.3330310987442
 30
0.0
 40
0.75
 50
270.0
 51
90.0
  0
LINE
  5
162C4
  8
KI2
 10
185.59864725830471
 20
121.2830310987442
 30
0.0
 11
185.59864725830471
 21
121.5830310987442
 31
0.0
  0
LINE
  5
162C5
  8
KI2
 10
185.59864725830471
 20
121.5830310987442
 30
0.0
 11
185.64708169456731
 21
121.5830310987442
 31
0.0
  0
LINE
  5
162C6
  8
KI2
 10
185.64708169456731
 20
123.0830310987442
 30
0.0
 11
185.5470816945674
 21
123.0830310987442
 31
0.0
  0
LINE
  5
162C7
  8
KI2
 10
186.9470816945672
 20
118.98303109874411
 30
0.0
 11
186.9470816945672
 21
117.5830310987441
 31
0.0
  0
POINT
  5
162C8
  8
KI2
 10
186.9470816945672
 20
118.46894282592849
 30
0.0
  0
LINE
  5
162C9
  8
KI2
 10
186.9470816945672
 20
118.98303109874411
 30
0.0
 11
188.0470816945674
 21
122.0230310987442
 31
0.0
  0
ARC
  5
162CA
  8
KI2
 10
185.09864725830471
 20
121.2830310987442
 30
0.0
 40
0.5
 50
270.0
 51
0.0
  0
LINE
  5
162CB
  8
KI2
 10
188.14708169456731
 20
116.8830310987441
 30
0.0
 11
188.14708169456731
 21
116.5830310987441
 31
0.0
  0
LINE
  5
162CC
  8
KI2
 10
187.64708169456731
 20
116.0830310987441
 30
0.0
 11
186.9470816945672
 21
116.0830310987441
 31
0.0
  0
LINE
  5
162CD
  8
KI2
 10
186.64708169456731
 20
116.3830310987441
 30
0.0
 11
186.9470816945672
 21
116.0830310987441
 31
0.0
  0
LINE
  5
162CE
  8
KI2
 10
184.1970816945672
 20
117.0830310987441
 30
0.0
 11
184.6970816945672
 21
116.3830310987441
 31
0.0
  0
LINE
  5
162CF
  8
KI2
 10
186.64708169456731
 20
116.3830310987441
 30
0.0
 11
184.6970816945672
 21
116.3830310987441
 31
0.0
  0
ARC
  5
162D0
  8
KI2
 10
187.64708169456731
 20
116.5830310987441
 30
0.0
 40
0.5
 50
270.0
 51
0.0
  0
LINE
  5
162D1
  8
KI2
 10
188.14708169456731
 20
116.8830310987441
 30
0.0
 11
187.5470816945674
 21
116.8830310987441
 31
0.0
  0
LINE
  5
162D2
  8
KI2
 10
186.9470816945672
 20
117.5830310987441
 30
0.0
 11
187.5470816945674
 21
116.8830310987441
 31
0.0
  0
LINE
  5
162D3
  8
KI2
 10
188.34708169456729
 20
125.7830310987442
 30
0.0
 11
188.34708169456729
 21
122.3830310987441
 31
0.0
  0
LINE
  5
162D4
  8
KI2
 10
185.5470816945674
 20
124.68448935453171
 30
0.0
 11
185.5470816945674
 21
123.0830310987442
 31
0.0
  0
ARC
  5
162D5
  8
KI2
 10
181.0470816945674
 20
124.68448935453171
 30
0.0
 40
0.3
 50
0.0
 51
49.99999999999811
  0
LINE
  5
162D6
  8
KI2
 10
181.23991797747311
 20
124.9143026874674
 30
0.0
 11
179.84708169456709
 21
126.0830310987441
 31
0.0
  0
ARC
  5
162D7
  8
KI2
 10
181.24708169456721
 20
122.3330310987442
 30
0.0
 40
0.75
 50
90.0
 51
270.0
  0
LINE
  5
162D8
  8
KI2
 10
181.29551613083001
 20
121.2830310987442
 30
0.0
 11
181.29551613083001
 21
121.5830310987442
 31
0.0
  0
LINE
  5
162D9
  8
KI2
 10
181.29551613083001
 20
121.5830310987442
 30
0.0
 11
181.24708169456721
 21
121.5830310987442
 31
0.0
  0
LINE
  5
162DA
  8
KI2
 10
181.24708169456721
 20
123.0830310987442
 30
0.0
 11
181.34708169456729
 21
123.0830310987442
 31
0.0
  0
ARC
  5
162DB
  8
KI2
 10
183.44708169456729
 20
120.7830310987441
 30
0.0
 40
0.3
 50
270.0
 51
0.0
  0
LINE
  5
162DC
  8
KI2
 10
179.9470816945672
 20
118.98303109874411
 30
0.0
 11
179.9470816945672
 21
117.5830310987441
 31
0.0
  0
LINE
  5
162DD
  8
KI2
 10
181.79551613083001
 20
120.7830310987441
 30
0.0
 11
183.14708169456731
 21
120.7830310987441
 31
0.0
  0
POINT
  5
162DE
  8
KI2
 10
179.9470816945672
 20
118.46894282592849
 30
0.0
  0
ARC
  5
162DF
  8
KI2
 10
183.44708169456729
 20
120.7830310987441
 30
0.0
 40
0.3
 50
180.0
 51
270.0
  0
ARC
  5
162E0
  8
KI2
 10
181.79551613083001
 20
121.2830310987442
 30
0.0
 40
0.5
 50
180.0
 51
270.0
  0
LINE
  5
162E1
  8
KI2
 10
180.24708169456721
 20
116.3830310987441
 30
0.0
 11
182.1970816945672
 21
116.3830310987441
 31
0.0
  0
LINE
  5
162E2
  8
KI2
 10
180.24708169456721
 20
116.3830310987441
 30
0.0
 11
179.9470816945672
 21
116.0830310987441
 31
0.0
  0
LINE
  5
162E3
  8
KI2
 10
182.6970816945672
 20
117.0830310987441
 30
0.0
 11
182.1970816945672
 21
116.3830310987441
 31
0.0
  0
LINE
  5
162E4
  8
KI2
 10
183.14708169456731
 20
117.0830310987441
 30
0.0
 11
182.6970816945672
 21
117.0830310987441
 31
0.0
  0
ARC
  5
162E5
  8
KI2
 10
183.44708169456729
 20
117.0830310987441
 30
0.0
 40
0.3
 50
0.0
 51
90.0
  0
ARC
  5
162E6
  8
KI2
 10
183.44708169456729
 20
117.0830310987441
 30
0.0
 40
0.3
 50
90.0
 51
180.0
  0
LINE
  5
162E7
  8
KI2
 10
181.34708169456729
 20
124.68448935453171
 30
0.0
 11
181.34708169456729
 21
123.0830310987442
 31
0.0
  0
LINE
  5
162E8
  8
KI2
 10
183.74708169456721
 20
117.0830310987441
 30
0.0
 11
184.1970816945672
 21
117.0830310987441
 31
0.0
  0
LINE
  5
162E9
  8
KI2
 10
185.09864725830471
 20
120.7830310987441
 30
0.0
 11
183.74708169456721
 21
120.7830310987441
 31
0.0
  0
LINE
  5
162EA
  8
KI2
 10
250.84708169456741
 20
126.0830310987441
 30
0.0
 11
251.84708169456729
 21
126.0830310987441
 31
0.0
  0
LINE
  5
162EB
  8
KI2
 10
251.9470816945672
 20
118.98303109874411
 30
0.0
 11
250.84708169456741
 21
122.0230310987442
 31
0.0
  0
LINE
  5
162EC
  8
KI2
 10
251.24708169456721
 20
116.0830310987441
 30
0.0
 11
251.9470816945672
 21
116.0830310987441
 31
0.0
  0
LINE
  5
162ED
  8
KI2
 10
251.9470816945672
 20
117.5830310987441
 30
0.0
 11
251.34708169456741
 21
116.8830310987441
 31
0.0
  0
ARC
  5
162EE
  8
KI2
 10
250.84708169456741
 20
125.7830310987442
 30
0.0
 40
0.3
 50
90.0
 51
180.0
  0
LINE
  5
162EF
  8
KI2
 10
250.5470816945674
 20
122.3830310987441
 30
0.0
 11
250.84708169456741
 21
122.0230310987442
 31
0.0
  0
LINE
  5
162F0
  8
KI2
 10
250.74708169456721
 20
116.8830310987441
 30
0.0
 11
250.74708169456721
 21
116.5830310987441
 31
0.0
  0
ARC
  5
162F1
  8
KI2
 10
251.24708169456721
 20
116.5830310987441
 30
0.0
 40
0.5
 50
180.0
 51
270.0
  0
LINE
  5
162F2
  8
KI2
 10
250.74708169456721
 20
116.8830310987441
 30
0.0
 11
251.34708169456741
 21
116.8830310987441
 31
0.0
  0
LINE
  5
162F3
  8
KI2
 10
250.5470816945674
 20
125.7830310987442
 30
0.0
 11
250.5470816945674
 21
122.3830310987441
 31
0.0
  0
ARC
  5
162F4
  8
KI2
 10
260.0470816945674
 20
125.7830310987442
 30
0.0
 40
0.3
 50
0.0
 51
90.0
  0
ARC
  5
162F5
  8
KI2
 10
257.84708169456741
 20
124.68448935453171
 30
0.0
 40
0.3
 50
130.00000000000179
 51
180.0
  0
LINE
  5
162F6
  8
KI2
 10
257.65424541166129
 20
124.9143026874674
 30
0.0
 11
259.0470816945674
 21
126.0830310987441
 31
0.0
  0
LINE
  5
162F7
  8
KI2
 10
260.0470816945674
 20
126.0830310987441
 30
0.0
 11
259.0470816945674
 21
126.0830310987441
 31
0.0
  0
LINE
  5
162F8
  8
KI2
 10
260.34708169456729
 20
122.3830310987441
 30
0.0
 11
260.0470816945674
 21
122.0230310987442
 31
0.0
  0
ARC
  5
162F9
  8
KI2
 10
257.64708169456731
 20
122.3330310987442
 30
0.0
 40
0.75
 50
270.0
 51
90.0
  0
LINE
  5
162FA
  8
KI2
 10
257.59864725830471
 20
121.2830310987442
 30
0.0
 11
257.59864725830471
 21
121.5830310987442
 31
0.0
  0
LINE
  5
162FB
  8
KI2
 10
257.59864725830471
 20
121.5830310987442
 30
0.0
 11
257.64708169456731
 21
121.5830310987442
 31
0.0
  0
LINE
  5
162FC
  8
KI2
 10
257.64708169456731
 20
123.0830310987442
 30
0.0
 11
257.5470816945674
 21
123.0830310987442
 31
0.0
  0
LINE
  5
162FD
  8
KI2
 10
258.94708169456732
 20
118.98303109874411
 30
0.0
 11
258.94708169456732
 21
117.5830310987441
 31
0.0
  0
POINT
  5
162FE
  8
KI2
 10
258.94708169456732
 20
118.46894282592849
 30
0.0
  0
LINE
  5
162FF
  8
KI2
 10
258.94708169456732
 20
118.98303109874411
 30
0.0
 11
260.0470816945674
 21
122.0230310987442
 31
0.0
  0
ARC
  5
16300
  8
KI2
 10
257.09864725830471
 20
121.2830310987442
 30
0.0
 40
0.5
 50
270.0
 51
0.0
  0
LINE
  5
16301
  8
KI2
 10
260.14708169456731
 20
116.8830310987441
 30
0.0
 11
260.14708169456731
 21
116.5830310987441
 31
0.0
  0
LINE
  5
16302
  8
KI2
 10
259.64708169456731
 20
116.0830310987441
 30
0.0
 11
258.94708169456732
 21
116.0830310987441
 31
0.0
  0
LINE
  5
16303
  8
KI2
 10
258.64708169456731
 20
116.3830310987441
 30
0.0
 11
258.94708169456732
 21
116.0830310987441
 31
0.0
  0
LINE
  5
16304
  8
KI2
 10
256.1970816945672
 20
117.0830310987441
 30
0.0
 11
256.69708169456732
 21
116.3830310987441
 31
0.0
  0
LINE
  5
16305
  8
KI2
 10
258.64708169456731
 20
116.3830310987441
 30
0.0
 11
256.69708169456732
 21
116.3830310987441
 31
0.0
  0
ARC
  5
16306
  8
KI2
 10
259.64708169456731
 20
116.5830310987441
 30
0.0
 40
0.5
 50
270.0
 51
0.0
  0
LINE
  5
16307
  8
KI2
 10
260.14708169456731
 20
116.8830310987441
 30
0.0
 11
259.5470816945674
 21
116.8830310987441
 31
0.0
  0
LINE
  5
16308
  8
KI2
 10
258.94708169456732
 20
117.5830310987441
 30
0.0
 11
259.5470816945674
 21
116.8830310987441
 31
0.0
  0
LINE
  5
16309
  8
KI2
 10
260.34708169456729
 20
125.7830310987442
 30
0.0
 11
260.34708169456729
 21
122.3830310987441
 31
0.0
  0
LINE
  5
1630A
  8
KI2
 10
257.5470816945674
 20
124.68448935453171
 30
0.0
 11
257.5470816945674
 21
123.0830310987442
 31
0.0
  0
ARC
  5
1630B
  8
KI2
 10
253.0470816945674
 20
124.68448935453171
 30
0.0
 40
0.3
 50
0.0
 51
49.99999999999811
  0
LINE
  5
1630C
  8
KI2
 10
253.2399179774732
 20
124.9143026874674
 30
0.0
 11
251.84708169456709
 21
126.0830310987441
 31
0.0
  0
ARC
  5
1630D
  8
KI2
 10
253.24708169456721
 20
122.3330310987442
 30
0.0
 40
0.75
 50
90.0
 51
270.0
  0
LINE
  5
1630E
  8
KI2
 10
253.29551613083001
 20
121.2830310987442
 30
0.0
 11
253.29551613083001
 21
121.5830310987442
 31
0.0
  0
LINE
  5
1630F
  8
KI2
 10
253.29551613083001
 20
121.5830310987442
 30
0.0
 11
253.24708169456721
 21
121.5830310987442
 31
0.0
  0
LINE
  5
16310
  8
KI2
 10
253.24708169456721
 20
123.0830310987442
 30
0.0
 11
253.34708169456741
 21
123.0830310987442
 31
0.0
  0
ARC
  5
16311
  8
KI2
 10
255.44708169456729
 20
120.7830310987441
 30
0.0
 40
0.3
 50
270.0
 51
0.0
  0
LINE
  5
16312
  8
KI2
 10
251.9470816945672
 20
118.98303109874411
 30
0.0
 11
251.9470816945672
 21
117.5830310987441
 31
0.0
  0
LINE
  5
16313
  8
KI2
 10
253.79551613083001
 20
120.7830310987441
 30
0.0
 11
255.14708169456731
 21
120.7830310987441
 31
0.0
  0
POINT
  5
16314
  8
KI2
 10
251.9470816945672
 20
118.46894282592849
 30
0.0
  0
ARC
  5
16315
  8
KI2
 10
255.44708169456729
 20
120.7830310987441
 30
0.0
 40
0.3
 50
180.0
 51
270.0
  0
ARC
  5
16316
  8
KI2
 10
253.79551613083001
 20
121.2830310987442
 30
0.0
 40
0.5
 50
180.0
 51
270.0
  0
LINE
  5
16317
  8
KI2
 10
252.24708169456721
 20
116.3830310987441
 30
0.0
 11
254.1970816945672
 21
116.3830310987441
 31
0.0
  0
LINE
  5
16318
  8
KI2
 10
252.24708169456721
 20
116.3830310987441
 30
0.0
 11
251.9470816945672
 21
116.0830310987441
 31
0.0
  0
LINE
  5
16319
  8
KI2
 10
254.69708169456729
 20
117.0830310987441
 30
0.0
 11
254.1970816945672
 21
116.3830310987441
 31
0.0
  0
LINE
  5
1631A
  8
KI2
 10
255.14708169456731
 20
117.0830310987441
 30
0.0
 11
254.69708169456729
 21
117.0830310987441
 31
0.0
  0
ARC
  5
1631B
  8
KI2
 10
255.44708169456729
 20
117.0830310987441
 30
0.0
 40
0.3
 50
0.0
 51
90.0
  0
ARC
  5
1631C
  8
KI2
 10
255.44708169456729
 20
117.0830310987441
 30
0.0
 40
0.3
 50
90.0
 51
180.0
  0
LINE
  5
1631D
  8
KI2
 10
253.34708169456741
 20
124.68448935453171
 30
0.0
 11
253.34708169456741
 21
123.0830310987442
 31
0.0
  0
LINE
  5
1631E
  8
KI2
 10
255.74708169456721
 20
117.0830310987441
 30
0.0
 11
256.1970816945672
 21
117.0830310987441
 31
0.0
  0
LINE
  5
1631F
  8
KI2
 10
257.09864725830471
 20
120.7830310987441
 30
0.0
 11
255.74708169456721
 21
120.7830310987441
 31
0.0
  0
TEXT
  5
1641E
  8
MJ
 10
199.69305047608981
 20
55.783007487720909
 30
0.0
 40
7.0
  1
埋込みレール
 41
0.8299999999999999
 72
     4
 11
219.4470504760898
 21
59.283007487720909
 31
0.0
  0
TEXT
  5
16442
  8
MJ
 10
200.33529081538401
 20
279.65186288284468
 30
0.0
 40
7.0
  1
直貼りレール
 41
0.8299999999999999
 72
     4
 11
220.089290815384
 21
283.15186288284468
 31
0.0
  0
LINE
  5
18AB3
  8
KI2
 10
1050.565975771731
 20
286.68474996488959
 30
0.0
 11
1050.565975771731
 21
285.9847499648896
 31
0.0
  0
LINE
  5
18AB4
  8
KI2
 10
1056.565971806895
 20
286.68474996488959
 30
0.0
 11
1050.565975771731
 21
286.68474996488959
 31
0.0
  0
LINE
  5
18AB5
  8
KI2
 10
1056.565971806895
 20
285.9847499648896
 30
0.0
 11
1050.565975771731
 21
285.9847499648896
 31
0.0
  0
LINE
  5
18AB6
  8
KI2
 10
1050.5659704530581
 20
270.98474996488937
 30
0.0
 11
1050.565970283827
 21
270.28474996488961
 31
0.0
  0
LINE
  5
18AB7
  8
KI2
 10
1050.565970283827
 20
270.28474996488961
 30
0.0
 11
1056.565971081621
 21
270.28474851433992
 31
0.0
  0
LINE
  5
18AB8
  8
KI2
 10
1050.5659704530581
 20
270.98474996488937
 30
0.0
 11
1056.5659712508509
 21
270.98474851433991
 31
0.0
  0
LINE
  5
18AB9
  8
KI2
 10
1059.565971806895
 20
273.28474851433992
 30
0.0
 11
1059.565971806895
 21
283.6847499648897
 31
0.0
  0
LINE
  5
18ABA
  8
KI2
 10
1058.865971806895
 20
273.28474851433992
 30
0.0
 11
1058.865971806895
 21
283.6847499648897
 31
0.0
  0
ARC
  5
18ABB
  8
KI2
 10
1056.565971806895
 20
283.6847499648897
 30
0.0
 40
3.0
 50
0.0
 51
90.0
1001
GENIUS_GENODEF_13
1002
{
1000
HIER
1070
     0
1002
}
1002
{
1000
MANEDIT
1070
     0
1002
}
1002
{
1000
NOSEL
1070
     0
1002
}
1002
{
1000
BEHIND
1070
     0
1002
}
1002
{
1000
OTHER
1070
     0
1002
}
1002
{
1000
REACTOR
1002
}
1001
GENIUS_GENOBJ-N-FIL_13
1002
{
1000
OWNER
1000
GEN
1002
}
  0
ARC
  5
18ABC
  8
KI2
 10
1056.565971806895
 20
283.6847499648897
 30
0.0
 40
2.2999999999999989
 50
0.0
 51
90.0
1001
GENIUS_GENODEF_13
1002
{
1000
HIER
1070
     0
1002
}
1002
{
1000
MANEDIT
1070
     0
1002
}
1002
{
1000
NOSEL
1070
     0
1002
}
1002
{
1000
BEHIND
1070
     0
1002
}
1002
{
1000
OTHER
1070
     0
1002
}
1002
{
1000
REACTOR
1002
}
1001
GENIUS_GENOBJ-N-FIL_13
1002
{
1000
OWNER
1000
GEN
1002
}
  0
ARC
  5
18ABD
  8
KI2
 10
1056.565971806895
 20
273.28474851433992
 30
0.0
 40
3.0
 50
269.99998614827302
 51
0.0
1001
GENIUS_GENODEF_13
1002
{
1000
HIER
1070
     0
1002
}
1002
{
1000
MANEDIT
1070
     0
1002
}
1002
{
1000
NOSEL
1070
     0
1002
}
1002
{
1000
BEHIND
1070
     0
1002
}
1002
{
1000
OTHER
1070
     0
1002
}
1002
{
1000
REACTOR
1002
}
1001
GENIUS_GENOBJ-N-FIL_13
1002
{
1000
OWNER
1000
GEN
1002
}
  0
ARC
  5
18ABE
  8
KI2
 10
1056.565971806895
 20
273.28474851433992
 30
0.0
 40
2.2999999999999989
 50
269.99998614827302
 51
0.0
1001
GENIUS_GENODEF_13
1002
{
1000
HIER
1070
     0
1002
}
1002
{
1000
MANEDIT
1070
     0
1002
}
1002
{
1000
NOSEL
1070
     0
1002
}
1002
{
1000
BEHIND
1070
     0
1002
}
1002
{
1000
OTHER
1070
     0
1002
}
1002
{
1000
REACTOR
1002
}
1001
GENIUS_GENOBJ-N-FIL_13
1002
{
1000
OWNER
1000
GEN
1002
}
  0
LINE
  5
18AC0
  8
KI2
 10
1050.565967809491
 20
268.48474900039719
 30
0.0
 11
1053.565971806895
 21
268.48474900039719
 31
0.0
  0
LINE
  5
18B0F
  8
PH
 10
711.56597180689573
 20
286.68474996488987
 30
0.0
 11
705.56597577173147
 21
286.68474996488987
 31
0.0
  0
LINE
  5
18B10
  8
PH
 10
711.56597180689573
 20
285.98474996488977
 30
0.0
 11
705.56597577173147
 21
285.98474996488977
 31
0.0
  0
LINE
  5
18B11
  8
PH
 10
705.56597045305796
 20
270.9847499648896
 30
0.0
 11
705.56597028382748
 21
270.28474996488978
 31
0.0
  0
LINE
  5
18B12
  8
PH
 10
705.56597028382748
 20
270.28474996488978
 30
0.0
 11
711.565971081621
 21
270.28474851434009
 31
0.0
  0
LINE
  5
18B13
  8
PH
 10
705.56597045305796
 20
270.9847499648896
 30
0.0
 11
711.5659712508517
 21
270.98474851434008
 31
0.0
  0
LINE
  5
18B14
  8
PH
 10
714.56597180689573
 20
273.28474851434009
 30
0.0
 11
714.56597180689573
 21
283.68474996488987
 31
0.0
  0
LINE
  5
18B15
  8
PH
 10
713.86597180689557
 20
273.28474851434009
 30
0.0
 11
713.86597180689557
 21
283.68474996488987
 31
0.0
  0
ARC
  5
18B16
  8
PH
 10
711.56597180689573
 20
283.68474996488987
 30
0.0
 40
3.0
 50
0.0
 51
90.0
1001
GENIUS_GENODEF_13
1002
{
1000
HIER
1070
     0
1002
}
1002
{
1000
MANEDIT
1070
     0
1002
}
1002
{
1000
NOSEL
1070
     0
1002
}
1002
{
1000
BEHIND
1070
     0
1002
}
1002
{
1000
OTHER
1070
     0
1002
}
1002
{
1000
REACTOR
1002
}
1001
GENIUS_GENOBJ-N-FIL_13
1002
{
1000
OWNER
1000
GEN
1002
}
  0
ARC
  5
18B17
  8
PH
 10
711.56597180689573
 20
283.68474996488987
 30
0.0
 40
2.2999999999999989
 50
0.0
 51
90.0
1001
GENIUS_GENODEF_13
1002
{
1000
HIER
1070
     0
1002
}
1002
{
1000
MANEDIT
1070
     0
1002
}
1002
{
1000
NOSEL
1070
     0
1002
}
1002
{
1000
BEHIND
1070
     0
1002
}
1002
{
1000
OTHER
1070
     0
1002
}
1002
{
1000
REACTOR
1002
}
1001
GENIUS_GENOBJ-N-FIL_13
1002
{
1000
OWNER
1000
GEN
1002
}
  0
ARC
  5
18B18
  8
PH
 10
711.56597180689573
 20
273.28474851434009
 30
0.0
 40
3.0
 50
269.99998614827302
 51
0.0
1001
GENIUS_GENODEF_13
1002
{
1000
HIER
1070
     0
1002
}
1002
{
1000
MANEDIT
1070
     0
1002
}
1002
{
1000
NOSEL
1070
     0
1002
}
1002
{
1000
BEHIND
1070
     0
1002
}
1002
{
1000
OTHER
1070
     0
1002
}
1002
{
1000
REACTOR
1002
}
1001
GENIUS_GENOBJ-N-FIL_13
1002
{
1000
OWNER
1000
GEN
1002
}
  0
ARC
  5
18B19
  8
PH
 10
711.56597180689573
 20
273.28474851434009
 30
0.0
 40
2.2999999999999989
 50
269.99998614827302
 51
0.0
1001
GENIUS_GENODEF_13
1002
{
1000
HIER
1070
     0
1002
}
1002
{
1000
MANEDIT
1070
     0
1002
}
1002
{
1000
NOSEL
1070
     0
1002
}
1002
{
1000
BEHIND
1070
     0
1002
}
1002
{
1000
OTHER
1070
     0
1002
}
1002
{
1000
REACTOR
1002
}
1001
GENIUS_GENOBJ-N-FIL_13
1002
{
1000
OWNER
1000
GEN
1002
}
  0
LINE
  5
18C02
  8
KI1
 10
74.447107195745716
 20
335.89997258078478
 30
0.0
 11
69.94710719574573
 21
328.10574394672471
 31
0.0
  0
LINE
  5
18C03
  8
KI1
 10
65.44710719574573
 20
335.89997258078478
 30
0.0
 11
74.447107195745716
 21
335.89997258078478
 31
0.0
  0
LINE
  5
18C04
  8
KI1
 10
69.94710719574573
 20
328.10574394672471
 30
0.0
 11
65.44710719574573
 21
335.89997258078478
 31
0.0
  0
TEXT
  5
18C05
  8
OS
 10
64.314964338602877
 20
340.13204394142281
 30
0.0
 40
7.5
  1
FL
 41
0.8299999999999999
 72
     1
 11
69.94710719574573
 21
340.13204394142281
 31
0.0
 73
     1
  0
LINE
  5
18C20
  8
KI1
 10
74.447107195745716
 20
132.0772361217798
 30
0.0
 11
69.94710719574573
 21
124.2830074877197
 31
0.0
  0
LINE
  5
18C21
  8
KI1
 10
65.44710719574573
 20
132.0772361217798
 30
0.0
 11
74.447107195745716
 21
132.0772361217798
 31
0.0
  0
LINE
  5
18C22
  8
KI1
 10
69.94710719574573
 20
124.2830074877197
 30
0.0
 11
65.44710719574573
 21
132.0772361217798
 31
0.0
  0
TEXT
  5
18C23
  8
OS
 10
64.314964338602877
 20
136.30930748241781
 30
0.0
 40
7.5
  1
FL
 41
0.8299999999999999
 72
     1
 11
69.94710719574573
 21
136.30930748241781
 31
0.0
 73
     1
  0
LINE
  5
18E2E
  8
SU
 10
705.56596780949144
 20
431.98474779943422
 30
0.0
 11
705.56596780949144
 21
481.98474779943439
 31
0.0
  0
LINE
  5
18E2F
  8
SU
 10
714.56597180689573
 20
478.98474779943439
 30
0.0
 11
705.56596780949144
 21
478.98474779943439
 31
0.0
  0
LINE
  5
18E32
  8
SU
 10
1053.565971806895
 20
437.98474779943427
 30
0.0
 11
1053.565971806895
 21
481.98474779943439
 31
0.0
  0
LINE
  5
18E33
  8
SU
 10
714.56597180689573
 20
284.68474996488982
 30
0.0
 11
714.56597180689573
 21
481.98474779943439
 31
0.0
  0
LINE
  5
18E34
  8
SU
 10
1053.565971806895
 20
478.98474779943439
 30
0.0
 11
714.56597180689573
 21
478.98474779943439
 31
0.0
  0
LINE
  5
18E38
  8
SU
 10
1050.565971806895
 20
190.98474779943379
 30
0.0
 11
1059.565971806895
 21
190.98474779943379
 31
0.0
  0
LINE
  5
18E3B
  8
SU
 10
238.94703412796159
 20
577.60574394563082
 30
0.0
 11
271.9470341279619
 21
577.60574394563082
 31
0.0
  0
LINE
  5
18E3D
  8
SU
 10
202.94703412796159
 20
577.60574394563082
 30
0.0
 11
235.94703412796181
 21
577.60574394563082
 31
0.0
  0
LINE
  5
18E3F
  8
SU
 10
166.94703412796159
 20
577.60574394563082
 30
0.0
 11
199.94703412796181
 21
577.60574394563082
 31
0.0
  0
LINE
  5
18E41
  8
SU
 10
1049.565971806895
 20
164.9847477994353
 30
0.0
 11
1059.565971806895
 21
170.9847477994353
 31
0.0
  0
LINE
  5
18E42
  8
SU
 10
1049.565971806895
 20
176.9847477994353
 30
0.0
 11
1059.565971806895
 21
170.9847477994353
 31
0.0
  0
LINE
  5
18E43
  8
SU
 10
1049.565971806895
 20
164.9847477994353
 30
0.0
 11
1049.565971806895
 21
176.9847477994353
 31
0.0
  0
LINE
  5
18E44
  8
SU
 10
1059.4982438623281
 20
170.94411103269471
 30
0.0
 11
1059.4982438623281
 21
171.02538456617569
 31
0.0
  0
LINE
  5
18E45
  8
SU
 10
1059.298243862328
 20
170.8241110326949
 30
0.0
 11
1059.298243862328
 21
171.14538456617561
 31
0.0
  0
LINE
  5
18E46
  8
SU
 10
1059.098243862328
 20
170.7041110326947
 30
0.0
 11
1059.098243862328
 21
171.2653845661757
 31
0.0
  0
LINE
  5
18E47
  8
SU
 10
1058.8982438623279
 20
170.58411103269481
 30
0.0
 11
1058.8982438623279
 21
171.38538456617579
 31
0.0
  0
LINE
  5
18E48
  8
SU
 10
1058.6982438623279
 20
170.464111032695
 30
0.0
 11
1058.6982438623279
 21
171.50538456617571
 31
0.0
  0
LINE
  5
18E49
  8
SU
 10
1058.4982438623281
 20
170.3441110326948
 30
0.0
 11
1058.4982438623281
 21
171.6253845661756
 31
0.0
  0
LINE
  5
18E4A
  8
SU
 10
1058.298243862328
 20
170.22411103269471
 30
0.0
 11
1058.298243862328
 21
171.74538456617569
 31
0.0
  0
LINE
  5
18E4B
  8
SU
 10
1058.098243862328
 20
170.10411103269479
 30
0.0
 11
1058.098243862328
 21
171.86538456617581
 31
0.0
  0
LINE
  5
18E4C
  8
SU
 10
1057.8982438623279
 20
169.9841110326949
 30
0.0
 11
1057.8982438623279
 21
171.9853845661757
 31
0.0
  0
LINE
  5
18E4D
  8
SU
 10
1057.6982438623279
 20
169.86411103269501
 30
0.0
 11
1057.6982438623279
 21
172.10538456617559
 31
0.0
  0
LINE
  5
18E4E
  8
SU
 10
1057.4982438623281
 20
169.74411103269469
 30
0.0
 11
1057.4982438623281
 21
172.22538456617571
 31
0.0
  0
LINE
  5
18E4F
  8
SU
 10
1057.298243862328
 20
169.6241110326948
 30
0.0
 11
1057.298243862328
 21
172.3453845661758
 31
0.0
  0
LINE
  5
18E50
  8
SU
 10
1057.098243862328
 20
169.50411103269491
 30
0.0
 11
1057.098243862328
 21
172.46538456617569
 31
0.0
  0
LINE
  5
18E51
  8
SU
 10
1056.8982438623279
 20
169.38411103269479
 30
0.0
 11
1056.8982438623279
 21
172.58538456617561
 31
0.0
  0
LINE
  5
18E52
  8
SU
 10
1056.6982438623279
 20
169.2641110326949
 30
0.0
 11
1056.6982438623279
 21
172.70538456617581
 31
0.0
  0
LINE
  5
18E53
  8
SU
 10
1056.4982438623281
 20
169.14411103269481
 30
0.0
 11
1056.4982438623281
 21
172.82538456617559
 31
0.0
  0
LINE
  5
18E54
  8
SU
 10
1056.298243862328
 20
169.02411103269489
 30
0.0
 11
1056.298243862328
 21
172.94538456617579
 31
0.0
  0
LINE
  5
18E55
  8
SU
 10
1056.098243862328
 20
168.9041110326948
 30
0.0
 11
1056.098243862328
 21
173.06538456617571
 31
0.0
  0
LINE
  5
18E56
  8
SU
 10
1055.8982438623279
 20
168.78411103269491
 30
0.0
 11
1055.8982438623279
 21
173.1853845661758
 31
0.0
  0
LINE
  5
18E57
  8
SU
 10
1055.6982438623279
 20
168.66411103269479
 30
0.0
 11
1055.6982438623279
 21
173.30538456617569
 31
0.0
  0
LINE
  5
18E58
  8
SU
 10
1055.4982438623281
 20
168.5441110326949
 30
0.0
 11
1055.4982438623281
 21
173.42538456617581
 31
0.0
  0
LINE
  5
18E59
  8
SU
 10
1055.298243862328
 20
168.42411103269501
 30
0.0
 11
1055.298243862328
 21
173.5453845661757
 31
0.0
  0
LINE
  5
18E5A
  8
SU
 10
1055.098243862328
 20
168.30411103269489
 30
0.0
 11
1055.098243862328
 21
173.66538456617579
 31
0.0
  0
LINE
  5
18E5B
  8
SU
 10
1054.8982438623279
 20
168.18411103269469
 30
0.0
 11
1054.8982438623279
 21
173.78538456617571
 31
0.0
  0
LINE
  5
18E5C
  8
SU
 10
1054.6982438623279
 20
168.06411103269491
 30
0.0
 11
1054.6982438623279
 21
173.9053845661758
 31
0.0
  0
LINE
  5
18E5D
  8
SU
 10
1054.4982438623281
 20
167.94411103269479
 30
0.0
 11
1054.4982438623281
 21
174.02538456617569
 31
0.0
  0
LINE
  5
18E5E
  8
SU
 10
1054.298243862328
 20
167.8241110326949
 30
0.0
 11
1054.298243862328
 21
174.14538456617561
 31
0.0
  0
LINE
  5
18E5F
  8
SU
 10
1054.098243862328
 20
167.7041110326947
 30
0.0
 11
1054.098243862328
 21
174.2653845661757
 31
0.0
  0
LINE
  5
18E60
  8
SU
 10
1053.8982438623279
 20
167.58411103269481
 30
0.0
 11
1053.8982438623279
 21
174.38538456617579
 31
0.0
  0
LINE
  5
18E61
  8
SU
 10
1053.6982438623279
 20
167.464111032695
 30
0.0
 11
1053.6982438623279
 21
174.50538456617571
 31
0.0
  0
LINE
  5
18E62
  8
SU
 10
1053.4982438623281
 20
167.3441110326948
 30
0.0
 11
1053.4982438623281
 21
174.6253845661756
 31
0.0
  0
LINE
  5
18E63
  8
SU
 10
1053.298243862328
 20
167.22411103269471
 30
0.0
 11
1053.298243862328
 21
174.74538456617569
 31
0.0
  0
LINE
  5
18E64
  8
SU
 10
1053.098243862328
 20
167.10411103269479
 30
0.0
 11
1053.098243862328
 21
174.86538456617581
 31
0.0
  0
LINE
  5
18E65
  8
SU
 10
1052.8982438623279
 20
166.9841110326949
 30
0.0
 11
1052.8982438623279
 21
174.9853845661757
 31
0.0
  0
LINE
  5
18E66
  8
SU
 10
1052.6982438623279
 20
166.86411103269501
 30
0.0
 11
1052.6982438623279
 21
175.10538456617559
 31
0.0
  0
LINE
  5
18E67
  8
SU
 10
1052.4982438623281
 20
166.74411103269469
 30
0.0
 11
1052.4982438623281
 21
175.22538456617571
 31
0.0
  0
LINE
  5
18E68
  8
SU
 10
1052.298243862328
 20
166.6241110326948
 30
0.0
 11
1052.298243862328
 21
175.3453845661758
 31
0.0
  0
LINE
  5
18E69
  8
SU
 10
1052.098243862328
 20
166.50411103269491
 30
0.0
 11
1052.098243862328
 21
175.46538456617569
 31
0.0
  0
LINE
  5
18E6A
  8
SU
 10
1051.8982438623279
 20
166.38411103269479
 30
0.0
 11
1051.8982438623279
 21
175.58538456617561
 31
0.0
  0
LINE
  5
18E6B
  8
SU
 10
1051.6982438623279
 20
166.2641110326949
 30
0.0
 11
1051.6982438623279
 21
175.70538456617581
 31
0.0
  0
LINE
  5
18E6C
  8
SU
 10
1051.4982438623281
 20
166.14411103269481
 30
0.0
 11
1051.4982438623281
 21
175.82538456617559
 31
0.0
  0
LINE
  5
18E6D
  8
SU
 10
1051.298243862328
 20
166.02411103269489
 30
0.0
 11
1051.298243862328
 21
175.94538456617579
 31
0.0
  0
LINE
  5
18E6E
  8
SU
 10
1051.098243862328
 20
165.9041110326948
 30
0.0
 11
1051.098243862328
 21
176.06538456617571
 31
0.0
  0
LINE
  5
18E6F
  8
SU
 10
1050.8982438623279
 20
165.78411103269491
 30
0.0
 11
1050.8982438623279
 21
176.1853845661758
 31
0.0
  0
LINE
  5
18E70
  8
SU
 10
1050.6982438623279
 20
165.66411103269479
 30
0.0
 11
1050.6982438623279
 21
176.30538456617569
 31
0.0
  0
LINE
  5
18E71
  8
SU
 10
1050.4982438623281
 20
165.5441110326949
 30
0.0
 11
1050.4982438623281
 21
176.42538456617581
 31
0.0
  0
LINE
  5
18E72
  8
SU
 10
1050.298243862328
 20
165.42411103269501
 30
0.0
 11
1050.298243862328
 21
176.5453845661757
 31
0.0
  0
LINE
  5
18E73
  8
SU
 10
1050.098243862328
 20
165.30411103269489
 30
0.0
 11
1050.098243862328
 21
176.66538456617579
 31
0.0
  0
LINE
  5
18E74
  8
SU
 10
1049.8982438623279
 20
165.18411103269469
 30
0.0
 11
1049.8982438623279
 21
176.78538456617571
 31
0.0
  0
LINE
  5
18E75
  8
SU
 10
1049.6982438623279
 20
165.06411103269491
 30
0.0
 11
1049.6982438623279
 21
176.9053845661758
 31
0.0
  0
LINE
  5
18E76
  8
SU
 10
556.56596780949235
 20
164.9847477994353
 30
0.0
 11
546.56596780949235
 21
170.9847477994353
 31
0.0
  0
LINE
  5
18E77
  8
SU
 10
556.56596780949235
 20
176.9847477994353
 30
0.0
 11
546.56596780949235
 21
170.9847477994353
 31
0.0
  0
LINE
  5
18E78
  8
SU
 10
556.56596780949235
 20
164.9847477994353
 30
0.0
 11
556.56596780949235
 21
176.9847477994353
 31
0.0
  0
LINE
  5
18E79
  8
SU
 10
546.63369575405954
 20
170.94411103269471
 30
0.0
 11
546.63369575405954
 21
171.02538456617569
 31
0.0
  0
LINE
  5
18E7A
  8
SU
 10
546.83369575405925
 20
170.8241110326949
 30
0.0
 11
546.83369575405925
 21
171.14538456617561
 31
0.0
  0
LINE
  5
18E7B
  8
SU
 10
547.03369575405964
 20
170.7041110326947
 30
0.0
 11
547.03369575405964
 21
171.2653845661757
 31
0.0
  0
LINE
  5
18E7C
  8
SU
 10
547.23369575405945
 20
170.58411103269481
 30
0.0
 11
547.23369575405945
 21
171.38538456617579
 31
0.0
  0
LINE
  5
18E7D
  8
SU
 10
547.43369575405973
 20
170.464111032695
 30
0.0
 11
547.43369575405973
 21
171.50538456617571
 31
0.0
  0
LINE
  5
18E7E
  8
SU
 10
547.63369575405954
 20
170.3441110326948
 30
0.0
 11
547.63369575405954
 21
171.6253845661756
 31
0.0
  0
LINE
  5
18E7F
  8
SU
 10
547.83369575405936
 20
170.22411103269471
 30
0.0
 11
547.83369575405936
 21
171.74538456617569
 31
0.0
  0
LINE
  5
18E80
  8
SU
 10
548.03369575405964
 20
170.10411103269479
 30
0.0
 11
548.03369575405964
 21
171.86538456617581
 31
0.0
  0
LINE
  5
18E81
  8
SU
 10
548.23369575405945
 20
169.9841110326949
 30
0.0
 11
548.23369575405945
 21
171.9853845661757
 31
0.0
  0
LINE
  5
18E82
  8
SU
 10
548.43369575405973
 20
169.86411103269501
 30
0.0
 11
548.43369575405973
 21
172.10538456617559
 31
0.0
  0
LINE
  5
18E83
  8
SU
 10
548.63369575405954
 20
169.74411103269469
 30
0.0
 11
548.63369575405954
 21
172.22538456617571
 31
0.0
  0
LINE
  5
18E84
  8
SU
 10
548.83369575405925
 20
169.6241110326948
 30
0.0
 11
548.83369575405925
 21
172.3453845661758
 31
0.0
  0
LINE
  5
18E85
  8
SU
 10
549.03369575405964
 20
169.50411103269491
 30
0.0
 11
549.03369575405964
 21
172.46538456617569
 31
0.0
  0
LINE
  5
18E86
  8
SU
 10
549.23369575405945
 20
169.38411103269479
 30
0.0
 11
549.23369575405945
 21
172.58538456617561
 31
0.0
  0
LINE
  5
18E87
  8
SU
 10
549.43369575405973
 20
169.2641110326949
 30
0.0
 11
549.43369575405973
 21
172.70538456617581
 31
0.0
  0
LINE
  5
18E88
  8
SU
 10
549.63369575405954
 20
169.14411103269481
 30
0.0
 11
549.63369575405954
 21
172.82538456617559
 31
0.0
  0
LINE
  5
18E89
  8
SU
 10
549.83369575405925
 20
169.02411103269489
 30
0.0
 11
549.83369575405925
 21
172.94538456617579
 31
0.0
  0
LINE
  5
18E8A
  8
SU
 10
550.03369575405964
 20
168.9041110326948
 30
0.0
 11
550.03369575405964
 21
173.06538456617571
 31
0.0
  0
LINE
  5
18E8B
  8
SU
 10
550.23369575405945
 20
168.78411103269491
 30
0.0
 11
550.23369575405945
 21
173.1853845661758
 31
0.0
  0
LINE
  5
18E8C
  8
SU
 10
550.43369575405973
 20
168.66411103269479
 30
0.0
 11
550.43369575405973
 21
173.30538456617569
 31
0.0
  0
LINE
  5
18E8D
  8
SU
 10
550.63369575405954
 20
168.5441110326949
 30
0.0
 11
550.63369575405954
 21
173.42538456617581
 31
0.0
  0
LINE
  5
18E8E
  8
SU
 10
550.83369575405925
 20
168.42411103269501
 30
0.0
 11
550.83369575405925
 21
173.5453845661757
 31
0.0
  0
LINE
  5
18E8F
  8
SU
 10
551.03369575405964
 20
168.30411103269489
 30
0.0
 11
551.03369575405964
 21
173.66538456617579
 31
0.0
  0
LINE
  5
18E90
  8
SU
 10
551.23369575405945
 20
168.18411103269469
 30
0.0
 11
551.23369575405945
 21
173.78538456617571
 31
0.0
  0
LINE
  5
18E91
  8
SU
 10
551.43369575405973
 20
168.06411103269491
 30
0.0
 11
551.43369575405973
 21
173.9053845661758
 31
0.0
  0
LINE
  5
18E92
  8
SU
 10
551.63369575405954
 20
167.94411103269479
 30
0.0
 11
551.63369575405954
 21
174.02538456617569
 31
0.0
  0
LINE
  5
18E93
  8
SU
 10
551.83369575405936
 20
167.8241110326949
 30
0.0
 11
551.83369575405936
 21
174.14538456617561
 31
0.0
  0
LINE
  5
18E94
  8
SU
 10
552.03369575405964
 20
167.7041110326947
 30
0.0
 11
552.03369575405964
 21
174.2653845661757
 31
0.0
  0
LINE
  5
18E95
  8
SU
 10
552.23369575405945
 20
167.58411103269481
 30
0.0
 11
552.23369575405945
 21
174.38538456617579
 31
0.0
  0
LINE
  5
18E96
  8
SU
 10
552.43369575405961
 20
167.464111032695
 30
0.0
 11
552.43369575405961
 21
174.50538456617571
 31
0.0
  0
LINE
  5
18E97
  8
SU
 10
552.63369575405954
 20
167.3441110326948
 30
0.0
 11
552.63369575405954
 21
174.6253845661756
 31
0.0
  0
LINE
  5
18E98
  8
SU
 10
552.83369575405925
 20
167.22411103269471
 30
0.0
 11
552.83369575405925
 21
174.74538456617569
 31
0.0
  0
LINE
  5
18E99
  8
SU
 10
553.03369575405964
 20
167.10411103269479
 30
0.0
 11
553.03369575405964
 21
174.86538456617581
 31
0.0
  0
LINE
  5
18E9A
  8
SU
 10
553.23369575405945
 20
166.9841110326949
 30
0.0
 11
553.23369575405945
 21
174.9853845661757
 31
0.0
  0
LINE
  5
18E9B
  8
SU
 10
553.43369575405973
 20
166.86411103269501
 30
0.0
 11
553.43369575405973
 21
175.10538456617559
 31
0.0
  0
LINE
  5
18E9C
  8
SU
 10
553.63369575405954
 20
166.74411103269469
 30
0.0
 11
553.63369575405954
 21
175.22538456617571
 31
0.0
  0
LINE
  5
18E9D
  8
SU
 10
553.83369575405925
 20
166.6241110326948
 30
0.0
 11
553.83369575405925
 21
175.3453845661758
 31
0.0
  0
LINE
  5
18E9E
  8
SU
 10
554.03369575405964
 20
166.50411103269491
 30
0.0
 11
554.03369575405964
 21
175.46538456617569
 31
0.0
  0
LINE
  5
18E9F
  8
SU
 10
554.23369575405945
 20
166.38411103269479
 30
0.0
 11
554.23369575405945
 21
175.58538456617561
 31
0.0
  0
LINE
  5
18EA0
  8
SU
 10
554.43369575405973
 20
166.2641110326949
 30
0.0
 11
554.43369575405973
 21
175.70538456617581
 31
0.0
  0
LINE
  5
18EA1
  8
SU
 10
554.63369575405954
 20
166.14411103269481
 30
0.0
 11
554.63369575405954
 21
175.82538456617559
 31
0.0
  0
LINE
  5
18EA2
  8
SU
 10
554.83369575405925
 20
166.02411103269489
 30
0.0
 11
554.83369575405925
 21
175.94538456617579
 31
0.0
  0
LINE
  5
18EA3
  8
SU
 10
555.03369575405964
 20
165.9041110326948
 30
0.0
 11
555.03369575405964
 21
176.06538456617571
 31
0.0
  0
LINE
  5
18EA4
  8
SU
 10
555.23369575405945
 20
165.78411103269491
 30
0.0
 11
555.23369575405945
 21
176.1853845661758
 31
0.0
  0
LINE
  5
18EA5
  8
SU
 10
555.43369575405973
 20
165.66411103269479
 30
0.0
 11
555.43369575405973
 21
176.30538456617569
 31
0.0
  0
LINE
  5
18EA6
  8
SU
 10
555.63369575405954
 20
165.5441110326949
 30
0.0
 11
555.63369575405954
 21
176.42538456617581
 31
0.0
  0
LINE
  5
18EA7
  8
SU
 10
555.83369575405936
 20
165.42411103269501
 30
0.0
 11
555.83369575405936
 21
176.5453845661757
 31
0.0
  0
LINE
  5
18EA8
  8
SU
 10
556.03369575405964
 20
165.30411103269489
 30
0.0
 11
556.03369575405964
 21
176.66538456617579
 31
0.0
  0
LINE
  5
18EA9
  8
SU
 10
556.23369575405945
 20
165.18411103269469
 30
0.0
 11
556.23369575405945
 21
176.78538456617571
 31
0.0
  0
LINE
  5
18EAA
  8
SU
 10
556.43369575405961
 20
165.06411103269491
 30
0.0
 11
556.43369575405961
 21
176.9053845661758
 31
0.0
  0
LINE
  5
18EAB
  8
SU
 10
395.94710719574391
 20
134.28300748772079
 30
0.0
 11
389.94710719574391
 21
124.28300748772079
 31
0.0
  0
LINE
  5
18EAC
  8
SU
 10
383.94710719574391
 20
134.28300748772079
 30
0.0
 11
389.94710719574391
 21
124.28300748772079
 31
0.0
  0
LINE
  5
18EAD
  8
SU
 10
395.94710719574391
 20
134.28300748772079
 30
0.0
 11
383.94710719574391
 21
134.28300748772079
 31
0.0
  0
LINE
  5
18EAE
  8
SU
 10
389.9877439624845
 20
124.350735432288
 30
0.0
 11
389.9064704290036
 21
124.350735432288
 31
0.0
  0
LINE
  5
18EAF
  8
SU
 10
390.10774396248439
 20
124.55073543228779
 30
0.0
 11
389.78647042900371
 21
124.55073543228779
 31
0.0
  0
LINE
  5
18EB0
  8
SU
 10
390.22774396248451
 20
124.7507354322881
 30
0.0
 11
389.66647042900348
 21
124.7507354322881
 31
0.0
  0
LINE
  5
18EB1
  8
SU
 10
390.3477439624844
 20
124.9507354322879
 30
0.0
 11
389.54647042900342
 21
124.9507354322879
 31
0.0
  0
LINE
  5
18EB2
  8
SU
 10
390.46774396248429
 20
125.1507354322882
 30
0.0
 11
389.42647042900347
 21
125.1507354322882
 31
0.0
  0
LINE
  5
18EB3
  8
SU
 10
390.58774396248441
 20
125.350735432288
 30
0.0
 11
389.30647042900358
 21
125.350735432288
 31
0.0
  0
LINE
  5
18EB4
  8
SU
 10
390.70774396248453
 20
125.55073543228779
 30
0.0
 11
389.18647042900352
 21
125.55073543228779
 31
0.0
  0
LINE
  5
18EB5
  8
SU
 10
390.82774396248442
 20
125.7507354322881
 30
0.0
 11
389.0664704290034
 21
125.7507354322881
 31
0.0
  0
LINE
  5
18EB6
  8
SU
 10
390.94774396248431
 20
125.9507354322879
 30
0.0
 11
388.94647042900351
 21
125.9507354322879
 31
0.0
  0
LINE
  5
18EB7
  8
SU
 10
391.0677439624842
 20
126.1507354322882
 30
0.0
 11
388.82647042900362
 21
126.1507354322882
 31
0.0
  0
LINE
  5
18EB8
  8
SU
 10
391.18774396248449
 20
126.350735432288
 30
0.0
 11
388.7064704290035
 21
126.350735432288
 31
0.0
  0
LINE
  5
18EB9
  8
SU
 10
391.30774396248438
 20
126.55073543228779
 30
0.0
 11
388.58647042900338
 21
126.55073543228779
 31
0.0
  0
LINE
  5
18EBA
  8
SU
 10
391.42774396248433
 20
126.7507354322881
 30
0.0
 11
388.46647042900349
 21
126.7507354322881
 31
0.0
  0
LINE
  5
18EBB
  8
SU
 10
391.5477439624845
 20
126.9507354322879
 30
0.0
 11
388.3464704290036
 21
126.9507354322879
 31
0.0
  0
LINE
  5
18EBC
  8
SU
 10
391.66774396248439
 20
127.1507354322882
 30
0.0
 11
388.22647042900348
 21
127.1507354322882
 31
0.0
  0
LINE
  5
18EBD
  8
SU
 10
391.78774396248451
 20
127.350735432288
 30
0.0
 11
388.10647042900359
 21
127.350735432288
 31
0.0
  0
LINE
  5
18EBE
  8
SU
 10
391.90774396248429
 20
127.55073543228779
 30
0.0
 11
387.98647042900348
 21
127.55073543228779
 31
0.0
  0
LINE
  5
18EBF
  8
SU
 10
392.02774396248452
 20
127.7507354322881
 30
0.0
 11
387.86647042900358
 21
127.7507354322881
 31
0.0
  0
LINE
  5
18EC0
  8
SU
 10
392.14774396248441
 20
127.9507354322879
 30
0.0
 11
387.74647042900341
 21
127.9507354322879
 31
0.0
  0
LINE
  5
18EC1
  8
SU
 10
392.26774396248447
 20
128.15073543228809
 30
0.0
 11
387.62647042900358
 21
128.1507354322882
 31
0.0
  0
LINE
  5
18EC2
  8
SU
 10
392.38774396248442
 20
128.35073543228799
 30
0.0
 11
387.50647042900351
 21
128.35073543228799
 31
0.0
  0
LINE
  5
18EC3
  8
SU
 10
392.50774396248431
 20
128.55073543228781
 30
0.0
 11
387.38647042900362
 21
128.55073543228781
 31
0.0
  0
LINE
  5
18EC4
  8
SU
 10
392.62774396248437
 20
128.750735432288
 30
0.0
 11
387.26647042900339
 21
128.750735432288
 31
0.0
  0
LINE
  5
18EC5
  8
SU
 10
392.74774396248449
 20
128.9507354322879
 30
0.0
 11
387.1464704290035
 21
128.9507354322879
 31
0.0
  0
LINE
  5
18EC6
  8
SU
 10
392.86774396248438
 20
129.15073543228809
 30
0.0
 11
387.02647042900338
 21
129.15073543228809
 31
0.0
  0
LINE
  5
18EC7
  8
SU
 10
392.9877439624845
 20
129.35073543228799
 30
0.0
 11
386.90647042900349
 21
129.35073543228799
 31
0.0
  0
LINE
  5
18EC8
  8
SU
 10
393.10774396248439
 20
129.55073543228781
 30
0.0
 11
386.7864704290036
 21
129.55073543228781
 31
0.0
  0
LINE
  5
18EC9
  8
SU
 10
393.22774396248451
 20
129.750735432288
 30
0.0
 11
386.66647042900348
 21
129.750735432288
 31
0.0
  0
LINE
  5
18ECA
  8
SU
 10
393.3477439624844
 20
129.9507354322879
 30
0.0
 11
386.54647042900342
 21
129.9507354322879
 31
0.0
  0
LINE
  5
18ECB
  8
SU
 10
393.46774396248429
 20
130.15073543228809
 30
0.0
 11
386.42647042900359
 21
130.15073543228809
 31
0.0
  0
LINE
  5
18ECC
  8
SU
 10
393.58774396248441
 20
130.35073543228799
 30
0.0
 11
386.3064704290037
 21
130.35073543228799
 31
0.0
  0
LINE
  5
18ECD
  8
SU
 10
393.70774396248453
 20
130.55073543228781
 30
0.0
 11
386.18647042900352
 21
130.55073543228781
 31
0.0
  0
LINE
  5
18ECE
  8
SU
 10
393.82774396248442
 20
130.75073543228811
 30
0.0
 11
386.0664704290034
 21
130.75073543228811
 31
0.0
  0
LINE
  5
18ECF
  8
SU
 10
393.94774396248431
 20
130.9507354322879
 30
0.0
 11
385.94647042900351
 21
130.9507354322879
 31
0.0
  0
LINE
  5
18ED0
  8
SU
 10
394.0677439624842
 20
131.15073543228809
 30
0.0
 11
385.82647042900362
 21
131.1507354322882
 31
0.0
  0
LINE
  5
18ED1
  8
SU
 10
394.1877439624846
 20
131.35073543228799
 30
0.0
 11
385.7064704290035
 21
131.35073543228799
 31
0.0
  0
LINE
  5
18ED2
  8
SU
 10
394.30774396248438
 20
131.55073543228781
 30
0.0
 11
385.58647042900338
 21
131.55073543228781
 31
0.0
  0
LINE
  5
18ED3
  8
SU
 10
394.42774396248433
 20
131.75073543228811
 30
0.0
 11
385.46647042900349
 21
131.75073543228811
 31
0.0
  0
LINE
  5
18ED4
  8
SU
 10
394.54774396248439
 20
131.9507354322879
 30
0.0
 11
385.3464704290036
 21
131.9507354322879
 31
0.0
  0
LINE
  5
18ED5
  8
SU
 10
394.66774396248428
 20
132.15073543228809
 30
0.0
 11
385.22647042900348
 21
132.1507354322882
 31
0.0
  0
LINE
  5
18ED6
  8
SU
 10
394.78774396248451
 20
132.35073543228799
 30
0.0
 11
385.10647042900359
 21
132.35073543228799
 31
0.0
  0
LINE
  5
18ED7
  8
SU
 10
394.9077439624844
 20
132.55073543228781
 30
0.0
 11
384.98647042900348
 21
132.55073543228781
 31
0.0
  0
LINE
  5
18ED8
  8
SU
 10
395.02774396248452
 20
132.75073543228811
 30
0.0
 11
384.86647042900358
 21
132.75073543228811
 31
0.0
  0
LINE
  5
18ED9
  8
SU
 10
395.14774396248441
 20
132.9507354322879
 30
0.0
 11
384.74647042900352
 21
132.9507354322879
 31
0.0
  0
LINE
  5
18EDA
  8
SU
 10
395.26774396248447
 20
133.15073543228809
 30
0.0
 11
384.62647042900358
 21
133.15073543228809
 31
0.0
  0
LINE
  5
18EDB
  8
SU
 10
395.38774396248442
 20
133.35073543228799
 30
0.0
 11
384.5064704290034
 21
133.35073543228799
 31
0.0
  0
LINE
  5
18EDC
  8
SU
 10
395.5077439624842
 20
133.55073543228781
 30
0.0
 11
384.38647042900362
 21
133.55073543228781
 31
0.0
  0
LINE
  5
18EDD
  8
SU
 10
395.62774396248437
 20
133.75073543228811
 30
0.0
 11
384.26647042900339
 21
133.75073543228811
 31
0.0
  0
LINE
  5
18EDE
  8
SU
 10
395.74774396248449
 20
133.9507354322879
 30
0.0
 11
384.14647042900361
 21
133.9507354322879
 31
0.0
  0
LINE
  5
18EDF
  8
SU
 10
395.86774396248438
 20
134.15073543228809
 30
0.0
 11
384.0264704290035
 21
134.15073543228809
 31
0.0
  0
LINE
  5
18EE0
  8
SU
 10
395.9471071957438
 20
654.10574394563082
 30
0.0
 11
389.9471071957438
 21
664.10574394563082
 31
0.0
  0
LINE
  5
18EE1
  8
SU
 10
383.9471071957438
 20
654.10574394563082
 30
0.0
 11
389.9471071957438
 21
664.10574394563082
 31
0.0
  0
LINE
  5
18EE2
  8
SU
 10
395.9471071957438
 20
654.10574394563082
 30
0.0
 11
383.9471071957438
 21
654.10574394563082
 31
0.0
  0
LINE
  5
18EE3
  8
SU
 10
389.98774396248439
 20
664.03801600106362
 30
0.0
 11
389.90647042900338
 21
664.03801600106362
 31
0.0
  0
LINE
  5
18EE4
  8
SU
 10
390.10774396248428
 20
663.83801600106381
 30
0.0
 11
389.78647042900349
 21
663.83801600106381
 31
0.0
  0
LINE
  5
18EE5
  8
SU
 10
390.2277439624844
 20
663.63801600106353
 30
0.0
 11
389.66647042900343
 21
663.63801600106353
 31
0.0
  0
LINE
  5
18EE6
  8
SU
 10
390.34774396248429
 20
663.4380160010636
 30
0.0
 11
389.54647042900331
 21
663.4380160010636
 31
0.0
  0
LINE
  5
18EE7
  8
SU
 10
390.46774396248418
 20
663.23801600106344
 30
0.0
 11
389.42647042900342
 21
663.23801600106344
 31
0.0
  0
LINE
  5
18EE8
  8
SU
 10
390.5877439624843
 20
663.03801600106362
 30
0.0
 11
389.30647042900353
 21
663.03801600106362
 31
0.0
  0
LINE
  5
18EE9
  8
SU
 10
390.70774396248441
 20
662.83801600106381
 30
0.0
 11
389.18647042900341
 21
662.83801600106381
 31
0.0
  0
LINE
  5
18EEA
  8
SU
 10
390.82774396248431
 20
662.63801600106353
 30
0.0
 11
389.06647042900329
 21
662.63801600106353
 31
0.0
  0
LINE
  5
18EEB
  8
SU
 10
390.9477439624842
 20
662.43801600106372
 30
0.0
 11
388.9464704290034
 21
662.43801600106372
 31
0.0
  0
LINE
  5
18EEC
  8
SU
 10
391.06774396248409
 20
662.23801600106344
 30
0.0
 11
388.82647042900351
 21
662.23801600106344
 31
0.0
  0
LINE
  5
18EED
  8
SU
 10
391.18774396248449
 20
662.03801600106362
 30
0.0
 11
388.70647042900339
 21
662.03801600106362
 31
0.0
  0
LINE
  5
18EEE
  8
SU
 10
391.30774396248432
 20
661.83801600106369
 30
0.0
 11
388.58647042900333
 21
661.83801600106369
 31
0.0
  0
LINE
  5
18EEF
  8
SU
 10
391.42774396248421
 20
661.63801600106353
 30
0.0
 11
388.46647042900338
 21
661.63801600106353
 31
0.0
  0
LINE
  5
18EF0
  8
SU
 10
391.54774396248428
 20
661.43801600106372
 30
0.0
 11
388.34647042900349
 21
661.43801600106372
 31
0.0
  0
LINE
  5
18EF1
  8
SU
 10
391.66774396248422
 20
661.23801600106344
 30
0.0
 11
388.22647042900343
 21
661.23801600106344
 31
0.0
  0
LINE
  5
18EF2
  8
SU
 10
391.78774396248429
 20
661.03801600106351
 30
0.0
 11
388.10647042900348
 21
661.03801600106351
 31
0.0
  0
LINE
  5
18EF3
  8
SU
 10
391.90774396248418
 20
660.83801600106369
 30
0.0
 11
387.98647042900342
 21
660.83801600106369
 31
0.0
  0
LINE
  5
18EF4
  8
SU
 10
392.02774396248441
 20
660.63801600106353
 30
0.0
 11
387.86647042900353
 21
660.63801600106353
 31
0.0
  0
LINE
  5
18EF5
  8
SU
 10
392.14774396248418
 20
660.43801600106372
 30
0.0
 11
387.74647042900341
 21
660.43801600106372
 31
0.0
  0
LINE
  5
18EF6
  8
SU
 10
392.26774396248442
 20
660.23801600106344
 30
0.0
 11
387.62647042900352
 21
660.23801600106344
 31
0.0
  0
LINE
  5
18EF7
  8
SU
 10
392.38774396248431
 20
660.03801600106362
 30
0.0
 11
387.5064704290034
 21
660.03801600106362
 31
0.0
  0
LINE
  5
18EF8
  8
SU
 10
392.50774396248408
 20
659.83801600106381
 30
0.0
 11
387.38647042900351
 21
659.83801600106381
 31
0.0
  0
LINE
  5
18EF9
  8
SU
 10
392.6277439624842
 20
659.63801600106353
 30
0.0
 11
387.26647042900328
 21
659.63801600106353
 31
0.0
  0
LINE
  5
18EFA
  8
SU
 10
392.74774396248438
 20
659.4380160010636
 30
0.0
 11
387.14647042900339
 21
659.4380160010636
 31
0.0
  0
LINE
  5
18EFB
  8
SU
 10
392.86774396248433
 20
659.23801600106344
 30
0.0
 11
387.02647042900333
 21
659.23801600106344
 31
0.0
  0
LINE
  5
18EFC
  8
SU
 10
392.98774396248439
 20
659.03801600106362
 30
0.0
 11
386.90647042900349
 21
659.03801600106362
 31
0.0
  0
LINE
  5
18EFD
  8
SU
 10
393.10774396248428
 20
658.83801600106381
 30
0.0
 11
386.7864704290036
 21
658.83801600106381
 31
0.0
  0
LINE
  5
18EFE
  8
SU
 10
393.2277439624844
 20
658.63801600106353
 30
0.0
 11
386.66647042900343
 21
658.63801600106353
 31
0.0
  0
LINE
  5
18EFF
  8
SU
 10
393.34774396248429
 20
658.43801600106372
 30
0.0
 11
386.54647042900331
 21
658.43801600106372
 31
0.0
  0
LINE
  5
18F00
  8
SU
 10
393.46774396248418
 20
658.23801600106344
 30
0.0
 11
386.42647042900342
 21
658.23801600106344
 31
0.0
  0
LINE
  5
18F01
  8
SU
 10
393.5877439624843
 20
658.03801600106362
 30
0.0
 11
386.30647042900353
 21
658.03801600106362
 31
0.0
  0
LINE
  5
18F02
  8
SU
 10
393.70774396248441
 20
657.83801600106381
 30
0.0
 11
386.18647042900341
 21
657.83801600106381
 31
0.0
  0
LINE
  5
18F03
  8
SU
 10
393.82774396248431
 20
657.63801600106353
 30
0.0
 11
386.06647042900329
 21
657.63801600106353
 31
0.0
  0
LINE
  5
18F04
  8
SU
 10
393.9477439624842
 20
657.43801600106372
 30
0.0
 11
385.9464704290034
 21
657.43801600106372
 31
0.0
  0
LINE
  5
18F05
  8
SU
 10
394.06774396248409
 20
657.23801600106344
 30
0.0
 11
385.82647042900351
 21
657.23801600106344
 31
0.0
  0
LINE
  5
18F06
  8
SU
 10
394.18774396248438
 20
657.03801600106351
 30
0.0
 11
385.70647042900339
 21
657.03801600106351
 31
0.0
  0
LINE
  5
18F07
  8
SU
 10
394.30774396248432
 20
656.83801600106369
 30
0.0
 11
385.58647042900333
 21
656.83801600106369
 31
0.0
  0
LINE
  5
18F08
  8
SU
 10
394.42774396248421
 20
656.63801600106353
 30
0.0
 11
385.46647042900338
 21
656.63801600106353
 31
0.0
  0
LINE
  5
18F09
  8
SU
 10
394.54774396248428
 20
656.43801600106372
 30
0.0
 11
385.34647042900349
 21
656.43801600106372
 31
0.0
  0
LINE
  5
18F0A
  8
SU
 10
394.66774396248422
 20
656.23801600106344
 30
0.0
 11
385.22647042900343
 21
656.23801600106344
 31
0.0
  0
LINE
  5
18F0B
  8
SU
 10
394.7877439624844
 20
656.03801600106362
 30
0.0
 11
385.10647042900348
 21
656.03801600106362
 31
0.0
  0
LINE
  5
18F0C
  8
SU
 10
394.90774396248418
 20
655.83801600106381
 30
0.0
 11
384.98647042900342
 21
655.83801600106381
 31
0.0
  0
LINE
  5
18F0D
  8
SU
 10
395.02774396248429
 20
655.63801600106353
 30
0.0
 11
384.86647042900353
 21
655.63801600106353
 31
0.0
  0
LINE
  5
18F0E
  8
SU
 10
395.14774396248418
 20
655.43801600106372
 30
0.0
 11
384.7464704290033
 21
655.43801600106372
 31
0.0
  0
LINE
  5
18F0F
  8
SU
 10
395.26774396248442
 20
655.23801600106344
 30
0.0
 11
384.62647042900352
 21
655.23801600106344
 31
0.0
  0
LINE
  5
18F10
  8
SU
 10
395.38774396248431
 20
655.03801600106362
 30
0.0
 11
384.5064704290034
 21
655.03801600106362
 31
0.0
  0
LINE
  5
18F11
  8
SU
 10
395.5077439624842
 20
654.83801600106381
 30
0.0
 11
384.38647042900351
 21
654.83801600106381
 31
0.0
  0
LINE
  5
18F12
  8
SU
 10
395.62774396248432
 20
654.63801600106353
 30
0.0
 11
384.26647042900328
 21
654.63801600106353
 31
0.0
  0
LINE
  5
18F13
  8
SU
 10
395.74774396248438
 20
654.43801600106372
 30
0.0
 11
384.14647042900339
 21
654.43801600106372
 31
0.0
  0
LINE
  5
18F14
  8
SU
 10
395.86774396248433
 20
654.23801600106344
 30
0.0
 11
384.02647042900333
 21
654.23801600106344
 31
0.0
  0
LINE
  5
18F15
  8
SU
 10
395.9471071957438
 20
338.1057439467258
 30
0.0
 11
389.9471071957438
 21
328.1057439467258
 31
0.0
  0
LINE
  5
18F16
  8
SU
 10
383.9471071957438
 20
338.1057439467258
 30
0.0
 11
389.9471071957438
 21
328.1057439467258
 31
0.0
  0
LINE
  5
18F17
  8
SU
 10
395.9471071957438
 20
338.1057439467258
 30
0.0
 11
383.9471071957438
 21
338.1057439467258
 31
0.0
  0
LINE
  5
18F18
  8
SU
 10
389.98774396248439
 20
328.17347189129299
 30
0.0
 11
389.90647042900338
 21
328.17347189129299
 31
0.0
  0
LINE
  5
18F19
  8
SU
 10
390.10774396248428
 20
328.37347189129281
 30
0.0
 11
389.78647042900349
 21
328.37347189129281
 31
0.0
  0
LINE
  5
18F1A
  8
SU
 10
390.2277439624844
 20
328.57347189129308
 30
0.0
 11
389.66647042900343
 21
328.57347189129308
 31
0.0
  0
LINE
  5
18F1B
  8
SU
 10
390.34774396248429
 20
328.7734718912929
 30
0.0
 11
389.54647042900331
 21
328.7734718912929
 31
0.0
  0
LINE
  5
18F1C
  8
SU
 10
390.46774396248418
 20
328.97347189129317
 30
0.0
 11
389.42647042900342
 21
328.97347189129317
 31
0.0
  0
LINE
  5
18F1D
  8
SU
 10
390.5877439624843
 20
329.17347189129299
 30
0.0
 11
389.30647042900353
 21
329.17347189129299
 31
0.0
  0
LINE
  5
18F1E
  8
SU
 10
390.70774396248441
 20
329.37347189129281
 30
0.0
 11
389.18647042900341
 21
329.37347189129281
 31
0.0
  0
LINE
  5
18F1F
  8
SU
 10
390.82774396248431
 20
329.57347189129308
 30
0.0
 11
389.06647042900329
 21
329.57347189129308
 31
0.0
  0
LINE
  5
18F20
  8
SU
 10
390.9477439624842
 20
329.7734718912929
 30
0.0
 11
388.9464704290034
 21
329.7734718912929
 31
0.0
  0
LINE
  5
18F21
  8
SU
 10
391.06774396248409
 20
329.97347189129317
 30
0.0
 11
388.82647042900351
 21
329.97347189129317
 31
0.0
  0
LINE
  5
18F22
  8
SU
 10
391.18774396248449
 20
330.17347189129299
 30
0.0
 11
388.70647042900339
 21
330.17347189129299
 31
0.0
  0
LINE
  5
18F23
  8
SU
 10
391.30774396248432
 20
330.37347189129281
 30
0.0
 11
388.58647042900333
 21
330.37347189129281
 31
0.0
  0
LINE
  5
18F24
  8
SU
 10
391.42774396248421
 20
330.57347189129308
 30
0.0
 11
388.46647042900338
 21
330.57347189129308
 31
0.0
  0
LINE
  5
18F25
  8
SU
 10
391.54774396248428
 20
330.7734718912929
 30
0.0
 11
388.34647042900349
 21
330.7734718912929
 31
0.0
  0
LINE
  5
18F26
  8
SU
 10
391.66774396248422
 20
330.97347189129317
 30
0.0
 11
388.22647042900343
 21
330.97347189129317
 31
0.0
  0
LINE
  5
18F27
  8
SU
 10
391.78774396248429
 20
331.17347189129299
 30
0.0
 11
388.10647042900348
 21
331.17347189129299
 31
0.0
  0
LINE
  5
18F28
  8
SU
 10
391.90774396248418
 20
331.37347189129281
 30
0.0
 11
387.98647042900342
 21
331.37347189129281
 31
0.0
  0
LINE
  5
18F29
  8
SU
 10
392.02774396248441
 20
331.57347189129308
 30
0.0
 11
387.86647042900353
 21
331.57347189129308
 31
0.0
  0
LINE
  5
18F2A
  8
SU
 10
392.14774396248418
 20
331.7734718912929
 30
0.0
 11
387.74647042900341
 21
331.7734718912929
 31
0.0
  0
LINE
  5
18F2B
  8
SU
 10
392.26774396248442
 20
331.97347189129317
 30
0.0
 11
387.62647042900352
 21
331.97347189129317
 31
0.0
  0
LINE
  5
18F2C
  8
SU
 10
392.38774396248431
 20
332.17347189129299
 30
0.0
 11
387.5064704290034
 21
332.17347189129299
 31
0.0
  0
LINE
  5
18F2D
  8
SU
 10
392.50774396248408
 20
332.37347189129281
 30
0.0
 11
387.38647042900351
 21
332.37347189129281
 31
0.0
  0
LINE
  5
18F2E
  8
SU
 10
392.6277439624842
 20
332.57347189129308
 30
0.0
 11
387.26647042900328
 21
332.57347189129308
 31
0.0
  0
LINE
  5
18F2F
  8
SU
 10
392.74774396248438
 20
332.7734718912929
 30
0.0
 11
387.14647042900339
 21
332.7734718912929
 31
0.0
  0
LINE
  5
18F30
  8
SU
 10
392.86774396248433
 20
332.97347189129317
 30
0.0
 11
387.02647042900333
 21
332.97347189129317
 31
0.0
  0
LINE
  5
18F31
  8
SU
 10
392.98774396248439
 20
333.17347189129299
 30
0.0
 11
386.90647042900349
 21
333.17347189129299
 31
0.0
  0
LINE
  5
18F32
  8
SU
 10
393.10774396248428
 20
333.37347189129281
 30
0.0
 11
386.7864704290036
 21
333.37347189129281
 31
0.0
  0
LINE
  5
18F33
  8
SU
 10
393.2277439624844
 20
333.57347189129308
 30
0.0
 11
386.66647042900343
 21
333.57347189129308
 31
0.0
  0
LINE
  5
18F34
  8
SU
 10
393.34774396248429
 20
333.7734718912929
 30
0.0
 11
386.54647042900331
 21
333.7734718912929
 31
0.0
  0
LINE
  5
18F35
  8
SU
 10
393.46774396248418
 20
333.97347189129317
 30
0.0
 11
386.42647042900342
 21
333.97347189129317
 31
0.0
  0
LINE
  5
18F36
  8
SU
 10
393.5877439624843
 20
334.17347189129299
 30
0.0
 11
386.30647042900353
 21
334.17347189129299
 31
0.0
  0
LINE
  5
18F37
  8
SU
 10
393.70774396248441
 20
334.37347189129281
 30
0.0
 11
386.18647042900341
 21
334.37347189129281
 31
0.0
  0
LINE
  5
18F38
  8
SU
 10
393.82774396248431
 20
334.57347189129308
 30
0.0
 11
386.06647042900329
 21
334.57347189129308
 31
0.0
  0
LINE
  5
18F39
  8
SU
 10
393.9477439624842
 20
334.7734718912929
 30
0.0
 11
385.9464704290034
 21
334.7734718912929
 31
0.0
  0
LINE
  5
18F3A
  8
SU
 10
394.06774396248409
 20
334.97347189129317
 30
0.0
 11
385.82647042900351
 21
334.97347189129317
 31
0.0
  0
LINE
  5
18F3B
  8
SU
 10
394.18774396248438
 20
335.17347189129299
 30
0.0
 11
385.70647042900339
 21
335.17347189129299
 31
0.0
  0
LINE
  5
18F3C
  8
SU
 10
394.30774396248432
 20
335.37347189129281
 30
0.0
 11
385.58647042900333
 21
335.37347189129281
 31
0.0
  0
LINE
  5
18F3D
  8
SU
 10
394.42774396248421
 20
335.57347189129308
 30
0.0
 11
385.46647042900338
 21
335.57347189129308
 31
0.0
  0
LINE
  5
18F3E
  8
SU
 10
394.54774396248428
 20
335.7734718912929
 30
0.0
 11
385.34647042900349
 21
335.7734718912929
 31
0.0
  0
LINE
  5
18F3F
  8
SU
 10
394.66774396248422
 20
335.97347189129317
 30
0.0
 11
385.22647042900343
 21
335.97347189129317
 31
0.0
  0
LINE
  5
18F40
  8
SU
 10
394.7877439624844
 20
336.17347189129299
 30
0.0
 11
385.10647042900348
 21
336.17347189129299
 31
0.0
  0
LINE
  5
18F41
  8
SU
 10
394.90774396248418
 20
336.37347189129281
 30
0.0
 11
384.98647042900342
 21
336.37347189129281
 31
0.0
  0
LINE
  5
18F42
  8
SU
 10
395.02774396248429
 20
336.57347189129308
 30
0.0
 11
384.86647042900353
 21
336.57347189129308
 31
0.0
  0
LINE
  5
18F43
  8
SU
 10
395.14774396248418
 20
336.7734718912929
 30
0.0
 11
384.7464704290033
 21
336.7734718912929
 31
0.0
  0
LINE
  5
18F44
  8
SU
 10
395.26774396248442
 20
336.97347189129317
 30
0.0
 11
384.62647042900352
 21
336.97347189129317
 31
0.0
  0
LINE
  5
18F45
  8
SU
 10
395.38774396248431
 20
337.17347189129299
 30
0.0
 11
384.5064704290034
 21
337.17347189129299
 31
0.0
  0
LINE
  5
18F46
  8
SU
 10
395.5077439624842
 20
337.37347189129281
 30
0.0
 11
384.38647042900351
 21
337.37347189129281
 31
0.0
  0
LINE
  5
18F47
  8
SU
 10
395.62774396248432
 20
337.57347189129308
 30
0.0
 11
384.26647042900328
 21
337.57347189129308
 31
0.0
  0
LINE
  5
18F48
  8
SU
 10
395.74774396248438
 20
337.7734718912929
 30
0.0
 11
384.14647042900339
 21
337.7734718912929
 31
0.0
  0
LINE
  5
18F49
  8
SU
 10
395.86774396248433
 20
337.97347189129317
 30
0.0
 11
384.02647042900333
 21
337.97347189129317
 31
0.0
  0
LINE
  5
18F4A
  8
SU
 10
270.69703412796162
 20
674.60574394563082
 30
0.0
 11
270.69703412796162
 21
706.60574100736153
 31
0.0
  0
LINE
  5
18F4B
  8
SU
 10
276.29703412796181
 20
638.10574394563071
 30
0.0
 11
276.29703412796181
 21
706.60574100736153
 31
0.0
  0
LINE
  5
18F4C
  8
SU
 10
270.69703412796162
 20
703.60574100736153
 30
0.0
 11
276.29703412796181
 21
703.60574100736153
 31
0.0
  0
LINE
  5
18F4D
  8
SU
 10
276.29703412796181
 20
703.60574100736153
 30
0.0
 11
300.67036746129509
 21
703.60574100736153
 31
0.0
  0
LINE
  5
18F51
  8
SU
 10
157.9470426462949
 20
125.28300748772089
 30
0.0
 11
157.9470426462949
 21
161.17861459537539
 31
0.0
  0
LINE
  5
18F52
  8
SU
 10
165.4470816945668
 20
158.17861459537539
 30
0.0
 11
157.9470426462949
 21
158.17861459537539
 31
0.0
  0
LINE
  5
18F53
  8
SU
 10
157.9470426462949
 20
158.17861459537539
 30
0.0
 11
133.57370931296151
 21
158.17861459537539
 31
0.0
  0
LINE
  5
18F56
  8
SU
 10
749.56596780949144
 20
333.98474779943717
 30
0.0
 11
749.56596780949144
 21
330.98474779943712
 31
0.0
  0
LINE
  5
18F58
  8
SU
 10
671.56596780949144
 20
333.984747799437
 30
0.0
 11
752.56596780949144
 21
333.984747799437
 31
0.0
  0
LINE
  5
18F59
  8
SU
 10
749.56596780949144
 20
366.98474779943672
 30
0.0
 11
749.56596780949144
 21
333.984747799437
 31
0.0
  0
LINE
  5
18F5C
  8
SU
 10
899.56596780949155
 20
294.98474779943712
 30
0.0
 11
746.56596780949144
 21
294.98474779943712
 31
0.0
  0
LINE
  5
18F5D
  8
SU
 10
899.56596780949155
 20
261.98474875116239
 30
0.0
 11
746.56596780949144
 21
261.9847487511625
 31
0.0
  0
LINE
  5
18F5E
  8
SU
 10
749.56596780949144
 20
294.98474779943712
 30
0.0
 11
749.56596780949144
 21
261.9847487511625
 31
0.0
  0
LINE
  5
18F62
  8
SU
 10
749.56596780949144
 20
297.98474875116239
 30
0.0
 11
749.56596780949144
 21
294.98474779943712
 31
0.0
  0
LINE
  5
18F64
  8
SU
 10
784.56596780949155
 20
330.98474779943672
 30
0.0
 11
746.56596780949144
 21
330.98474779943672
 31
0.0
  0
LINE
  5
18F65
  8
SU
 10
784.56596780949155
 20
297.98474779943717
 30
0.0
 11
746.56596780949144
 21
297.98474779943717
 31
0.0
  0
LINE
  5
18F66
  8
SU
 10
749.56596780949144
 20
330.98474779943672
 30
0.0
 11
749.56596780949144
 21
297.98474779943717
 31
0.0
  0
LINE
  5
18F6A
  8
SU
 10
157.9470426462949
 20
123.28300748772089
 30
0.0
 11
157.9470426462949
 21
68.283007487869952
 31
0.0
  0
LINE
  5
18F6B
  8
SU
 10
174.94704169456691
 20
71.283007487869952
 30
0.0
 11
157.9470426462949
 21
71.283007487869952
 31
0.0
  0
LINE
  5
18F6E
  8
SU
 10
174.94704169456691
 20
111.28300748772089
 30
0.0
 11
174.94704169456691
 21
68.283007487720909
 31
0.0
  0
LINE
  5
18F6F
  8
SU
 10
263.94704169456691
 20
111.28300748772089
 30
0.0
 11
263.94704169456691
 21
68.283007487720909
 31
0.0
  0
LINE
  5
18F70
  8
SU
 10
174.94704169456691
 20
71.283007487720894
 30
0.0
 11
263.94704169456691
 21
71.283007487720894
 31
0.0
  0
LINE
  5
18F74
  8
SU
 10
157.94704264629621
 20
327.10574394672608
 30
0.0
 11
157.94704264629621
 21
292.1057439467258
 31
0.0
  0
LINE
  5
18F75
  8
SU
 10
173.4470416945683
 20
295.10574394672591
 30
0.0
 11
157.94704264629621
 21
295.10574394672591
 31
0.0
  0
LINE
  5
18F76
  8
SU
 10
157.94704264629621
 20
295.10574394672591
 30
0.0
 11
128.87037597962961
 21
295.10574394672591
 31
0.0
  0
LINE
  5
18F79
  8
SU
 10
168.19703412796159
 20
674.60574394563082
 30
0.0
 11
168.19703412796159
 21
706.60574100736153
 31
0.0
  0
LINE
  5
18F7A
  8
SU
 10
157.94704264629621
 20
665.10574394563048
 30
0.0
 11
157.94704264629621
 21
706.60574100736153
 31
0.0
  0
LINE
  5
18F7B
  8
SU
 10
168.19703412796159
 20
703.60574100736153
 30
0.0
 11
157.94704264629621
 21
703.60574100736153
 31
0.0
  0
LINE
  5
18F7C
  8
SU
 10
157.94704264629621
 20
703.60574100736153
 30
0.0
 11
128.87037597962961
 21
703.60574100736153
 31
0.0
  0
LINE
  5
18F80
  8
SU
 10
162.59703412796171
 20
623.10574394563082
 30
0.0
 11
162.59703412796171
 21
594.60574394562991
 31
0.0
  0
LINE
  5
18F81
  8
SU
 10
162.59703412796171
 20
597.6057439456298
 30
0.0
 11
157.94704264629621
 21
597.6057439456298
 31
0.0
  0
LINE
  5
18F82
  8
SU
 10
157.94704264629621
 20
597.6057439456298
 30
0.0
 11
133.5737093129629
 21
597.6057439456298
 31
0.0
  0
LINE
  5
18F86
  8
SU
 10
162.59703412796171
 20
597.60574394563082
 30
0.0
 11
276.29698709769031
 21
597.60574394563082
 31
0.0
  0
LINE
  5
18F89
  8
SU
 10
271.94704169456833
 20
626.10574473009865
 30
0.0
 11
271.94704169456833
 21
574.60574394563082
 31
0.0
  0
LINE
  5
18F8A
  8
SU
 10
276.29704290964349
 20
623.10574394563082
 30
0.0
 11
276.29704290964349
 21
574.60574394563082
 31
0.0
  0
LINE
  5
18F8B
  8
SU
 10
271.94704169456833
 20
577.60574394563082
 30
0.0
 11
276.29704290964349
 21
577.60574394563082
 31
0.0
  0
LINE
  5
18F8C
  8
SU
 10
276.29704290964349
 20
577.60574394563082
 30
0.0
 11
300.94704290964359
 21
577.60574394563082
 31
0.0
  0
LINE
  5
18F90
  8
SU
 10
671.56596780949144
 20
366.984747799437
 30
0.0
 11
752.56596780949144
 21
366.984747799437
 31
0.0
  0
LINE
  5
18F91
  8
SU
 10
706.56596780949144
 20
375.98474779943422
 30
0.0
 11
752.56596780949144
 21
375.98474779943422
 31
0.0
  0
LINE
  5
18F92
  8
SU
 10
749.56596780949144
 20
366.984747799437
 30
0.0
 11
749.56596780949144
 21
375.98474779943422
 31
0.0
  0
LINE
  5
18F96
  8
SU
 10
166.94704169456821
 20
626.10574473009865
 30
0.0
 11
166.94704169456821
 21
574.60574394562991
 31
0.0
  0
LINE
  5
18F97
  8
SU
 10
157.94704264629621
 20
626.10574473009865
 30
0.0
 11
157.94704264629621
 21
574.60574394562991
 31
0.0
  0
LINE
  5
18F98
  8
SU
 10
166.94704169456821
 20
577.60574394562991
 30
0.0
 11
157.94704264629621
 21
577.60574394562991
 31
0.0
  0
LINE
  5
18F9C
  8
OS
 10
168.19703412796159
 20
673.60574394563082
 30
0.0
 11
270.69703412796162
 21
673.60574394563082
 31
0.0
1001
GENIUS_GENREC_14
1002
{
1000
PYDIR
1011
168.19703412796159
1021
0.0
1031
0.0
1021
664.10574394563082
1031
0.0
1002
}
1002
{
1000
PXDIR
1011
270.69703412796162
1021
0.0
1031
0.0
1021
673.60574394563082
1031
0.0
1002
}
1002
{
1000
PORI
1011
168.19703412796159
1021
0.0
1031
0.0
1021
673.60574394563082
1031
0.0
1002
}
1002
{
1000
PINS
1011
168.19703412796159
1021
0.0
1031
0.0
1021
673.60574394563082
1031
0.0
1002
}
1002
{
1000
PINS2
1011
270.69703412796162
1021
0.0
1031
0.0
1021
664.10574394563082
1031
0.0
1002
}
1002
{
1000
C
1070
     1
1002
}
1001
GENIUS_GENODEF_13
1002
{
1000
HIER
1070
     0
1002
}
1002
{
1000
MANEDIT
1070
     0
1002
}
1002
{
1000
NOSEL
1070
     0
1002
}
1002
{
1000
BEHIND
1070
     0
1002
}
1002
{
1000
OTHER
1070
     0
1002
}
1002
{
1000
REACTOR
1002
}
1001
GENIUS_GENOBJ-N-REC_13
1002
{
1000
OWNER
1000
GEN
1002
}
  0
LINE
  5
18F9D
  8
OS
 10
270.69703412796162
 20
673.60574394563082
 30
0.0
 11
270.69703412796162
 21
664.10574394563082
 31
0.0
1001
GENIUS_GENREC_14
1002
{
1000
PYDIR
1011
168.19703412796159
1021
0.0
1031
0.0
1021
664.10574394563082
1031
0.0
1002
}
1002
{
1000
PXDIR
1011
270.69703412796162
1021
0.0
1031
0.0
1021
673.60574394563082
1031
0.0
1002
}
1002
{
1000
PORI
1011
168.19703412796159
1021
0.0
1031
0.0
1021
673.60574394563082
1031
0.0
1002
}
1002
{
1000
PINS
1011
168.19703412796159
1021
0.0
1031
0.0
1021
673.60574394563082
1031
0.0
1002
}
1002
{
1000
PINS2
1011
270.69703412796162
1021
0.0
1031
0.0
1021
664.10574394563082
1031
0.0
1002
}
1002
{
1000
C
1070
     1
1002
}
1001
GENIUS_GENODEF_13
1002
{
1000
HIER
1070
     0
1002
}
1002
{
1000
MANEDIT
1070
     0
1002
}
1002
{
1000
NOSEL
1070
     0
1002
}
1002
{
1000
BEHIND
1070
     0
1002
}
1002
{
1000
OTHER
1070
     0
1002
}
1002
{
1000
REACTOR
1002
}
1001
GENIUS_GENOBJ-N-REC_13
1002
{
1000
OWNER
1000
GEN
1002
}
  0
LINE
  5
18F9E
  8
OS
 10
270.69703412796162
 20
664.10574394563082
 30
0.0
 11
168.19703412796159
 21
664.10574394563082
 31
0.0
1001
GENIUS_GENREC_14
1002
{
1000
PYDIR
1011
168.19703412796159
1021
0.0
1031
0.0
1021
664.10574394563082
1031
0.0
1002
}
1002
{
1000
PXDIR
1011
270.69703412796162
1021
0.0
1031
0.0
1021
673.60574394563082
1031
0.0
1002
}
1002
{
1000
PORI
1011
168.19703412796159
1021
0.0
1031
0.0
1021
673.60574394563082
1031
0.0
1002
}
1002
{
1000
PINS
1011
168.19703412796159
1021
0.0
1031
0.0
1021
673.60574394563082
1031
0.0
1002
}
1002
{
1000
PINS2
1011
270.69703412796162
1021
0.0
1031
0.0
1021
664.10574394563082
1031
0.0
1002
}
1002
{
1000
C
1070
     1
1002
}
1001
GENIUS_GENODEF_13
1002
{
1000
HIER
1070
     0
1002
}
1002
{
1000
MANEDIT
1070
     0
1002
}
1002
{
1000
NOSEL
1070
     0
1002
}
1002
{
1000
BEHIND
1070
     0
1002
}
1002
{
1000
OTHER
1070
     0
1002
}
1002
{
1000
REACTOR
1002
}
1001
GENIUS_GENOBJ-N-REC_13
1002
{
1000
OWNER
1000
GEN
1002
}
  0
LINE
  5
18F9F
  8
OS
 10
168.19703412796159
 20
664.10574394563082
 30
0.0
 11
168.19703412796159
 21
673.60574394563082
 31
0.0
1001
GENIUS_GENREC_14
1002
{
1000
PYDIR
1011
168.19703412796159
1021
0.0
1031
0.0
1021
664.10574394563082
1031
0.0
1002
}
1002
{
1000
PXDIR
1011
270.69703412796162
1021
0.0
1031
0.0
1021
673.60574394563082
1031
0.0
1002
}
1002
{
1000
PORI
1011
168.19703412796159
1021
0.0
1031
0.0
1021
673.60574394563082
1031
0.0
1002
}
1002
{
1000
PINS
1011
168.19703412796159
1021
0.0
1031
0.0
1021
673.60574394563082
1031
0.0
1002
}
1002
{
1000
PINS2
1011
270.69703412796162
1021
0.0
1031
0.0
1021
664.10574394563082
1031
0.0
1002
}
1002
{
1000
C
1070
     1
1002
}
1001
GENIUS_GENODEF_13
1002
{
1000
HIER
1070
     0
1002
}
1002
{
1000
MANEDIT
1070
     0
1002
}
1002
{
1000
NOSEL
1070
     0
1002
}
1002
{
1000
BEHIND
1070
     0
1002
}
1002
{
1000
OTHER
1070
     0
1002
}
1002
{
1000
REACTOR
1002
}
1001
GENIUS_GENOBJ-N-REC_13
1002
{
1000
OWNER
1000
GEN
1002
}
  0
LINE
  5
18FA0
  8
SU
 10
270.69703412796162
 20
703.60574100736153
 30
0.0
 11
168.19703412796159
 21
703.60574100736153
 31
0.0
  0
LINE
  5
18FA2
  8
SU
 10
670.56596780949144
 20
332.98474875116239
 30
0.0
 11
670.56596780949144
 21
207.98474779943419
 31
0.0
  0
LINE
  5
18FA3
  8
SU
 10
705.56596780949121
 20
374.98474779943422
 30
0.0
 11
705.56596780949121
 21
207.98474779943419
 31
0.0
  0
LINE
  5
18FA4
  8
SU
 10
670.56596780949144
 20
210.98474779943419
 30
0.0
 11
705.56596780949121
 21
210.98474779943419
 31
0.0
  0
LINE
  5
18FA8
  8
SU
 10
785.56596780949167
 20
296.9847487511625
 30
0.0
 11
785.56596780949167
 21
207.9847477994341
 31
0.0
  0
LINE
  5
18FA9
  8
SU
 10
820.56596780949155
 20
332.98474875116239
 30
0.0
 11
820.56596780949155
 21
207.9847477994341
 31
0.0
  0
LINE
  5
18FAA
  8
SU
 10
785.56596780949167
 20
210.9847477994341
 30
0.0
 11
820.56596780949155
 21
210.9847477994341
 31
0.0
  0
LINE
  5
18FAE
  8
SU
 10
935.56596780949155
 20
296.9847487511625
 30
0.0
 11
935.56596780949155
 21
207.98474779943399
 31
0.0
  0
LINE
  5
18FAF
  8
SU
 10
900.56596780949155
 20
210.98474779943399
 30
0.0
 11
935.56596780949155
 21
210.98474779943399
 31
0.0
  0
LINE
  5
18FB3
  8
SU
 10
1050.565971806895
 20
260.9847487511625
 30
0.0
 11
1050.565971806895
 21
187.98474779943399
 31
0.0
  0
LINE
  5
18FB4
  8
SU
 10
900.56596780949155
 20
260.9847487511625
 30
0.0
 11
900.56596780949155
 21
187.98474779943399
 31
0.0
  0
LINE
  5
18FB5
  8
SU
 10
1050.565971806895
 20
190.98474779943399
 30
0.0
 11
900.56596780949155
 21
190.98474779943399
 31
0.0
  0
LINE
  5
18FB9
  8
SU
 10
546.56596780949235
 20
236.98474779943419
 30
0.0
 11
546.56596780949235
 21
167.98474779943399
 31
0.0
  0
LINE
  5
18FBA
  8
SU
 10
1059.565971806895
 20
236.98474779943419
 30
0.0
 11
1059.565971806895
 21
167.98474779943399
 31
0.0
  0
LINE
  5
18FBB
  8
SU
 10
546.56596780949235
 20
170.98474779943399
 30
0.0
 11
1059.565971806895
 21
170.98474779943399
 31
0.0
  0
LINE
  5
18FBD
  8
SU
 10
165.4470816945668
 20
126.183031098744
 30
0.0
 11
165.4470816945668
 21
161.17861459537539
 31
0.0
  0
LINE
  5
18FBE
  8
SU
 10
273.4470816945668
 20
126.183031098744
 30
0.0
 11
273.4470816945668
 21
161.17861459537539
 31
0.0
  0
LINE
  5
18FBF
  8
SU
 10
165.4470816945668
 20
158.17861459537539
 30
0.0
 11
273.4470816945668
 21
158.17861459537539
 31
0.0
  0
LINE
  5
18FC3
  8
SU
 10
330.94710719574499
 20
112.28300748772089
 30
0.0
 11
392.94710719574391
 21
112.28300748772089
 31
0.0
  0
LINE
  5
18FC4
  8
SU
 10
389.94710719574391
 20
124.28300748772089
 30
0.0
 11
389.94710719574391
 21
112.28300748772089
 31
0.0
  0
LINE
  5
18FC7
  8
SU
 10
177.24708169456699
 20
112.1354458223509
 30
0.0
 11
177.24708169456699
 21
88.283007487720909
 31
0.0
  0
LINE
  5
18FC8
  8
SU
 10
261.64708169456662
 20
111.98303109874369
 30
0.0
 11
261.64708169456662
 21
88.283007487720909
 31
0.0
  0
LINE
  5
18FC9
  8
SU
 10
177.24708169456699
 20
91.283007487720894
 30
0.0
 11
261.64708169456662
 21
91.283007487720894
 31
0.0
  0
LINE
  5
18FCD
  8
SU
 10
270.44708169456771
 20
126.8830310987443
 30
0.0
 11
352.9471071957451
 21
126.8830310987443
 31
0.0
  0
LINE
  5
18FCE
  8
SU
 10
349.94710719574499
 20
124.28300748772089
 30
0.0
 11
349.94710719574499
 21
126.8830310987443
 31
0.0
  0
LINE
  5
18FCF
  8
SU
 10
349.94710719574499
 20
126.8830310987443
 30
0.0
 11
349.9471071957451
 21
151.25636443207759
 31
0.0
  0
LINE
  5
18FD3
  8
SU
 10
369.94710719574402
 20
131.28300748772091
 30
0.0
 11
369.94710719574391
 21
124.28300748772089
 31
0.0
  0
LINE
  5
18FD6
  8
SU
 10
330.94710719574499
 20
124.28300748772089
 30
0.0
 11
392.94710719574391
 21
124.28300748772089
 31
0.0
  0
LINE
  5
18FD7
  8
SU
 10
389.94710719574402
 20
244.28300748772091
 30
0.0
 11
389.94710719574391
 21
124.28300748772089
 31
0.0
  0
LINE
  5
18FD9
  8
SU
 10
272.94704169456691
 20
131.28300748772091
 30
0.0
 11
372.94710719574402
 21
131.28300748772091
 31
0.0
  0
LINE
  5
18FDA
  8
SU
 10
369.94710719574402
 20
131.28300748772091
 30
0.0
 11
369.94710719574402
 21
244.28300748772091
 31
0.0
  0
LINE
  5
18FDD
  8
SU
 10
235.94703412796181
 20
594.17309281060989
 30
0.0
 11
235.94703412796181
 21
574.60574394563082
 31
0.0
  0
LINE
  5
18FDE
  8
SU
 10
238.9470416945683
 20
593.6057439456298
 30
0.0
 11
238.9470416945683
 21
574.60574394563082
 31
0.0
  0
LINE
  5
18FDF
  8
SU
 10
235.94703412796181
 20
577.60574394563082
 30
0.0
 11
238.9470416945683
 21
577.60574394563082
 31
0.0
  0
LINE
  5
18FE3
  8
SU
 10
199.94703412796181
 20
594.17309281060989
 30
0.0
 11
199.94703412796181
 21
574.60574394563082
 31
0.0
  0
LINE
  5
18FE4
  8
SU
 10
202.9470416945683
 20
593.6057439456298
 30
0.0
 11
202.9470416945683
 21
574.60574394563082
 31
0.0
  0
LINE
  5
18FE5
  8
SU
 10
199.94703412796181
 20
577.60574394563082
 30
0.0
 11
202.9470416945683
 21
577.60574394563082
 31
0.0
  0
LINE
  5
18FE9
  8
SU
 10
276.7970328608717
 20
623.60574394563082
 30
0.0
 11
352.74616300795589
 21
623.60574394563082
 31
0.0
  0
LINE
  5
18FEA
  8
SU
 10
349.74616300795589
 20
627.10574442541451
 30
0.0
 11
349.74616300795589
 21
623.60574394563082
 31
0.0
  0
LINE
  5
18FEB
  8
SU
 10
349.74616300795589
 20
623.60574394563082
 30
0.0
 11
349.74616300795589
 21
599.23241061229749
 31
0.0
  0
LINE
  5
18FEF
  8
SU
 10
275.99703412796168
 20
636.60574394563093
 30
0.0
 11
372.99160466548233
 21
636.60574394563093
 31
0.0
  0
LINE
  5
18FF0
  8
SU
 10
369.99160466548238
 20
664.10574394563105
 30
0.0
 11
369.99160466548233
 21
636.60574394563093
 31
0.0
  0
LINE
  5
18FF4
  8
SU
 10
369.94710719574391
 20
636.60574394563093
 30
0.0
 11
369.94710719574391
 21
627.10574442541451
 31
0.0
  0
LINE
  5
18FF7
  8
SU
 10
173.44704169463921
 20
327.10574394672631
 30
0.0
 11
173.44704169463921
 21
292.1057439467258
 31
0.0
  0
LINE
  5
18FF8
  8
SU
 10
265.44704169456833
 20
327.1057439467258
 30
0.0
 11
265.44704169456833
 21
292.1057439467258
 31
0.0
  0
LINE
  5
18FF9
  8
SU
 10
173.44704169463921
 20
295.10574394672591
 30
0.0
 11
265.44704169456833
 21
295.10574394672591
 31
0.0
  0
LINE
  5
18FFD
  8
SU
 10
261.74706429112672
 20
333.10573902738793
 30
0.0
 11
352.9471071957451
 21
333.10573902738793
 31
0.0
  0
LINE
  5
18FFE
  8
SU
 10
349.94710719574499
 20
333.10573902738793
 30
0.0
 11
349.94710719574499
 21
328.10574394672591
 31
0.0
  0
LINE
  5
18FFF
  8
SU
 10
349.94710719574499
 20
328.10574394672591
 30
0.0
 11
349.94710719574499
 21
312.03241061339253
 31
0.0
  0
LINE
  5
19003
  8
SU
 10
369.94710719574391
 20
337.1057439467258
 30
0.0
 11
369.94710719574391
 21
328.10574394672591
 31
0.0
  0
LINE
  5
19006
  8
SU
 10
330.94710719574499
 20
664.10574394563105
 30
0.0
 11
392.94593836514241
 21
664.10574394563105
 31
0.0
  0
LINE
  5
19007
  8
SU
 10
330.94710719574499
 20
328.10574394672591
 30
0.0
 11
392.9459383651423
 21
328.1057439467258
 31
0.0
  0
LINE
  5
19008
  8
SU
 10
389.94593836514241
 20
664.10574394563105
 30
0.0
 11
389.9459383651423
 21
328.1057439467258
 31
0.0
  0
LINE
  5
1900A
  8
SU
 10
272.94704169456833
 20
337.1057439467258
 30
0.0
 11
372.9471071957438
 21
337.1057439467258
 31
0.0
  0
LINE
  5
1900B
  8
SU
 10
272.94703291288619
 20
627.10574520988223
 30
0.0
 11
372.9471071957438
 21
627.10574520988223
 31
0.0
  0
LINE
  5
1900C
  8
SU
 10
369.9471071957438
 20
337.1057439467258
 30
0.0
 11
369.94710719574391
 21
627.10574520988223
 31
0.0
  0
TEXT
  5
19010
  8
SU
 10
707.43763647486026
 20
480.2847477994344
 30
0.0
 40
7.0
  1
9
 41
0.8299999999999999
  0
TEXT
  5
19012
  8
SU
 10
871.09030514022879
 20
480.2847477994344
 30
0.0
 40
7.0
  1
有効開口
 41
0.8299999999999999
  0
TEXT
  5
19015
  8
SU
 10
1052.4376384735619
 20
192.2847477994338
 30
0.0
 40
7.0
  1
9
 41
0.8299999999999999
  0
TEXT
  5
19017
  8
SU
 10
249.9137007946284
 20
578.90574394563066
 30
0.0
 40
7.0
  1
33
 41
0.8299999999999999
  0
TEXT
  5
19018
  8
SU
 10
213.9137007946284
 20
578.90574394563066
 30
0.0
 40
7.0
  1
33
 41
0.8299999999999999
  0
TEXT
  5
19019
  8
SU
 10
177.9137007946284
 20
578.90574394563066
 30
0.0
 40
7.0
  1
33
 41
0.8299999999999999
  0
TEXT
  5
1901A
  8
SU
 10
286.3670341279618
 20
704.90574100736148
 30
0.0
 40
7.0
  1
5.6
 41
0.8299999999999999
  0
TEXT
  5
1901D
  8
SU
 10
134.04370931296151
 20
159.4786145953754
 30
0.0
 40
7.0
  1
7.5
 41
0.8299999999999999
  0
TEXT
  5
1901F
  8
SU
 10
748.06596780949133
 20
324.9814144661035
 30
0.0
 40
7.0
  1
3
 50
90.0
 41
0.8299999999999999
  0
TEXT
  5
19020
  8
SU
 10
748.26596780949126
 20
344.9514144661037
 30
0.0
 40
7.0
  1
33
 50
90.0
 41
0.8299999999999999
  0
TEXT
  5
19022
  8
SU
 10
748.26596780949126
 20
272.95141494196662
 30
0.0
 40
7.0
  1
33
 50
90.0
 41
0.8299999999999999
  0
TEXT
  5
19025
  8
SU
 10
748.26596780949126
 20
293.71808160863321
 30
0.0
 40
7.0
  1
3
 50
90.0
 41
0.8299999999999999
  0
TEXT
  5
19026
  8
SU
 10
748.26596780949126
 20
308.95141446610381
 30
0.0
 40
7.0
  1
33
 50
90.0
 41
0.8299999999999999
  0
TEXT
  5
19029
  8
SU
 10
160.4987088370975
 20
72.583007487869949
 30
0.0
 40
7.0
  1
17
 41
0.8299999999999999
  0
TEXT
  5
1902B
  8
SU
 10
214.0520416945665
 20
72.583007487720906
 30
0.0
 40
7.0
  1
89
 41
0.8299999999999999
  0
TEXT
  5
1902E
  8
SU
 10
128.5103759796296
 20
296.40574394672592
 30
0.0
 40
7.0
  1
15.5
 41
0.8299999999999999
  0
TEXT
  5
19030
  8
SU
 10
128.5103759796296
 20
704.90574100736148
 30
0.0
 40
7.0
  1
10.3
 41
0.8299999999999999
  0
TEXT
  5
19033
  8
SU
 10
134.0437093129629
 20
598.90574394562975
 30
0.0
 40
7.0
  1
4.7
 41
0.8299999999999999
  0
TEXT
  5
19036
  8
SU
 10
206.582010612826
 20
598.90574394563066
 30
0.0
 40
7.0
  1
113.7
 41
0.8299999999999999
  0
TEXT
  5
19038
  8
SU
 10
286.3670429096436
 20
578.90574394563066
 30
0.0
 40
7.0
  1
4.4
 41
0.8299999999999999
  0
TEXT
  5
1903B
  8
SU
 10
748.26596780949126
 20
368.85641446610242
 30
0.0
 40
7.0
  1
9
 50
90.0
 41
0.8299999999999999
  0
TEXT
  5
1903E
  8
SU
 10
159.81870883709891
 20
578.90574394562975
 30
0.0
 40
7.0
  1
9
 41
0.8299999999999999
  0
TEXT
  5
19041
  8
SU
 10
206.58203412796169
 20
704.90574100736148
 30
0.0
 40
7.0
  1
102.5
 41
0.8299999999999999
  0
TEXT
  5
19042
  8
SU
 10
678.65930114282457
 20
223.95141446610091
 30
0.0
 40
7.0
  1
(25)
 41
0.8299999999999999
  0
TEXT
  5
19043
  8
SU
 10
682.5326344761578
 20
212.2847477994342
 30
0.0
 40
7.0
  1
35
 41
0.8299999999999999
  0
TEXT
  5
19046
  8
SU
 10
793.65930114282503
 20
223.9514144661008
 30
0.0
 40
7.0
  1
(25)
 41
0.8299999999999999
  0
TEXT
  5
19047
  8
SU
 10
797.53263447615825
 20
212.28474779943409
 30
0.0
 40
7.0
  1
35
 41
0.8299999999999999
  0
TEXT
  5
1904A
  8
SU
 10
908.65930114282503
 20
223.9514144661006
 30
0.0
 40
7.0
  1
(25)
 41
0.8299999999999999
  0
TEXT
  5
1904B
  8
SU
 10
912.53263447615825
 20
212.284747799434
 30
0.0
 40
7.0
  1
35
 41
0.8299999999999999
  0
TEXT
  5
1904E
  8
SU
 10
969.06430314152703
 20
192.284747799434
 30
0.0
 40
7.0
  1
DW
 41
0.8299999999999999
  0
TEXT
  5
19051
  8
SU
 10
798.32311266533668
 20
172.284747799434
 30
0.0
 40
10.0
  1
W
 41
0.8299999999999999
  0
TEXT
  5
19052
  8
SU
 10
210.7320816945668
 20
159.4786145953754
 30
0.0
 40
7.0
  1
108
 41
0.8299999999999999
  0
TEXT
  5
19055
  8
SU
 10
388.6471071957439
 20
112.3346741543876
 30
0.0
 40
7.0
  1
12
 50
90.0
 41
0.8299999999999999
  0
TEXT
  5
19057
  8
SU
 10
209.62537502789971
 20
92.583007487720906
 30
0.0
 40
7.0
  1
84.4
 41
0.8299999999999999
  0
TEXT
  5
1905A
  8
SU
 10
348.64710719574498
 20
136.9530310987443
 30
0.0
 40
7.0
  1
2.6
 50
90.0
 41
0.8299999999999999
  0
TEXT
  5
1905D
  8
SU
 10
368.6471071957439
 20
125.0163408210542
 30
0.0
 40
7.0
  1
7
 50
90.0
 41
0.8299999999999999
  0
TEXT
  5
1905F
  8
SU
 10
388.6471071957439
 20
205.45567678127901
 30
0.0
 40
10.0
  1
H
 50
90.0
 41
0.8299999999999999
  0
TEXT
  5
19060
  8
SU
 10
368.6471071957439
 20
203.51384858560951
 30
0.0
 40
7.0
  1
DH
 50
90.0
 41
0.8299999999999999
  0
TEXT
  5
19064
  8
SU
 10
241.41703412796161
 20
569.10574394563082
 30
0.0
 40
7.0
  1
3
 41
0.8299999999999999
  0
TEXT
  5
19067
  8
SU
 10
205.41703412796161
 20
569.10574394563082
 30
0.0
 40
7.0
  1
3
 41
0.8299999999999999
  0
TEXT
  5
19068
  8
SU
 10
348.44616300795582
 20
599.7024106122974
 30
0.0
 40
7.0
  1
3.5
 50
90.0
 41
0.8299999999999999
  0
TEXT
  5
1906B
  8
SU
 10
368.69160466548232
 20
640.89239455454572
 30
0.0
 40
7.0
  1
27.5
 50
90.0
 41
0.8299999999999999
  0
TEXT
  5
1906E
  8
SU
 10
368.64710719574379
 20
603.20241109208109
 30
0.0
 40
7.0
  1
9.5
 50
90.0
 41
0.8299999999999999
  0
TEXT
  5
1906F
  8
SU
 10
213.91370836127041
 20
296.40574394672592
 30
0.0
 40
7.0
  1
92
 41
0.8299999999999999
  0
TEXT
  5
19072
  8
SU
 10
348.64710719574498
 20
312.50241061339261
 30
0.0
 40
7.0
  1
5
 50
90.0
 41
0.8299999999999999
  0
TEXT
  5
19075
  8
SU
 10
368.64710719574379
 20
329.97741061339252
 30
0.0
 40
7.0
  1
9
 50
90.0
 41
0.8299999999999999
  0
TEXT
  5
19077
  8
SU
 10
388.64593836514229
 20
478.01217806836269
 30
0.0
 40
10.0
  1
H
 50
90.0
 41
0.8299999999999999
  0
TEXT
  5
19078
  8
SU
 10
368.64710719574379
 20
476.15741124497072
 30
0.0
 40
7.0
  1
DH
 50
90.0
 41
0.8299999999999999
  0
ARC
  5
1907B
  8
SU
 10
705.56596780949144
 20
478.98474779943439
 30
0.0
 40
0.6000000000000229
 50
0.0
 51
180.0
  0
ARC
  5
1907C
  8
SU
 10
705.56596780949144
 20
478.98474779943439
 30
0.0
 40
0.6000000000000229
 50
180.0
 51
0.0
  0
ARC
  5
1907D
  8
SU
 10
714.56597180689573
 20
478.98474779943439
 30
0.0
 40
0.6000000000000229
 50
0.0
 51
180.0
  0
ARC
  5
1907E
  8
SU
 10
714.56597180689573
 20
478.98474779943439
 30
0.0
 40
0.6000000000000229
 50
180.0
 51
0.0
  0
ARC
  5
1907F
  8
SU
 10
1053.565971806895
 20
478.98474779943439
 30
0.0
 40
0.5999999999999091
 50
180.0
 51
0.0
  0
ARC
  5
19080
  8
SU
 10
1053.565971806895
 20
478.98474779943439
 30
0.0
 40
0.5999999999999091
 50
0.0
 51
180.0
  0
ARC
  5
19081
  8
SU
 10
1059.565971806895
 20
190.98474779943379
 30
0.0
 40
0.5999999999999091
 50
180.0
 51
0.0
  0
ARC
  5
19082
  8
SU
 10
1059.565971806895
 20
190.98474779943379
 30
0.0
 40
0.5999999999999091
 50
0.0
 51
180.0
  0
ARC
  5
19083
  8
SU
 10
276.29703412796181
 20
703.60574100736153
 30
0.0
 40
0.6000000000000229
 50
180.0
 51
0.0
  0
ARC
  5
19084
  8
SU
 10
276.29703412796181
 20
703.60574100736153
 30
0.0
 40
0.6000000000000229
 50
0.0
 51
180.0
  0
ARC
  5
19085
  8
SU
 10
270.69703412796162
 20
703.60574100736153
 30
0.0
 40
0.6000000000000229
 50
0.0
 51
180.0
  0
ARC
  5
19086
  8
SU
 10
270.69703412796162
 20
703.60574100736153
 30
0.0
 40
0.6000000000000229
 50
180.0
 51
0.0
  0
ARC
  5
19087
  8
SU
 10
157.9470426462949
 20
158.17861459537539
 30
0.0
 40
0.5999999999999944
 50
0.0
 51
180.0
  0
ARC
  5
19088
  8
SU
 10
157.9470426462949
 20
158.17861459537539
 30
0.0
 40
0.5999999999999944
 50
180.0
 51
0.0
  0
ARC
  5
19089
  8
SU
 10
749.56596780949144
 20
333.984747799437
 30
0.0
 40
0.6000000000000229
 50
90.0
 51
270.0
  0
ARC
  5
1908A
  8
SU
 10
749.56596780949144
 20
333.984747799437
 30
0.0
 40
0.6000000000000229
 50
270.0
 51
90.0
  0
ARC
  5
1908B
  8
SU
 10
749.56596780949144
 20
261.9847487511625
 30
0.0
 40
0.6000000000000229
 50
90.0
 51
270.0
  0
ARC
  5
1908C
  8
SU
 10
749.56596780949144
 20
261.9847487511625
 30
0.0
 40
0.6000000000000229
 50
270.0
 51
90.0
  0
ARC
  5
1908D
  8
SU
 10
749.56596780949144
 20
294.98474779943712
 30
0.0
 40
0.6000000000000229
 50
270.0
 51
90.0
  0
ARC
  5
1908E
  8
SU
 10
749.56596780949144
 20
294.98474779943712
 30
0.0
 40
0.6000000000000229
 50
90.0
 51
270.0
  0
ARC
  5
1908F
  8
SU
 10
749.56596780949144
 20
297.98474779943717
 30
0.0
 40
0.6000000000000229
 50
90.0
 51
270.0
  0
ARC
  5
19090
  8
SU
 10
749.56596780949144
 20
297.98474779943717
 30
0.0
 40
0.6000000000000229
 50
270.0
 51
90.0
  0
ARC
  5
19091
  8
SU
 10
749.56596780949144
 20
330.98474779943672
 30
0.0
 40
0.6000000000000229
 50
270.0
 51
90.0
  0
ARC
  5
19092
  8
SU
 10
749.56596780949144
 20
330.98474779943672
 30
0.0
 40
0.6000000000000229
 50
90.0
 51
270.0
  0
ARC
  5
19093
  8
SU
 10
157.9470426462949
 20
71.283007487869952
 30
0.0
 40
0.5999999999999944
 50
0.0
 51
180.0
  0
ARC
  5
19094
  8
SU
 10
157.9470426462949
 20
71.283007487869952
 30
0.0
 40
0.5999999999999944
 50
180.0
 51
0.0
  0
ARC
  5
19095
  8
SU
 10
263.94704169456691
 20
71.283007487720894
 30
0.0
 40
0.6000000000000229
 50
180.0
 51
0.0
  0
ARC
  5
19096
  8
SU
 10
263.94704169456691
 20
71.283007487720894
 30
0.0
 40
0.6000000000000229
 50
0.0
 51
180.0
  0
ARC
  5
19097
  8
SU
 10
174.94704169456691
 20
71.283007487720894
 30
0.0
 40
0.5999999999999944
 50
0.0
 51
180.0
  0
ARC
  5
19098
  8
SU
 10
174.94704169456691
 20
71.283007487720894
 30
0.0
 40
0.5999999999999944
 50
180.0
 51
0.0
  0
ARC
  5
19099
  8
SU
 10
157.94704264629621
 20
295.10574394672591
 30
0.0
 40
0.5999999999999944
 50
0.0
 51
180.0
  0
ARC
  5
1909A
  8
SU
 10
157.94704264629621
 20
295.10574394672591
 30
0.0
 40
0.5999999999999944
 50
180.0
 51
0.0
  0
ARC
  5
1909B
  8
SU
 10
157.94704264629621
 20
703.60574100736153
 30
0.0
 40
0.5999999999999944
 50
0.0
 51
180.0
  0
ARC
  5
1909C
  8
SU
 10
157.94704264629621
 20
703.60574100736153
 30
0.0
 40
0.5999999999999944
 50
180.0
 51
0.0
  0
ARC
  5
1909D
  8
SU
 10
168.19703412796159
 20
703.60574100736153
 30
0.0
 40
0.5999999999999944
 50
180.0
 51
0.0
  0
ARC
  5
1909E
  8
SU
 10
168.19703412796159
 20
703.60574100736153
 30
0.0
 40
0.5999999999999944
 50
0.0
 51
180.0
  0
ARC
  5
1909F
  8
SU
 10
157.94704264629621
 20
597.6057439456298
 30
0.0
 40
0.5999999999999944
 50
0.0
 51
180.0
  0
ARC
  5
190A0
  8
SU
 10
157.94704264629621
 20
597.6057439456298
 30
0.0
 40
0.5999999999999944
 50
180.0
 51
0.0
  0
ARC
  5
190A1
  8
SU
 10
162.59703412796171
 20
597.6057439456298
 30
0.0
 40
0.5999999999999944
 50
180.0
 51
0.0
  0
ARC
  5
190A2
  8
SU
 10
162.59703412796171
 20
597.6057439456298
 30
0.0
 40
0.5999999999999944
 50
0.0
 51
180.0
  0
ARC
  5
190A3
  8
SU
 10
276.29698709769031
 20
597.60574394563082
 30
0.0
 40
0.6000000000000229
 50
180.0
 51
0.0
  0
ARC
  5
190A4
  8
SU
 10
276.29698709769031
 20
597.60574394563082
 30
0.0
 40
0.6000000000000229
 50
0.0
 51
180.0
  0
ARC
  5
190A5
  8
SU
 10
276.29704290964349
 20
577.60574394563082
 30
0.0
 40
0.6000000000000229
 50
180.0
 51
0.0
  0
ARC
  5
190A6
  8
SU
 10
276.29704290964349
 20
577.60574394563082
 30
0.0
 40
0.6000000000000229
 50
0.0
 51
180.0
  0
ARC
  5
190A7
  8
SU
 10
271.94704169456833
 20
577.60574394563082
 30
0.0
 40
0.6000000000000229
 50
0.0
 51
180.0
  0
ARC
  5
190A8
  8
SU
 10
271.94704169456833
 20
577.60574394563082
 30
0.0
 40
0.6000000000000229
 50
180.0
 51
0.0
  0
ARC
  5
190A9
  8
SU
 10
749.56596780949144
 20
375.98474779943422
 30
0.0
 40
0.6000000000000229
 50
270.0
 51
90.0
  0
ARC
  5
190AA
  8
SU
 10
749.56596780949144
 20
375.98474779943422
 30
0.0
 40
0.6000000000000229
 50
90.0
 51
270.0
  0
ARC
  5
190AB
  8
SU
 10
749.56596780949144
 20
366.984747799437
 30
0.0
 40
0.6000000000000229
 50
90.0
 51
270.0
  0
ARC
  5
190AC
  8
SU
 10
749.56596780949144
 20
366.984747799437
 30
0.0
 40
0.6000000000000229
 50
270.0
 51
90.0
  0
ARC
  5
190AD
  8
SU
 10
157.94704264629621
 20
577.60574394562991
 30
0.0
 40
0.5999999999999944
 50
0.0
 51
180.0
  0
ARC
  5
190AE
  8
SU
 10
157.94704264629621
 20
577.60574394562991
 30
0.0
 40
0.5999999999999944
 50
180.0
 51
0.0
  0
ARC
  5
190AF
  8
SU
 10
166.94704169456821
 20
577.60574394562991
 30
0.0
 40
0.5999999999999944
 50
180.0
 51
0.0
  0
ARC
  5
190B0
  8
SU
 10
166.94704169456821
 20
577.60574394562991
 30
0.0
 40
0.5999999999999944
 50
0.0
 51
180.0
  0
ARC
  5
190B1
  8
SU
 10
705.56596780949121
 20
210.98474779943419
 30
0.0
 40
0.6000000000000229
 50
180.0
 51
0.0
  0
ARC
  5
190B2
  8
SU
 10
705.56596780949121
 20
210.98474779943419
 30
0.0
 40
0.6000000000000229
 50
0.0
 51
180.0
  0
ARC
  5
190B3
  8
SU
 10
670.56596780949144
 20
210.98474779943419
 30
0.0
 40
0.6000000000000229
 50
0.0
 51
180.0
  0
ARC
  5
190B4
  8
SU
 10
670.56596780949144
 20
210.98474779943419
 30
0.0
 40
0.6000000000000229
 50
180.0
 51
0.0
  0
ARC
  5
190B5
  8
SU
 10
820.56596780949155
 20
210.9847477994341
 30
0.0
 40
0.6000000000000229
 50
180.0
 51
0.0
  0
ARC
  5
190B6
  8
SU
 10
820.56596780949155
 20
210.9847477994341
 30
0.0
 40
0.6000000000000229
 50
0.0
 51
180.0
  0
ARC
  5
190B7
  8
SU
 10
785.56596780949167
 20
210.9847477994341
 30
0.0
 40
0.6000000000000229
 50
0.0
 51
180.0
  0
ARC
  5
190B8
  8
SU
 10
785.56596780949167
 20
210.9847477994341
 30
0.0
 40
0.6000000000000229
 50
180.0
 51
0.0
  0
ARC
  5
190B9
  8
SU
 10
935.56596780949155
 20
210.98474779943399
 30
0.0
 40
0.6000000000000229
 50
180.0
 51
0.0
  0
ARC
  5
190BA
  8
SU
 10
935.56596780949155
 20
210.98474779943399
 30
0.0
 40
0.6000000000000229
 50
0.0
 51
180.0
  0
ARC
  5
190BB
  8
SU
 10
900.56596780949155
 20
210.98474779943399
 30
0.0
 40
0.6000000000000229
 50
0.0
 51
180.0
  0
ARC
  5
190BC
  8
SU
 10
900.56596780949155
 20
210.98474779943399
 30
0.0
 40
0.6000000000000229
 50
180.0
 51
0.0
  0
ARC
  5
190BD
  8
SU
 10
900.56596780949155
 20
190.98474779943399
 30
0.0
 40
0.6000000000000229
 50
0.0
 51
180.0
  0
ARC
  5
190BE
  8
SU
 10
900.56596780949155
 20
190.98474779943399
 30
0.0
 40
0.6000000000000229
 50
180.0
 51
0.0
  0
ARC
  5
190BF
  8
SU
 10
1050.565971806895
 20
190.98474779943399
 30
0.0
 40
0.5999999999999091
 50
180.0
 51
0.0
  0
ARC
  5
190C0
  8
SU
 10
1050.565971806895
 20
190.98474779943399
 30
0.0
 40
0.5999999999999091
 50
0.0
 51
180.0
  0
ARC
  5
190C1
  8
SU
 10
273.4470816945668
 20
158.17861459537539
 30
0.0
 40
0.6000000000000229
 50
180.0
 51
0.0
  0
ARC
  5
190C2
  8
SU
 10
273.4470816945668
 20
158.17861459537539
 30
0.0
 40
0.6000000000000229
 50
0.0
 51
180.0
  0
ARC
  5
190C3
  8
SU
 10
165.4470816945668
 20
158.17861459537539
 30
0.0
 40
0.5999999999999944
 50
0.0
 51
180.0
  0
ARC
  5
190C4
  8
SU
 10
165.4470816945668
 20
158.17861459537539
 30
0.0
 40
0.5999999999999944
 50
180.0
 51
0.0
  0
ARC
  5
190C5
  8
SU
 10
389.94710719574391
 20
112.28300748772089
 30
0.0
 40
0.5999999999999944
 50
90.0
 51
270.0
  0
ARC
  5
190C6
  8
SU
 10
389.94710719574391
 20
112.28300748772089
 30
0.0
 40
0.5999999999999944
 50
270.0
 51
90.0
  0
ARC
  5
190C7
  8
SU
 10
261.64708169456662
 20
91.283007487720894
 30
0.0
 40
0.6000000000000229
 50
180.0
 51
0.0
  0
ARC
  5
190C8
  8
SU
 10
261.64708169456662
 20
91.283007487720894
 30
0.0
 40
0.6000000000000229
 50
0.0
 51
180.0
  0
ARC
  5
190C9
  8
SU
 10
177.24708169456699
 20
91.283007487720894
 30
0.0
 40
0.5999999999999944
 50
0.0
 51
180.0
  0
ARC
  5
190CA
  8
SU
 10
177.24708169456699
 20
91.283007487720894
 30
0.0
 40
0.5999999999999944
 50
180.0
 51
0.0
  0
ARC
  5
190CB
  8
SU
 10
349.94710719574499
 20
126.8830310987443
 30
0.0
 40
0.5999999999999944
 50
270.0
 51
90.0
  0
ARC
  5
190CC
  8
SU
 10
349.94710719574499
 20
126.8830310987443
 30
0.0
 40
0.5999999999999944
 50
90.0
 51
270.0
  0
ARC
  5
190CD
  8
SU
 10
349.94710719574499
 20
124.28300748772089
 30
0.0
 40
0.5999999999999944
 50
90.0
 51
270.0
  0
ARC
  5
190CE
  8
SU
 10
349.94710719574499
 20
124.28300748772089
 30
0.0
 40
0.5999999999999944
 50
270.0
 51
90.0
  0
ARC
  5
190CF
  8
SU
 10
369.94710719574391
 20
124.28300748772089
 30
0.0
 40
0.5999999999999944
 50
90.0
 51
270.0
  0
ARC
  5
190D0
  8
SU
 10
369.94710719574391
 20
124.28300748772089
 30
0.0
 40
0.5999999999999944
 50
270.0
 51
90.0
  0
ARC
  5
190D1
  8
SU
 10
369.94710719574402
 20
131.28300748772091
 30
0.0
 40
0.5999999999999944
 50
90.0
 51
270.0
  0
ARC
  5
190D2
  8
SU
 10
369.94710719574402
 20
131.28300748772091
 30
0.0
 40
0.5999999999999944
 50
270.0
 51
90.0
  0
ARC
  5
190D3
  8
SU
 10
238.9470416945683
 20
577.60574394563082
 30
0.0
 40
0.5999999999999944
 50
180.0
 51
0.0
  0
ARC
  5
190D4
  8
SU
 10
238.9470416945683
 20
577.60574394563082
 30
0.0
 40
0.5999999999999944
 50
0.0
 51
180.0
  0
ARC
  5
190D5
  8
SU
 10
235.94703412796181
 20
577.60574394563082
 30
0.0
 40
0.5999999999999944
 50
0.0
 51
180.0
  0
ARC
  5
190D6
  8
SU
 10
235.94703412796181
 20
577.60574394563082
 30
0.0
 40
0.5999999999999944
 50
180.0
 51
0.0
  0
ARC
  5
190D7
  8
SU
 10
202.9470416945683
 20
577.60574394563082
 30
0.0
 40
0.5999999999999944
 50
180.0
 51
0.0
  0
ARC
  5
190D8
  8
SU
 10
202.9470416945683
 20
577.60574394563082
 30
0.0
 40
0.5999999999999944
 50
0.0
 51
180.0
  0
ARC
  5
190D9
  8
SU
 10
199.94703412796181
 20
577.60574394563082
 30
0.0
 40
0.5999999999999944
 50
0.0
 51
180.0
  0
ARC
  5
190DA
  8
SU
 10
199.94703412796181
 20
577.60574394563082
 30
0.0
 40
0.5999999999999944
 50
180.0
 51
0.0
  0
ARC
  5
190DB
  8
SU
 10
349.74616300795589
 20
623.60574394563082
 30
0.0
 40
0.6000000000000229
 50
90.0
 51
270.0
  0
ARC
  5
190DC
  8
SU
 10
349.74616300795589
 20
623.60574394563082
 30
0.0
 40
0.6000000000000229
 50
270.0
 51
90.0
  0
ARC
  5
190DD
  8
SU
 10
349.74616300795589
 20
627.10574442541451
 30
0.0
 40
0.6000000000000229
 50
270.0
 51
90.0
  0
ARC
  5
190DE
  8
SU
 10
349.74616300795589
 20
627.10574442541451
 30
0.0
 40
0.6000000000000229
 50
90.0
 51
270.0
  0
ARC
  5
190DF
  8
SU
 10
369.99160466548233
 20
636.60574394563093
 30
0.0
 40
0.6000000000000229
 50
90.0
 51
270.0
  0
ARC
  5
190E0
  8
SU
 10
369.99160466548233
 20
636.60574394563093
 30
0.0
 40
0.6000000000000229
 50
270.0
 51
90.0
  0
ARC
  5
190E1
  8
SU
 10
369.99160466548238
 20
664.10574394563105
 30
0.0
 40
0.6000000000000229
 50
270.0
 51
90.0
  0
ARC
  5
190E2
  8
SU
 10
369.99160466548238
 20
664.10574394563105
 30
0.0
 40
0.6000000000000229
 50
90.0
 51
270.0
  0
ARC
  5
190E3
  8
SU
 10
265.44704169456833
 20
295.10574394672591
 30
0.0
 40
0.6000000000000229
 50
180.0
 51
0.0
  0
ARC
  5
190E4
  8
SU
 10
265.44704169456833
 20
295.10574394672591
 30
0.0
 40
0.6000000000000229
 50
0.0
 51
180.0
  0
ARC
  5
190E5
  8
SU
 10
173.44704169463921
 20
295.10574394672591
 30
0.0
 40
0.5999999999999944
 50
0.0
 51
180.0
  0
ARC
  5
190E6
  8
SU
 10
173.44704169463921
 20
295.10574394672591
 30
0.0
 40
0.5999999999999944
 50
180.0
 51
0.0
  0
ARC
  5
190E7
  8
SU
 10
349.94710719574499
 20
328.10574394672591
 30
0.0
 40
0.6000000000000229
 50
90.0
 51
270.0
  0
ARC
  5
190E8
  8
SU
 10
349.94710719574499
 20
328.10574394672591
 30
0.0
 40
0.6000000000000229
 50
270.0
 51
90.0
  0
ARC
  5
190E9
  8
SU
 10
349.94710719574499
 20
333.10573902738793
 30
0.0
 40
0.6000000000000229
 50
270.0
 51
90.0
  0
ARC
  5
190EA
  8
SU
 10
349.94710719574499
 20
333.10573902738793
 30
0.0
 40
0.6000000000000229
 50
90.0
 51
270.0
  0
ARC
  5
190EB
  8
SU
 10
369.94710719574391
 20
328.10574394672591
 30
0.0
 40
0.6000000000000229
 50
90.0
 51
270.0
  0
ARC
  5
190EC
  8
SU
 10
369.94710719574391
 20
328.10574394672591
 30
0.0
 40
0.6000000000000229
 50
270.0
 51
90.0
  0
ARC
  5
190ED
  8
SU
 10
369.94710719574391
 20
627.10574520988223
 30
0.0
 40
0.6000000000000229
 50
270.0
 51
90.0
  0
ARC
  5
190EE
  8
SU
 10
369.94710719574391
 20
627.10574520988223
 30
0.0
 40
0.6000000000000229
 50
90.0
 51
270.0
  0
ARC
  5
190EF
  8
SU
 10
369.9471071957438
 20
337.1057439467258
 30
0.0
 40
0.6000000000000229
 50
90.0
 51
270.0
  0
ARC
  5
190F0
  8
SU
 10
369.9471071957438
 20
337.1057439467258
 30
0.0
 40
0.6000000000000229
 50
270.0
 51
90.0
  0
ENDSEC
  0
EOF
