  0
SECTION
  2
HEADER
  9
$ACADVER
  1
AC1009
  9
$INSBASE
 10
0.0
 20
0.0
 30
0.0
  9
$EXTMIN
 10
19.300000000000001
 20
16.25
 30
0.0
  9
$EXTMAX
 10
1165.5
 20
830.74999999999989
 30
0.0
  9
$LIMMIN
 10
0.0
 20
0.0
  9
$LIMMAX
 10
1189.0
 20
841.0
  9
$ORTHOMODE
 70
     0
  9
$REGENMODE
 70
     1
  9
$FILLMODE
 70
     1
  9
$QTEXTMODE
 70
     0
  9
$MIRRTEXT
 70
     0
  9
$DRAGMODE
 70
     2
  9
$LTSCALE
 40
1.0
  9
$OSMODE
 70
  3071
  9
$ATTMODE
 70
     1
  9
$TEXTSIZE
 40
12.5
  9
$TRACEWID
 40
1.0
  9
$TEXTSTYLE
  7
STANDARD
  9
$CLAYER
  8
0
  9
$CELTYPE
  6
BYLAYER
  9
$CECOLOR
 62
   256
  9
$DIMSCALE
 40
1.0
  9
$DIMASZ
 40
7.0
  9
$DIMEXO
 40
1.0
  9
$DIMDLI
 40
7.0
  9
$DIMRND
 40
0.0
  9
$DIMDLE
 40
0.0
  9
$DIMEXE
 40
3.0
  9
$DIMTP
 40
0.1
  9
$DIMTM
 40
0.1
  9
$DIMTXT
 40
7.0
  9
$DIMCEN
 40
0.0
  9
$DIMTSZ
 40
0.0
  9
$DIMTOL
 70
     0
  9
$DIMLIM
 70
     0
  9
$DIMTIH
 70
     0
  9
$DIMTOH
 70
     0
  9
$DIMSE1
 70
     0
  9
$DIMSE2
 70
     0
  9
$DIMTAD
 70
     1
  9
$DIMZIN
 70
     8
  9
$DIMBLK
  1
DOTSMALL
  9
$DIMASO
 70
     1
  9
$DIMSHO
 70
     1
  9
$DIMPOST
  1

  9
$DIMAPOST
  1
"
  9
$DIMALT
 70
     0
  9
$DIMALTD
 70
     2
  9
$DIMALTF
 40
0.0393701
  9
$DIMLFAC
 40
1.0
  9
$DIMTOFL
 70
     1
  9
$DIMTVP
 40
0.0
  9
$DIMTIX
 70
     0
  9
$DIMSOXD
 70
     0
  9
$DIMSAH
 70
     0
  9
$DIMBLK1
  1

  9
$DIMBLK2
  1

  9
$DIMSTYLE
  2
SANKYO
  9
$DIMCLRD
 70
   256
  9
$DIMCLRE
 70
   256
  9
$DIMCLRT
 70
   256
  9
$DIMTFAC
 40
0.71
  9
$DIMGAP
 40
1.3
  9
$LUNITS
 70
     2
  9
$LUPREC
 70
     4
  9
$SKETCHINC
 40
1.0
  9
$FILLETRAD
 40
0.4
  9
$AUNITS
 70
     0
  9
$AUPREC
 70
     0
  9
$MENU
  1
.
  9
$ELEVATION
 40
0.0
  9
$PELEVATION
 40
0.0
  9
$THICKNESS
 40
0.0
  9
$LIMCHECK
 70
     0
  9
$BLIPMODE
 70
     0
  9
$CHAMFERA
 40
10.0
  9
$CHAMFERB
 40
10.0
  9
$SKPOLY
 70
     0
  9
$TDCREATE
 40
2455110.561913426
  9
$TDUPDATE
 40
2459033.467501366
  9
$TDINDWG
 40
2.1155669329000002
  9
$TDUSRTIMER
 40
2.1153712847000001
  9
$USRTIMER
 70
     1
  9
$ANGBASE
 50
0.0
  9
$ANGDIR
 70
     0
  9
$PDMODE
 70
     0
  9
$PDSIZE
 40
0.0
  9
$PLINEWID
 40
0.0
  9
$COORDS
 70
     2
  9
$SPLFRAME
 70
     0
  9
$SPLINETYPE
 70
     6
  9
$SPLINESEGS
 70
     8
  9
$ATTDIA
 70
     1
  9
$ATTREQ
 70
     1
  9
$HANDLING
 70
     1
  9
$HANDSEED
  5
1A75E
  9
$SURFTAB1
 70
     6
  9
$SURFTAB2
 70
     6
  9
$SURFTYPE
 70
     6
  9
$SURFU
 70
     6
  9
$SURFV
 70
     6
  9
$UCSNAME
  2

  9
$UCSORG
 10
0.0
 20
0.0
 30
0.0
  9
$UCSXDIR
 10
1.0
 20
0.0
 30
0.0
  9
$UCSYDIR
 10
0.0
 20
1.0
 30
0.0
  9
$PUCSNAME
  2

  9
$PUCSORG
 10
0.0
 20
0.0
 30
0.0
  9
$PUCSXDIR
 10
1.0
 20
0.0
 30
0.0
  9
$PUCSYDIR
 10
0.0
 20
1.0
 30
0.0
  9
$USERI1
 70
     0
  9
$USERI2
 70
     0
  9
$USERI3
 70
     0
  9
$USERI4
 70
     0
  9
$USERI5
 70
     0
  9
$USERR1
 40
0.0
  9
$USERR2
 40
0.0
  9
$USERR3
 40
0.0
  9
$USERR4
 40
0.0
  9
$USERR5
 40
0.0
  9
$WORLDVIEW
 70
     1
  9
$SHADEDGE
 70
     3
  9
$SHADEDIF
 70
    70
  9
$TILEMODE
 70
     1
  9
$MAXACTVP
 70
    48
  9
$PLIMCHECK
 70
     0
  9
$PEXTMIN
 10
1.0000000000000000E+020
 20
1.0000000000000000E+020
 30
1.0000000000000000E+020
  9
$PEXTMAX
 10
-1.0000000000000000E+020
 20
-1.0000000000000000E+020
 30
-1.0000000000000000E+020
  9
$PLIMMIN
 10
0.0
 20
0.0
  9
$PLIMMAX
 10
420.0
 20
297.0
  9
$UNITMODE
 70
     0
  9
$VISRETAIN
 70
     1
  9
$PLINEGEN
 70
     0
  9
$PSLTSCALE
 70
     1
  0
ENDSEC
  0
SECTION
  2
TABLES
  0
TABLE
  2
VPORT
 70
     1
  0
VPORT
  2
*ACTIVE
 70
     0
 10
0.0
 20
0.0
 11
1.0
 21
1.0
 12
592.41359224346638
 22
423.48359113394218
 13
0.0
 23
0.0
 14
2.5
 24
2.5
 15
10.0
 25
10.0
 16
0.0
 26
0.0
 36
1.0
 17
0.0
 27
0.0
 37
0.0
 40
820.92390940123255
 41
2.050913838120104
 42
50.0
 43
0.0
 44
0.0
 50
0.0
 51
0.0
 71
     0
 72
   100
 73
     1
 74
     1
 75
     0
 76
     0
 77
     0
 78
     0
  0
ENDTAB
  0
TABLE
  2
LTYPE
 70
    26
  0
LTYPE
  2
CONTINUOUS
 70
     0
  3
Solid line
 72
    65
 73
     0
 40
0.0
  0
LTYPE
  2
CENTER
 70
     0
  3
Center ____ _ ____ _ ____ _ ____ _ ____ _ ____
 72
    65
 73
     4
 40
50.799999999999997
 49
31.75
 49
-6.3499999999999988
 49
6.3499999999999988
 49
-6.3499999999999988
  0
LTYPE
  2
CENTER2
 70
     0
  3
Center (.5x) ___ _ ___ _ ___ _ ___ _ ___ _ ___
 72
    65
 73
     4
 40
28.574999999999999
 49
19.050000000000001
 49
-3.1749999999999989
 49
3.1749999999999989
 49
-3.1749999999999989
  0
LTYPE
  2
PHANTOM
 70
     0
  3
Phantom ______  __  __  ______  __  __  ______
 72
    65
 73
     6
 40
63.5
 49
31.75
 49
-6.3499999999999988
 49
6.3499999999999988
 49
-6.3499999999999988
 49
6.3499999999999988
 49
-6.3499999999999988
  0
LTYPE
  2
PHANTOM2
 70
     0
  3
Phantom (.5x) ___ _ _ ___ _ _ ___ _ _ ___ _ _
 72
    65
 73
     6
 40
31.75
 49
15.875
 49
-3.1749999999999989
 49
3.1749999999999989
 49
-3.1749999999999989
 49
3.1749999999999989
 49
-3.1749999999999989
  0
LTYPE
  2
DASHED
 70
     0
  3
Dashed __ __ __ __ __ __ __ __ __ __ __ __ __ _
 72
    65
 73
     2
 40
19.050000000000001
 49
12.699999999999999
 49
-6.3499999999999988
  0
LTYPE
  2
DASHED2
 70
     0
  3
Dashed (.5x) _ _ _ _ _ _ _ _ _ _ _ _ _ _ _ _ _
 72
    65
 73
     2
 40
9.5249999999999986
 49
6.3499999999999988
 49
-3.1749999999999989
  0
LTYPE
  2
ZIGZAG
 70
     0
  3
Zig zag /\/\/\/\/\/\/\/\/\/\/\/\/\/\/\/\/\/\/\/
 72
    65
 73
     4
 40
20.32254
 49
0.00254
 49
-5.0800000000000001
 49
-10.16
 49
-5.0800000000000001
  0
LTYPE
  2
AM_ISO02W050
 70
     0
  3
__ __ __ __ __ __ __ __ __ __ __ __ __ __ __
 72
    65
 73
     2
 40
7.5
 49
6.0
 49
-1.5
  0
LTYPE
  2
AMCONSTR
 70
     0
  3
_______________________
 72
    65
 73
     2
 40
9999.0
 49
9999.0
 49
0.0
  0
LTYPE
  2
AMZIGZAG
 70
     0
  3
/\/-/\/-/\/-/\/-/\/-/\/
 72
    65
 73
     2
 40
11.0001
 49
0.0001
 49
-11.0
  0
LTYPE
  2
ACJISTGB
 70
     0
  3
__ . . __ . .
 72
    65
 73
     6
 40
9.0
 49
4.0
 49
-1.0
 49
1.0
 49
-1.0
 49
1.0
 49
-1.0
  0
LTYPE
  2
ACJISTGL
 70
     0
  3
_ _ _ _ _
 72
    65
 73
     2
 40
3.0
 49
2.0
 49
-1.0
  0
LTYPE
  2
ACISOWELD
 70
     0
  3
_ _ _ _ _
 72
    65
 73
     2
 40
2.0
 49
2.0
 49
-1.0
  0
LTYPE
  2
ACISOTGB
 70
     0
  3
__ . . __ . .
 72
    65
 73
     6
 40
9.0
 49
4.0
 49
-1.0
 49
1.0
 49
-1.0
 49
1.0
 49
-1.0
  0
LTYPE
  2
ACISOTGL
 70
     0
  3
_ _ _ _ _
 72
    65
 73
     2
 40
3.0
 49
2.0
 49
-1.0
  0
LTYPE
  2
HIDDEN
 70
     0
  3
Hidden __ __ __ __ __ __ __ __ __ __ __ __ __ _
 72
    65
 73
     2
 40
9.5249999999999986
 49
6.3499999999999988
 49
-3.1749999999999989
  0
LTYPE
  2
AM_ISO08W050
 70
     0
  3
____ . ____ . ____ . ____ . ____ . ____ . ____
 72
    65
 73
     4
 40
18.0
 49
12.0
 49
-1.5
 49
3.0
 49
-1.5
  0
LTYPE
  2
AM_ISO09W050
 70
     0
  3
_____ . . _____ . . _____ . . ____ .. ____
 72
    65
 73
     6
 40
22.5
 49
12.0
 49
-1.5
 49
3.0
 49
-1.5
 49
3.0
 49
-1.5
  0
LTYPE
  2
AM_ISO08W050X2
 70
     0
  3
__ . __ . __ . __ . __ . __
 72
    65
 73
     4
 40
9.0
 49
6.0
 49
-0.75
 49
1.5
 49
-0.75
  0
LTYPE
  2
AM_ISO02W050X2
 70
     0
  3
 _ _ _ _ _ _ _ _ _ _ _ _
 72
    65
 73
     2
 40
3.75
 49
3.0
 49
-0.75
  0
LTYPE
  2
DDM
 70
     0
  3
中点線
 72
    65
 73
     2
 40
3.0
 49
2.0
 49
-1.0
  0
LTYPE
  2
DD2
 70
     0
  3
二点鎖線
 72
    65
 73
     6
 40
12.0
 49
6.0
 49
-1.1999999999999991
 49
1.1999999999999991
 49
-1.1999999999999991
 49
1.1999999999999991
 49
-1.1999999999999991
  0
LTYPE
  2
HIDDEN2
 70
     0
  3
Hidden (.5x) _ _ _ _ _ _ _ _ _ _ _ _ _ _ _ _ _
 72
    65
 73
     2
 40
0.1875
 49
0.125
 49
-0.0625
  0
LTYPE
  2
ACANSTGB
 70
     0
  3
__ . . __ . .
 72
    65
 73
     6
 40
0.35433070866
 49
0.15748031496
 49
-0.03937007874
 49
0.03937007874
 49
-0.03937007874
 49
0.03937007874
 49
-0.03937007874
  0
LTYPE
  2
ACANSTGL
 70
     0
  3
_ _ _ _ _
 72
    65
 73
     2
 40
0.11811023622
 49
0.07874015748
 49
-0.03937007874
  0
ENDTAB
  0
TABLE
  2
LAYER
 70
    11
  0
LAYER
  2
0
 70
     0
 62
     7
  6
CONTINUOUS
  0
LAYER
  2
KI1
 70
     0
 62
     7
  6
CONTINUOUS
  0
LAYER
  2
SU
 70
     0
 62
     3
  6
CONTINUOUS
  0
LAYER
  2
MJ
 70
     0
 62
     2
  6
CONTINUOUS
  0
LAYER
  2
OS
 70
     0
 62
     2
  6
CONTINUOUS
  0
LAYER
  2
KI2
 70
     0
 62
     4
  6
CONTINUOUS
  0
LAYER
  2
PH
 70
     0
 62
     6
  6
PHANTOM2
  0
LAYER
  2
WK
 70
     4
 62
     7
  6
CONTINUOUS
  0
LAYER
  2
DEFPOINTS
 70
     1
 62
    -7
  6
CONTINUOUS
  0
LAYER
  2
TS
 70
     0
 62
     6
  6
DASHED2
  0
LAYER
  2
CL
 70
     0
 62
     4
  6
CENTER2
  0
ENDTAB
  0
TABLE
  2
STYLE
 70
     7
  0
STYLE
  2
STANDARD
 70
     0
 40
0.0
 41
0.8299999999999999
 50
0.0
 71
     0
 42
12.5
  3
romans.shx
  4
extfont.shx
  0
STYLE
  2

 70
     1
 40
0.0
 41
1.0
 50
0.0
 71
     0
 42
2.5
  3
ltypeshp.shx
  4

  0
STYLE
  2
ACISOGDT
 70
     0
 40
0.0
 41
1.0
 50
0.0
 71
     0
 42
2.5
  3
amgdt.shx
  4

  0
STYLE
  2
ACANSGDT
 70
     0
 40
0.0
 41
1.0
 50
0.0
 71
     0
 42
12.5
  3
amgdt.shx
  4

  0
STYLE
  2
SIMPLEX
 70
     0
 40
0.0
 41
1.0
 50
0.0
 71
     0
 42
3.5
  3
simplex.shx
  4
extfont2.shx
  0
STYLE
  2
ANNOTATIVE
 70
     0
 40
0.0
 41
1.0
 50
0.0
 71
     0
 42
0.2
  3
txt
  4

  0
STYLE
  2
ACISOTS
 70
     0
 40
1.0
 41
1.0
 50
0.0
 71
     0
 42
12.5
  3
isocp.shx
  4
extfont.shx
  0
ENDTAB
  0
TABLE
  2
VIEW
 70
     6
  0
VIEW
  2
AM_VIEW1
 70
     0
 40
297.5
 10
-194.33547008547001
 20
148.25
 41
457.32905982905982
 11
0.0
 21
0.0
 31
1.0
 12
0.0
 22
0.0
 32
0.0
 42
50.0
 43
0.0
 44
0.0
 50
0.0
 71
     0
  0
VIEW
  2
AM_VIEW2
 70
     0
 40
297.5
 10
189.33547008547001
 20
148.25
 41
457.32905982905982
 11
0.0
 21
0.0
 31
1.0
 12
0.0
 22
0.0
 32
0.0
 42
50.0
 43
0.0
 44
0.0
 50
0.0
 71
     0
  0
VIEW
  2
AM_VIEW3
 70
     0
 40
297.5
 10
-194.33547008547001
 20
-149.25
 41
457.32905982905982
 11
0.0
 21
0.0
 31
1.0
 12
0.0
 22
0.0
 32
0.0
 42
50.0
 43
0.0
 44
0.0
 50
0.0
 71
     0
  0
VIEW
  2
AM_VIEW4
 70
     0
 40
297.5
 10
189.33547008547001
 20
-149.25
 41
457.32905982905982
 11
0.0
 21
0.0
 31
1.0
 12
0.0
 22
0.0
 32
0.0
 42
50.0
 43
0.0
 44
0.0
 50
0.0
 71
     0
  0
VIEW
  2
AM_VIEW5
 70
     0
 40
297.5
 10
-2.5
 20
-0.5
 41
457.32905982905982
 11
0.0
 21
0.0
 31
1.0
 12
0.0
 22
0.0
 32
0.0
 42
50.0
 43
0.0
 44
0.0
 50
0.0
 71
     0
  0
VIEW
  2
AM_VIEW6
 70
     0
 40
594.99405000000002
 10
-2.5
 20
-0.5
 41
914.6489730769232
 11
0.0
 21
0.0
 31
1.0
 12
0.0
 22
0.0
 32
0.0
 42
50.0
 43
0.0
 44
0.0
 50
0.0
 71
     0
  0
ENDTAB
  0
TABLE
  2
UCS
 70
     0
  0
ENDTAB
  0
TABLE
  2
APPID
 70
    51
  0
APPID
  2
ACAD
 70
     0
  0
APPID
  2
MCAD_NO_VIS
 70
     0
  0
APPID
  2
ACAD_TEMP_GRAPHIC
 70
     0
  0
APPID
  2
ACATTRIBSERVICES
 70
     0
  0
APPID
  2
GENIUS_GENDIMSH_14
 70
     0
  0
APPID
  2
GENIUS_GENODEF_13
 70
     0
  0
APPID
  2
GENIUS_GENOENT_13
 70
     0
  0
APPID
  2
GENIUS_GENOBJ-N-TIT_13
 70
     0
  0
APPID
  2
GENIUS_GENOLIS_13
 70
     0
  0
APPID
  2
GENIUS_GENTITLE_13
 70
     0
  0
APPID
  2
GENIUS_GENOREF_13
 70
     0
  0
APPID
  2
GENIUS_GENSCREG_15
 70
     0
  0
APPID
  2
GENIUS_GENOBJ-N-SDF_13
 70
     0
  0
APPID
  2
GENIUS_GENOBJ-N-REV_13
 70
     0
  0
APPID
  2
GENIUS_GENOBJ-N-RSSYM_13
 70
     0
  0
APPID
  2
GENIUS_GENSYMENT_13
 70
     0
  0
APPID
  2
GENIUS_GENSCSYM_13
 70
     0
  0
APPID
  2
GENIUS_GENOBJ-N-CEN_13
 70
     0
  0
APPID
  2
GENIUS_GENOBJ-N-FIL_13
 70
     0
  0
APPID
  2
GENIUS_GENBH_13
 70
     0
  0
APPID
  2
GENIUS_GENOBJ-NBEHI-BHF_13
 70
     0
  0
APPID
  2
GENIUS_GENFIL_13
 70
     0
  0
APPID
  2
GENIUS_GENOBJ-N-CHA_13
 70
     0
  0
APPID
  2
GENIUS_GENOBJ-NBEHI-BHB_13
 70
     0
  0
APPID
  2
GENIUS_GENOBJ-N-CRS_13
 70
     0
  0
APPID
  2
GENIUS_GENDTOL_13
 70
     0
  0
APPID
  2
AD_DRAW
 70
     0
  0
APPID
  2
DESIGNERASSEMBLIES
 70
     0
  0
APPID
  2
ACADM_DIM_EDIT
 70
     0
  0
APPID
  2
AMDT_DM_ADJ
 70
     0
  0
APPID
  2
ACAD_PSEXT
 70
     0
  0
APPID
  2
ACAECLAYERSTANDARD
 70
     0
  0
APPID
  2
DCO15
 70
     0
  0
APPID
  2
GENIUS_GENOBJ-N-HTC_13
 70
     0
  0
APPID
  2
GENIUS_GENHATCH_13
 70
     0
  0
APPID
  2
ACAD_NAV_VCDISPLAY
 70
     0
  0
APPID
  2
ACAD_DSTYLE_DIMARC_LENGTH_
 70
     0
  0
APPID
  2
GENIUS_GENREC_14
 70
     0
  0
APPID
  2
GENIUS_GENOBJ-N-REC_13
 70
     0
  0
APPID
  2
GENIUS_GENCEN_19
 70
     0
  0
APPID
  2
ACAD_DSTYLE_DIMBREAK
 70
     0
  0
APPID
  2
ACAD_DSTYLE_DIMJAG
 70
     0
  0
APPID
  2
ACAD_DSTYLE_DIMINSPECT
 70
     0
  0
APPID
  2
ACAD_EXEMPT_FROM_CAD_STANDARDS
 70
     0
  0
APPID
  2
ACADANNOTATIVE
 70
     0
  0
APPID
  2
ACADANNOMONITORALERTICONDI
 70
     0
  0
APPID
  2
ACAD_MLEADERVER
 70
     0
  0
APPID
  2
ACAD_DSTYLE_DIM_LINETYPE
 70
     0
  0
APPID
  2
ACAD_DSTYLE_DIM_EXT1_LINETYPE
 70
     0
  0
APPID
  2
ACAD_DSTYLE_DIM_EXT2_LINETYPE
 70
     0
  0
APPID
  2
CONTENTBLOCKICON
 70
     0
  0
ENDTAB
  0
TABLE
  2
DIMSTYLE
 70
    12
  0
DIMSTYLE
  2
SANKYO
 70
     0
  3

  4
"
  5
DOTSMALL
  6

  7

 40
1.0
 41
7.0
 42
1.0
 43
7.0
 44
3.0
 45
0.0
 46
0.0
 47
0.1
 48
0.1
140
7.0
141
0.0
142
0.0
143
0.0393701
144
1.0
145
0.0
146
0.71
147
1.3
 71
     0
 72
     0
 73
     0
 74
     0
 75
     0
 76
     0
 77
     1
 78
     8
170
     0
171
     2
172
     1
173
     0
174
     0
175
     0
176
   256
177
   256
178
   256
  0
DIMSTYLE
  2
AM_ISO
 70
     0
  3

  4
"
  5

  6

  7

 40
1.0
 41
1.6000000000000001
 42
1.0
 43
7.0
 44
1.0
 45
0.0
 46
0.0
 47
0.1
 48
0.1
140
2.5
141
0.0
142
0.0
143
0.0393701
144
1.0
145
0.0
146
0.71
147
0.625
 71
     0
 72
     0
 73
     0
 74
     0
 75
     0
 76
     0
 77
     1
 78
     8
170
     0
171
     2
172
     1
173
     0
174
     0
175
     0
176
   256
177
   256
178
   256
  0
DIMSTYLE
  2
AM_ISO$3
 70
     0
  3

  4
"
  5

  6

  7

 40
1.0
 41
1.6000000000000001
 42
1.0
 43
7.0
 44
1.0
 45
0.0
 46
0.0
 47
0.1
 48
0.1
140
2.5
141
0.0
142
0.0
143
0.0393701
144
1.0
145
0.0
146
0.71
147
0.625
 71
     0
 72
     0
 73
     0
 74
     0
 75
     0
 76
     0
 77
     1
 78
     8
170
     0
171
     2
172
     1
173
     0
174
     0
175
     0
176
   256
177
   256
178
   256
  0
DIMSTYLE
  2
AM_ISO$4
 70
     0
  3

  4
"
  5

  6

  7

 40
1.0
 41
1.6000000000000001
 42
1.0
 43
7.0
 44
1.0
 45
0.0
 46
0.0
 47
0.1
 48
0.1
140
2.5
141
0.0
142
0.0
143
0.0393701
144
1.0
145
0.0
146
0.71
147
0.625
 71
     0
 72
     0
 73
     0
 74
     0
 75
     0
 76
     0
 77
     1
 78
     8
170
     0
171
     2
172
     1
173
     0
174
     0
175
     0
176
   256
177
   256
178
   256
  0
DIMSTYLE
  2
AM_ISO$6
 70
     0
  3

  4
"
  5

  6

  7

 40
1.0
 41
1.6000000000000001
 42
1.0
 43
7.0
 44
1.0
 45
0.0
 46
0.0
 47
0.1
 48
0.1
140
2.5
141
0.0
142
0.0
143
0.0393701
144
1.0
145
0.0
146
0.71
147
0.625
 71
     0
 72
     0
 73
     0
 74
     0
 75
     0
 76
     0
 77
     0
 78
     8
170
     0
171
     2
172
     1
173
     0
174
     0
175
     0
176
   256
177
   256
178
   256
  0
DIMSTYLE
  2
AM_ISO$7
 70
     0
  3

  4
"
  5

  6

  7

 40
1.0
 41
1.6000000000000001
 42
1.0
 43
7.0
 44
1.0
 45
0.0
 46
0.0
 47
0.1
 48
0.1
140
2.5
141
0.0
142
0.0
143
0.0393701
144
1.0
145
0.0
146
0.71
147
0.625
 71
     0
 72
     0
 73
     0
 74
     0
 75
     0
 76
     0
 77
     1
 78
     8
170
     0
171
     2
172
     1
173
     0
174
     0
175
     0
176
   256
177
   256
178
   256
  0
DIMSTYLE
  2
AM_ISO$SF
 70
     0
  3

  4
"
  5

  6

  7

 40
1.0
 41
2.5
 42
1.0
 43
10.0
 44
1.0
 45
0.0
 46
0.0
 47
0.1
 48
0.1
140
3.5
141
0.0
142
0.0
143
0.0393701
144
1.0
145
0.0
146
0.71
147
1.5
 71
     0
 72
     0
 73
     0
 74
     0
 75
     1
 76
     1
 77
     1
 78
     8
170
     0
171
     2
172
     1
173
     0
174
     0
175
     0
176
   256
177
   256
178
     2
  0
DIMSTYLE
  2
AM_ISO$SH
 70
     0
  3

  4
"
  5

  6
GENAXEH
  7

 40
1.0
 41
2.5
 42
1.0
 43
10.0
 44
1.0
 45
0.0
 46
0.0
 47
0.1
 48
0.1
140
3.5
141
0.0
142
0.0
143
0.0393701
144
2.0
145
0.0
146
0.71
147
1.5
 71
     0
 72
     0
 73
     0
 74
     0
 75
     1
 76
     1
 77
     1
 78
     8
170
     0
171
     2
172
     1
173
     1
174
     0
175
     0
176
   256
177
   256
178
     2
  0
DIMSTYLE
  2
AM_ISO$2
 70
     0
  3

  4
"
  5

  6

  7

 40
1.0
 41
1.6000000000000001
 42
1.0
 43
7.0
 44
1.0
 45
0.0
 46
0.0
 47
0.1
 48
0.1
140
2.5
141
0.0
142
0.0
143
0.0393701
144
1.0
145
0.0
146
0.71
147
0.625
 71
     0
 72
     0
 73
     0
 74
     0
 75
     0
 76
     0
 77
     1
 78
     8
170
     0
171
     2
172
     1
173
     0
174
     0
175
     0
176
   256
177
   256
178
   256
  0
DIMSTYLE
  2
AM_ISO$0
 70
     0
  3

  4
"
  5

  6

  7

 40
1.0
 41
1.6000000000000001
 42
1.0
 43
7.0
 44
1.0
 45
0.0
 46
0.0
 47
0.1
 48
0.1
140
2.5
141
0.0
142
0.0
143
0.0393701
144
1.0
145
0.0
146
0.71
147
0.625
 71
     0
 72
     0
 73
     0
 74
     0
 75
     0
 76
     0
 77
     1
 78
     8
170
     0
171
     2
172
     1
173
     0
174
     0
175
     0
176
   256
177
   256
178
   256
  0
DIMSTYLE
  2
SANKYO$0
 70
     0
  3

  4
"
  5
DOTSMALL
  6

  7

 40
1.0
 41
7.0
 42
1.0
 43
7.0
 44
3.0
 45
0.0
 46
0.0
 47
0.1
 48
0.1
140
7.0
141
0.0
142
0.0
143
0.0393701
144
1.0
145
0.0
146
0.71
147
1.3
 71
     0
 72
     0
 73
     0
 74
     0
 75
     0
 76
     0
 77
     1
 78
     8
170
     0
171
     2
172
     1
173
     0
174
     0
175
     0
176
   256
177
   256
178
   256
  0
DIMSTYLE
  2
STANDARD
 70
     0
  3

  4

  5

  6

  7

 40
1.0
 41
0.18
 42
0.0625
 43
0.38
 44
0.18
 45
0.0
 46
0.0
 47
0.0
 48
0.0
140
0.18
141
0.09
142
0.0
143
25.399999999999999
144
1.0
145
0.0
146
1.0
147
0.09
 71
     0
 72
     0
 73
     1
 74
     1
 75
     0
 76
     0
 77
     0
 78
     0
170
     0
171
     2
172
     0
173
     0
174
     0
175
     0
176
     0
177
     0
178
     0
  0
ENDTAB
  0
ENDSEC
  0
SECTION
  2
BLOCKS
  0
BLOCK
  8
0
  2
$MODEL_SPACE
 70
     0
 10
0.0
 20
0.0
 30
0.0
  3
$MODEL_SPACE
  1

  0
ENDBLK
  5
1A
  8
0
  0
BLOCK
 67
     1
  8
0
  2
$PAPER_SPACE
 70
     0
 10
0.0
 20
0.0
 30
0.0
  3
$PAPER_SPACE
  1

  0
ENDBLK
  5
17
 67
     1
  8
0
  0
BLOCK
  8
0
  2
GENAXEH
 70
     0
 10
0.0
 20
0.0
 30
0.0
  3
GENAXEH
  1

  0
LINE
  5
102
  8
0
 10
-1.0
 20
0.0
 30
0.0
 11
1.0
 21
0.0
 31
0.0
  0
ENDBLK
  5
104
  8
0
  0
BLOCK
  8
0
  2
_OPEN
 70
     0
 10
0.0
 20
0.0
 30
0.0
  3
_OPEN
  1

  0
LINE
  5
30B
  8
0
  6
BYBLOCK
 62
     0
 10
-1.0
 20
0.1666666666666666
 30
0.0
 11
0.0
 21
0.0
 31
0.0
  0
LINE
  5
30C
  8
0
  6
BYBLOCK
 62
     0
 10
-1.0
 20
-0.1666666666666666
 30
0.0
 11
0.0
 21
0.0
 31
0.0
  0
LINE
  5
30D
  8
0
  6
BYBLOCK
 62
     0
 10
0.0
 20
0.0
 30
0.0
 11
-1.0
 21
0.0
 31
0.0
  0
ENDBLK
  5
30F
  8
0
  0
BLOCK
  8
0
  2
_DOTSMALL
 70
     0
 10
0.0
 20
0.0
 30
0.0
  3
_DOTSMALL
  1

  0
POLYLINE
  5
A331
  8
0
  6
BYBLOCK
 62
     0
 66
     1
 10
0.0
 20
0.0
 30
0.0
 70
     1
 40
0.5
 41
0.5
  0
VERTEX
  5
1A745
  8
0
  6
BYBLOCK
 62
     0
 10
-0.0625
 20
0.0
 30
0.0
 42
1.0
  0
VERTEX
  5
1A746
  8
0
  6
BYBLOCK
 62
     0
 10
0.0625
 20
0.0
 30
0.0
 42
1.0
  0
SEQEND
  5
1A747
  8
0
  6
BYBLOCK
 62
     0
  0
ENDBLK
  5
A333
  8
0
  0
ENDSEC
  0
SECTION
  2
ENTITIES
  0
LINE
  5
9B1A
  8
WK
 10
23.5
 20
16.25
 30
0.0
 11
1165.5
 21
16.25
 31
0.0
  0
LINE
  5
9B1C
  8
WK
 10
23.5
 20
824.75
 30
0.0
 11
23.5
 21
16.25
 31
0.0
  0
TEXT
  5
9BE2
  8
WK
 10
22.5
 20
16.25
 30
0.0
 40
3.2000000000000002
  1
A0
 50
90.0
 41
0.8299999999999999
  0
LINE
  5
9C31
  8
WK
 10
1085.5
 20
34.25
 30
0.0
 11
1085.5
 21
16.25
 31
0.0
  0
LINE
  5
9C32
  8
WK
 10
890.49999999999989
 20
34.25
 30
0.0
 11
890.49999999999989
 21
16.25
 31
0.0
  0
LINE
  5
9C34
  8
WK
 10
1045.5
 20
34.25
 30
0.0
 11
1045.5
 21
16.25
 31
0.0
  0
LINE
  5
9C35
  8
WK
 10
1065.5
 20
34.25
 30
0.0
 11
1065.5
 21
16.25
 31
0.0
  0
LINE
  5
9C37
  8
WK
 10
1005.5
 20
34.25
 30
0.0
 11
1005.5
 21
16.25
 31
0.0
  0
LINE
  5
9C38
  8
WK
 10
985.5
 20
34.25
 30
0.0
 11
985.5
 21
16.25
 31
0.0
  0
LINE
  5
9C3A
  8
WK
 10
890.49999999999989
 20
34.25
 30
0.0
 11
1165.5
 21
34.25
 31
0.0
  0
LINE
  5
9C3B
  8
WK
 10
899.5
 20
26.25
 30
0.0
 11
972.49999999999989
 21
26.25
 31
0.0
  0
LINE
  5
9C3E
  8
WK
 10
1005.5
 20
22.25
 30
0.0
 11
1045.5
 21
22.25
 31
0.0
  0
LINE
  5
9C3F
  8
WK
 10
1005.5
 20
28.25
 30
0.0
 11
1045.5
 21
28.25
 31
0.0
  0
LINE
  5
9C46
  8
WK
 10
1151.8094750193111
 20
25.25
 30
0.0
 11
1163.8094750193111
 21
25.25
 31
0.0
  0
CIRCLE
  5
9C47
  8
WK
 10
1157.8094750193111
 20
25.25
 30
0.0
 40
6.0
  0
TEXT
  5
9C56
  8
WK
 10
992.52780952380954
 20
20.649999643948512
 30
0.0
 40
3.2000000000000002
  1
1:1
 41
0.8299999999999999
 72
     4
 11
995.5
 21
22.249999643948509
 31
0.0
  0
TEXT
  5
9C57
  8
WK
 10
1087.8031333333331
 20
30.150000000000009
 30
0.0
 40
3.2000000000000002
  1
図番
 41
0.8299999999999999
  0
TEXT
  5
9C58
  8
WK
 10
1067.9290000000001
 20
30.150000000000009
 30
0.0
 40
3.2000000000000002
  1
検図
 41
0.8299999999999999
  0
TEXT
  5
9C59
  8
WK
 10
1047.9290000000001
 20
30.150000000000009
 30
0.0
 40
3.2000000000000002
  1
作図
 41
0.8299999999999999
  0
TEXT
  5
9C5A
  8
WK
 10
1006.5535725057121
 20
29.149999999999999
 30
0.0
 40
3.2000000000000002
  1
作成
 41
0.8299999999999999
  0
TEXT
  5
9C5B
  8
WK
 10
1006.5535725057121
 20
23.149999999999999
 30
0.0
 40
3.2000000000000002
  1
制定
 41
0.8299999999999999
  0
TEXT
  5
9C5C
  8
WK
 10
1006.5535725057121
 20
17.149999999999999
 30
0.0
 40
3.2000000000000002
  1
廃止
 41
0.8299999999999999
  0
TEXT
  5
9C5D
  8
WK
 10
986.42899999999997
 20
30.149999999999999
 30
0.0
 40
3.2000000000000002
  1
尺度
 41
0.8299999999999999
  0
TEXT
  5
9C5E
  8
WK
 10
973.49999999999989
 20
18.25
 30
0.0
 40
4.0
  1
基準図
 41
0.8
  0
TEXT
  5
9C77
  8
WK
 10
892.30313333333345
 20
30.150000000000009
 30
0.0
 40
3.2000000000000002
  1
図名
 41
0.8299999999999999
  0
LINE
  5
9E0D
  8
WK
 10
23.5
 20
824.75
 30
0.0
 11
1165.5
 21
824.75
 31
0.0
  0
LINE
  5
9E18
  8
WK
 10
1165.5
 20
824.75
 30
0.0
 11
1165.5
 21
16.25
 31
0.0
  0
TEXT
  5
12887
  8
WK
 10
1130.0726417273511
 20
826.75
 30
0.0
 40
4.0
  1
大栄建材株式会社
 41
0.9
 72
     2
 11
1163.672641727351
 21
826.75
 31
0.0
  0
TEXT
  5
13021
  8
MJ
 10
1005.5
 20
42.25
 30
0.0
 40
7.0
  1
cl11a004
 41
0.8299999999999999
  0
TEXT
  5
13022
  8
MJ
 10
1005.5
 20
69.25
 30
0.0
 40
7.0
  1
クレーヴァ25・35　Ｙレール引戸
 41
0.8299999999999999
  0
TEXT
  5
13023
  8
MJ
 10
1005.5
 20
60.25
 30
0.0
 40
7.0
  1
片引き戸4枚建
 41
0.8299999999999999
  0
TEXT
  5
13024
  8
MJ
 10
1005.5
 20
78.25
 30
0.0
 40
7.0
  1
スーパースクリーン　クレーヴァ
 41
0.8299999999999999
  0
TEXT
  5
13025
  8
MJ
 10
1005.5
 20
51.25
 30
0.0
 40
7.0
  1
たて横断面
 41
0.8299999999999999
  0
LINE
  5
14F41
  8
KI1
 10
166.94704169456821
 20
627.10574473009865
 30
0.0
 11
199.94703291288641
 21
627.10574473009865
 31
0.0
  0
LINE
  5
14F4D
  8
KI1
 10
166.94704169463759
 20
337.1057439467258
 30
0.0
 11
199.94704169456821
 21
337.1057439467258
 31
0.0
  0
LINE
  5
14F51
  8
PH
 10
555.56596780949189
 20
367.48474779943621
 30
0.0
 11
705.56596780949121
 21
367.48474779943717
 31
0.0
  0
LINE
  5
14F52
  8
PH
 10
705.56596780949121
 20
334.48474779943717
 30
0.0
 11
555.56596780949189
 21
334.48474779943632
 31
0.0
  0
LINE
  5
14F53
  8
PH
 10
555.56596780949189
 20
367.48474779943672
 30
0.0
 11
555.56596780949189
 21
334.48474779943672
 31
0.0
  0
LINE
  5
14F54
  8
KI2
 10
552.56596780949178
 20
348.88474875116412
 30
0.0
 11
757.19096780949155
 21
348.88474875116412
 31
0.0
  0
LINE
  5
14F55
  8
KI2
 10
878.81596780949167
 20
348.88474875116418
 30
0.0
 11
1055.065971806895
 21
348.88474875116441
 31
0.0
  0
LINE
  5
14F58
  8
KI2
 10
552.56596780949178
 20
353.084748751164
 30
0.0
 11
757.19096780949155
 21
353.084748751164
 31
0.0
  0
LINE
  5
14F59
  8
KI2
 10
878.81596780949167
 20
353.084748751164
 30
0.0
 11
1055.065971806895
 21
353.084748751164
 31
0.0
  0
LINE
  5
14F5A
  8
PH
 10
705.56596780949121
 20
367.48474779943717
 30
0.0
 11
705.56596780949121
 21
334.48474779943717
 31
0.0
  0
LINE
  5
14F5B
  8
KI1
 10
166.94704169456821
 20
627.10574473009865
 30
0.0
 11
166.94704169456821
 21
337.1057439467258
 31
0.0
  0
LINE
  5
14F5C
  8
KI1
 10
199.94704169456821
 20
627.10574473009865
 30
0.0
 11
199.94704169456821
 21
337.1057439467258
 31
0.0
  0
LINE
  5
14F5D
  8
PH
 10
555.56596780949155
 20
330.98474779943632
 30
0.0
 11
705.56596780949121
 21
330.98474779943717
 31
0.0
  0
LINE
  5
14F5E
  8
PH
 10
705.56596780949121
 20
297.98474779943717
 30
0.0
 11
555.56596780949155
 21
297.98474779943632
 31
0.0
  0
LINE
  5
14F5F
  8
PH
 10
555.56596780949155
 20
330.98474779943672
 30
0.0
 11
555.56596780949155
 21
297.98474779943672
 31
0.0
  0
LINE
  5
14F60
  8
KI2
 10
552.56596780949212
 20
312.38474875116412
 30
0.0
 11
843.81596932048058
 21
312.3847487511643
 31
0.0
  0
LINE
  5
14F61
  8
KI2
 10
552.56596780949178
 20
316.58474875116389
 30
0.0
 11
843.81597033586513
 21
316.58474875116389
 31
0.0
  0
LINE
  5
14F62
  8
KI1
 10
843.81596780949155
 20
330.98474779943712
 30
0.0
 11
965.44096780949155
 21
330.98474779943712
 31
0.0
  0
LINE
  5
14F63
  8
KI1
 10
965.44096780949155
 20
330.98474779943712
 30
0.0
 11
965.44096780949155
 21
297.98474875116239
 31
0.0
  0
LINE
  5
14F64
  8
KI1
 10
965.44096780949155
 20
297.98474875116239
 30
0.0
 11
843.81596780949155
 21
297.98474875116239
 31
0.0
  0
LINE
  5
14F65
  8
KI1
 10
843.81596780949155
 20
297.98474875116239
 30
0.0
 11
843.81596780949155
 21
330.98474779943712
 31
0.0
  0
LINE
  5
14F66
  8
PH
 10
705.56596780949121
 20
330.98474779943712
 30
0.0
 11
705.56596780949121
 21
297.98474875116239
 31
0.0
  0
LINE
  5
14F67
  8
KI1
 10
757.19096780949155
 20
367.484747799437
 30
0.0
 11
878.81596780949167
 21
367.484747799437
 31
0.0
  0
LINE
  5
14F68
  8
KI1
 10
878.81596780949167
 20
367.484747799437
 30
0.0
 11
878.81596780949167
 21
334.48474875116239
 31
0.0
  0
LINE
  5
14F69
  8
KI1
 10
878.81596780949167
 20
334.48474875116239
 30
0.0
 11
757.19096780949155
 21
334.48474875116239
 31
0.0
  0
LINE
  5
14F6A
  8
KI1
 10
757.19096780949155
 20
334.48474875116239
 30
0.0
 11
757.19096780949155
 21
367.484747799437
 31
0.0
  0
LINE
  5
14F6C
  8
KI1
 10
202.9470416945683
 20
627.10574473009865
 30
0.0
 11
235.9470329128865
 21
627.10574473009865
 31
0.0
  0
LINE
  5
14F75
  8
KI1
 10
202.94704169463759
 20
337.1057439467258
 30
0.0
 11
235.9470416945683
 21
337.1057439467258
 31
0.0
  0
LINE
  5
14F78
  8
KI1
 10
202.9470416945683
 20
627.10574473009865
 30
0.0
 11
202.9470416945683
 21
337.1057439467258
 31
0.0
  0
LINE
  5
14F79
  8
KI1
 10
235.9470416945683
 20
627.10574473009865
 30
0.0
 11
235.9470416945683
 21
337.1057439467258
 31
0.0
  0
LINE
  5
14F7B
  8
PH
 10
555.56596780949189
 20
294.98474779943632
 30
0.0
 11
705.56596780949121
 21
294.98474779943717
 31
0.0
  0
LINE
  5
14F7C
  8
PH
 10
705.56596780949121
 20
261.98474779943717
 30
0.0
 11
555.56596780949189
 21
261.98474779943632
 31
0.0
  0
LINE
  5
14F7D
  8
PH
 10
555.56596780949189
 20
294.98474779943672
 30
0.0
 11
555.56596780949189
 21
261.98474779943672
 31
0.0
  0
LINE
  5
14F7E
  8
KI2
 10
552.56596780949178
 20
276.38474875116412
 30
0.0
 11
930.44096932048069
 21
276.38474875116418
 31
0.0
  0
LINE
  5
14F7F
  8
KI2
 10
552.56596780949212
 20
280.58474875116389
 30
0.0
 11
930.44097033586513
 21
280.58474875116389
 31
0.0
  0
LINE
  5
14F80
  8
KI1
 10
930.44096780949155
 20
294.98474779943712
 30
0.0
 11
1052.065967809491
 21
294.98474779943712
 31
0.0
  0
LINE
  5
14F81
  8
KI1
 10
1052.065967809491
 20
294.98474779943712
 30
0.0
 11
1052.065967809491
 21
261.98474875116239
 31
0.0
  0
LINE
  5
14F82
  8
KI1
 10
1052.065967809491
 20
261.98474875116239
 30
0.0
 11
930.44096780949155
 21
261.98474875116239
 31
0.0
  0
LINE
  5
14F83
  8
KI1
 10
930.44096780949155
 20
261.98474875116239
 30
0.0
 11
930.44096780949155
 21
294.98474779943712
 31
0.0
  0
LINE
  5
14F84
  8
PH
 10
705.56596780949121
 20
294.98474779943712
 30
0.0
 11
705.56596780949121
 21
261.98474875116239
 31
0.0
  0
LINE
  5
14F85
  8
KI2
 10
552.56596780949212
 20
268.48474900039719
 30
0.0
 11
930.4409678094911
 21
268.48474900039719
 31
0.0
  0
LINE
  5
14F87
  8
KI1
 10
239.4470416945683
 20
627.10574473009865
 30
0.0
 11
272.44703291288653
 21
627.10574473009865
 31
0.0
  0
LINE
  5
14F90
  8
KI1
 10
239.44704169463759
 20
337.1057439467258
 30
0.0
 11
272.44704169456833
 21
337.1057439467258
 31
0.0
  0
LINE
  5
14F93
  8
KI1
 10
239.4470416945683
 20
627.10574473009865
 30
0.0
 11
239.4470416945683
 21
337.1057439467258
 31
0.0
  0
LINE
  5
14F94
  8
KI1
 10
272.44704169456833
 20
627.10574473009865
 30
0.0
 11
272.44704169456833
 21
337.1057439467258
 31
0.0
  0
LINE
  5
14F99
  8
KI2
 10
1055.065971806895
 20
312.38474875116418
 30
0.0
 11
965.44096629850264
 21
312.3847487511643
 31
0.0
  0
LINE
  5
14F9A
  8
KI2
 10
1055.065971806895
 20
316.58474875116389
 30
0.0
 11
965.44096528311763
 21
316.58474875116389
 31
0.0
  0
LINE
  5
14F9E
  8
OS
 10
59.947107195745048
 20
112.28300748772089
 30
0.0
 11
359.94710719574499
 21
112.28300748772089
 31
0.0
  0
LINE
  5
14FA2
  8
OS
 10
59.947107195745048
 20
114.28300748772089
 30
0.0
 11
174.94704169456691
 21
114.28300748772089
 31
0.0
  0
LINE
  5
14FA3
  8
OS
 10
299.94704169470828
 20
114.28300748772089
 30
0.0
 11
359.94710719574499
 21
114.28300748772089
 31
0.0
  0
LINE
  5
14FA4
  8
OS
 10
59.947107195745048
 20
118.28300748772089
 30
0.0
 11
174.94704169456691
 21
118.28300748772089
 31
0.0
  0
LINE
  5
14FA5
  8
OS
 10
299.94704169470828
 20
118.28300748772079
 30
0.0
 11
359.94710719574499
 21
118.28300748772089
 31
0.0
  0
LINE
  5
14FA6
  8
OS
 10
59.947107195745048
 20
122.28300748772089
 30
0.0
 11
174.94704169456691
 21
122.28300748772089
 31
0.0
  0
LINE
  5
14FA7
  8
OS
 10
299.94704169470828
 20
122.28300748772089
 30
0.0
 11
359.94710719574499
 21
122.28300748772089
 31
0.0
  0
LINE
  5
14FA9
  8
OS
 10
59.947107195745048
 20
116.28300748772089
 30
0.0
 11
174.94704169456691
 21
116.2830074877207
 31
0.0
  0
LINE
  5
14FAA
  8
OS
 10
299.94704169470828
 20
116.2830074877206
 30
0.0
 11
359.94710719574499
 21
116.2830074877204
 31
0.0
  0
LINE
  5
14FAB
  8
OS
 10
59.947107195745048
 20
120.28300748772089
 30
0.0
 11
174.94704169456691
 21
120.28300748772089
 31
0.0
  0
LINE
  5
14FAC
  8
OS
 10
299.94704169470828
 20
120.28300748772089
 30
0.0
 11
359.94710719574499
 21
120.28300748772089
 31
0.0
  0
LINE
  5
14FAD
  8
OS
 10
59.947107195745048
 20
124.28300748772089
 30
0.0
 11
174.94704169456691
 21
124.28300748772089
 31
0.0
  0
LINE
  5
14FAE
  8
OS
 10
299.94704169470828
 20
124.28300748772089
 30
0.0
 11
359.94710719574499
 21
124.28300748772089
 31
0.0
  0
LINE
  5
14FBE
  8
KI1
 10
202.94704169456691
 20
244.28300748772091
 30
0.0
 11
202.94704169456691
 21
131.28300748772091
 31
0.0
  0
LINE
  5
14FBF
  8
KI1
 10
235.94704169456691
 20
244.28300748772091
 30
0.0
 11
235.94704169456691
 21
131.28300748772091
 31
0.0
  0
LINE
  5
14FCC
  8
KI1
 10
166.94704169456691
 20
244.28300748772091
 30
0.0
 11
166.94704169456691
 21
131.28300748772091
 31
0.0
  0
LINE
  5
14FCD
  8
KI1
 10
199.94704169456691
 20
244.28300748772091
 30
0.0
 11
199.94704169456691
 21
131.28300748772091
 31
0.0
  0
LINE
  5
14FCE
  8
OS
 10
174.94704169456691
 20
124.28300748772089
 30
0.0
 11
174.94704169456691
 21
112.28300748772089
 31
0.0
  0
LINE
  5
14FDD
  8
OS
 10
299.94704169470828
 20
124.28300748772089
 30
0.0
 11
299.94704169470828
 21
112.28300748772089
 31
0.0
  0
LINE
  5
14FE4
  8
OS
 10
488.06596536096299
 20
239.98474779943419
 30
0.0
 11
534.06596780949189
 21
239.98474779943419
 31
0.0
  0
LINE
  5
14FE5
  8
OS
 10
488.06596536096299
 20
237.98474779943419
 30
0.0
 11
546.56596780949189
 21
237.9847477994341
 31
0.0
  0
LINE
  5
14FE6
  8
OS
 10
488.06596536096299
 20
231.98474779943419
 30
0.0
 11
552.56596780949178
 21
231.98474779943419
 31
0.0
  0
LINE
  5
14FE8
  8
OS
 10
488.06596536096299
 20
248.48474779943419
 30
0.0
 11
534.06596780949189
 21
248.48474779943419
 31
0.0
  0
LINE
  5
14FE9
  8
OS
 10
488.06596536096299
 20
250.48474779943419
 30
0.0
 11
534.06596780950008
 21
250.48474779943419
 31
0.0
  0
LINE
  5
14FEB
  8
OS
 10
488.06596536096299
 20
465.48474779943422
 30
0.0
 11
693.06596780949144
 21
465.48474779943422
 31
0.0
  0
LINE
  5
14FEC
  8
OS
 10
488.06596536096299
 20
467.48474779943422
 30
0.0
 11
705.56596780949144
 21
467.48474779943427
 31
0.0
  0
LINE
  5
14FED
  8
OS
 10
488.06596536096299
 20
473.48474779943422
 30
0.0
 11
711.56596780949144
 21
473.48474779943427
 31
0.0
  0
LINE
  5
14FEE
  8
OS
 10
488.06596536096299
 20
456.98474779943422
 30
0.0
 11
693.06596780949144
 21
456.98474779943422
 31
0.0
  0
LINE
  5
14FEF
  8
OS
 10
488.06596536096299
 20
454.98474779943422
 30
0.0
 11
693.06596780949144
 21
454.98474779943422
 31
0.0
  0
LINE
  5
14FF1
  8
OS
 10
534.06596780949189
 20
424.9847477994341
 30
0.0
 11
693.06596780949144
 21
424.9847477994341
 31
0.0
  0
LINE
  5
14FF2
  8
OS
 10
534.06596780949189
 20
412.48474779943399
 30
0.0
 11
705.56596780949144
 21
412.4847477994341
 31
0.0
  0
LINE
  5
14FF3
  8
OS
 10
552.56596780949178
 20
406.4847477994341
 30
0.0
 11
711.56596780949144
 21
406.4847477994341
 31
0.0
  0
LINE
  5
14FF4
  8
OS
 10
534.06596780949189
 20
454.98474779943422
 30
0.0
 11
534.06596780949189
 21
237.98474779943419
 31
0.0
  0
LINE
  5
14FF5
  8
OS
 10
536.06596780949178
 20
412.48474979943558
 30
0.0
 11
536.06596780949178
 21
237.98474779943419
 31
0.0
  0
LINE
  5
14FF6
  8
OS
 10
546.56596780949189
 20
412.48474779943399
 30
0.0
 11
546.56596780949189
 21
237.98474779943419
 31
0.0
  0
LINE
  5
14FF7
  8
OS
 10
544.56596780949178
 20
412.48474779943399
 30
0.0
 11
544.56596780949178
 21
237.98474779943419
 31
0.0
  0
LINE
  5
14FF8
  8
OS
 10
552.56596780949178
 20
406.4847477994341
 30
0.0
 11
552.56596780949178
 21
231.98474779943419
 31
0.0
  0
LINE
  5
14FF9
  8
OS
 10
564.06596780949189
 20
454.98474779943422
 30
0.0
 11
564.06596780949189
 21
424.98474779943399
 31
0.0
  0
LINE
  5
14FFA
  8
OS
 10
564.06596780949189
 20
424.9847477994341
 30
0.0
 11
534.06596780949189
 21
454.98474779943422
 31
0.0
  0
LINE
  5
14FFB
  8
OS
 10
663.06596780949144
 20
454.98474779943422
 30
0.0
 11
663.06596780949144
 21
424.98474779943399
 31
0.0
  0
LINE
  5
14FFC
  8
OS
 10
663.06596780949144
 20
454.98474779943422
 30
0.0
 11
693.06596780949144
 21
424.9847477994341
 31
0.0
  0
LINE
  5
14FFD
  8
OS
 10
534.06596780949189
 20
422.98474779943388
 30
0.0
 11
693.06596780949144
 21
422.9847477994341
 31
0.0
  0
LINE
  5
14FFE
  8
OS
 10
534.06596780949189
 20
414.48474779943422
 30
0.0
 11
693.06596780949144
 21
414.48474779943422
 31
0.0
  0
LINE
  5
14FFF
  8
OS
 10
705.56596780949144
 20
412.4847477994341
 30
0.0
 11
705.56596780949144
 21
467.48474779943427
 31
0.0
  0
LINE
  5
15000
  8
OS
 10
711.56596780949144
 20
406.4847477994341
 30
0.0
 11
711.56596780949144
 21
473.48474779943427
 31
0.0
  0
LINE
  5
15001
  8
OS
 10
703.56596780949144
 20
412.4847477994341
 30
0.0
 11
703.56596780949144
 21
467.48474779943427
 31
0.0
  0
LINE
  5
15002
  8
OS
 10
693.06596780949144
 20
412.4847477994341
 30
0.0
 11
693.06596780949144
 21
467.48474779943427
 31
0.0
  0
LINE
  5
15003
  8
OS
 10
695.06596780949144
 20
412.4847477994341
 30
0.0
 11
695.06596780949144
 21
467.48474779943427
 31
0.0
  0
TEXT
  5
15005
  8
SU
 10
641.59822373737211
 20
491.3615845167663
 30
0.0
 40
7.9999999999999982
  1
巾木
 41
0.9
  0
LINE
  5
1500E
  8
OS
 10
168.19703412796159
 20
664.10574394563082
 30
0.0
 11
59.947107195745048
 21
664.10574394563082
 31
0.0
  0
LINE
  5
1500F
  8
OS
 10
168.19703412796159
 20
673.60574394563082
 30
0.0
 11
59.947107195745048
 21
673.60574394563082
 31
0.0
  0
LINE
  5
15012
  8
OS
 10
359.94710719574499
 20
671.60574394563071
 30
0.0
 11
307.19703412796162
 21
671.60574394563071
 31
0.0
  0
LINE
  5
15013
  8
OS
 10
168.19703412796159
 20
671.60574394563071
 30
0.0
 11
59.947107195745048
 21
671.60574394563071
 31
0.0
  0
LINE
  5
15014
  8
OS
 10
359.94710719574499
 20
666.10574394563082
 30
0.0
 11
307.19703412796162
 21
666.10574394563082
 31
0.0
  0
LINE
  5
15015
  8
OS
 10
168.19703412796159
 20
666.10574394563082
 30
0.0
 11
59.947107195745048
 21
666.10574394563082
 31
0.0
  0
LINE
  5
1501C
  8
OS
 10
359.94710719574499
 20
664.10574394563105
 30
0.0
 11
307.19703412796162
 21
664.10574394563082
 31
0.0
  0
LINE
  5
1501D
  8
OS
 10
359.94710719574499
 20
673.60574394563082
 30
0.0
 11
307.19703412796162
 21
673.60574394563082
 31
0.0
  0
LINE
  5
1501F
  8
OS
 10
168.19703412796159
 20
664.10574394563082
 30
0.0
 11
307.19703412796162
 21
673.60574394563082
 31
0.0
  0
LINE
  5
15020
  8
OS
 10
332.44704264629621
 20
664.10574394563093
 30
0.0
 11
332.44704264629621
 21
590.60574394563002
 31
0.0
  0
LINE
  5
15021
  8
OS
 10
332.44704264629621
 20
575.60574394562991
 30
0.0
 11
332.44704264629621
 21
388.10574394672591
 31
0.0
  0
LINE
  5
15022
  8
OS
 10
102.9470426462962
 20
664.10574394563048
 30
0.0
 11
102.9470426462962
 21
388.10574394672591
 31
0.0
  0
LINE
  5
15023
  8
OS
 10
157.94704264629621
 20
664.10574394563048
 30
0.0
 11
157.94704264629621
 21
388.10574394672591
 31
0.0
  0
LINE
  5
15028
  8
OS
 10
338.44704264629632
 20
388.1057439467258
 30
0.0
 11
308.44704169456833
 21
388.1057439467258
 31
0.0
  0
LINE
  5
15029
  8
TS
 10
332.44704264629621
 20
388.1057439467258
 30
0.0
 11
332.44704264629621
 21
328.10574394672591
 31
0.0
  0
LINE
  5
1502A
  8
OS
 10
338.44704264629632
 20
388.1057439467258
 30
0.0
 11
338.44704264629632
 21
328.10574394672591
 31
0.0
  0
LINE
  5
1502B
  8
OS
 10
166.94704169456821
 20
388.10574394672591
 30
0.0
 11
96.947042646296723
 21
388.10574394672591
 31
0.0
  0
LINE
  5
1502C
  8
TS
 10
157.94704264629621
 20
388.10574394672591
 30
0.0
 11
157.94704264629621
 21
328.10574394672591
 31
0.0
  0
LINE
  5
1502D
  8
OS
 10
163.94704264629669
 20
388.10574394672591
 30
0.0
 11
163.94704264629621
 21
328.10574394672591
 31
0.0
  0
LINE
  5
1502E
  8
TS
 10
102.9470426462962
 20
388.10574394672591
 30
0.0
 11
102.9470426462962
 21
328.10574394672591
 31
0.0
  0
LINE
  5
1502F
  8
OS
 10
96.947042646296282
 20
388.10574394672591
 30
0.0
 11
96.947042646296282
 21
328.10574394672591
 31
0.0
  0
TEXT
  5
15031
  8
SU
 10
65.988140177101741
 20
386.48318990815261
 30
0.0
 40
7.9999999999999956
  1
巾木
 41
0.9
  0
LINE
  5
15032
  8
OS
 10
332.4470426462949
 20
244.28300748772091
 30
0.0
 11
332.4470426462949
 21
184.28300748772091
 31
0.0
  0
LINE
  5
15033
  8
OS
 10
102.9470426462949
 20
244.28300748772091
 30
0.0
 11
102.9470426462949
 21
184.28300748772091
 31
0.0
  0
LINE
  5
15034
  8
OS
 10
157.9470426462949
 20
244.28300748772091
 30
0.0
 11
157.9470426462949
 21
184.28300748772091
 31
0.0
  0
LINE
  5
15035
  8
OS
 10
338.4470426462949
 20
184.28300748772079
 30
0.0
 11
308.44704169456691
 21
184.28300748772079
 31
0.0
  0
LINE
  5
15036
  8
TS
 10
332.4470426462949
 20
184.28300748772079
 30
0.0
 11
332.4470426462949
 21
124.28300748772089
 31
0.0
  0
LINE
  5
15037
  8
OS
 10
338.4470426462949
 20
184.28300748772079
 30
0.0
 11
338.4470426462949
 21
124.28300748772089
 31
0.0
  0
LINE
  5
15038
  8
OS
 10
166.94704169456671
 20
184.28300748772091
 30
0.0
 11
96.947042646295344
 21
184.28300748772091
 31
0.0
  0
LINE
  5
15039
  8
TS
 10
157.9470426462949
 20
184.28300748772091
 30
0.0
 11
157.9470426462949
 21
124.28300748772089
 31
0.0
  0
LINE
  5
1503A
  8
OS
 10
163.9470426462953
 20
184.28300748772091
 30
0.0
 11
163.9470426462949
 21
124.28300748772089
 31
0.0
  0
LINE
  5
1503B
  8
TS
 10
102.9470426462949
 20
184.28300748772091
 30
0.0
 11
102.9470426462949
 21
124.28300748772089
 31
0.0
  0
LINE
  5
1503C
  8
OS
 10
96.947042646294904
 20
184.28300748772091
 30
0.0
 11
96.947042646294904
 21
124.28300748772089
 31
0.0
  0
TEXT
  5
1503E
  8
SU
 10
65.988140177100377
 20
182.66045344914761
 30
0.0
 40
7.9999999999999956
  1
巾木
 41
0.9
  0
LINE
  5
15061
  8
OS
 10
239.4470416945683
 20
388.10574394672591
 30
0.0
 11
235.9470416945683
 21
388.10574394672591
 31
0.0
  0
LINE
  5
15062
  8
OS
 10
202.9470416945683
 20
388.10574394672591
 30
0.0
 11
199.94704169456821
 21
388.10574394672591
 31
0.0
  0
LINE
  5
15063
  8
OS
 10
239.4470416947083
 20
184.28300748772091
 30
0.0
 11
235.9470416945683
 21
184.28300748772091
 31
0.0
  0
LINE
  5
15064
  8
OS
 10
202.9470416945683
 20
184.28300748772091
 30
0.0
 11
199.94704169456821
 21
184.28300748772091
 31
0.0
  0
LINE
  5
1506A
  8
KI2
 10
1052.065967809491
 20
268.48474900039719
 30
0.0
 11
1055.065971806895
 21
268.48474900039719
 31
0.0
  0
LINE
  5
15AB7
  8
KI2
 10
217.72703291304501
 20
653.20574473009844
 30
0.0
 11
221.16703291304489
 21
653.20574473009844
 31
0.0
  0
LINE
  5
15AB8
  8
KI2
 10
221.66703291304501
 20
652.70574473009844
 30
0.0
 11
217.22703291304501
 21
652.70574473009844
 31
0.0
  0
LINE
  5
15AB9
  8
KI2
 10
217.22703291304501
 20
652.70574473009844
 30
0.0
 11
217.22703291304501
 21
644.80574473009847
 31
0.0
  0
LINE
  5
15ABA
  8
KI2
 10
217.72703291304501
 20
653.20574473009844
 30
0.0
 11
217.22703291304501
 21
652.70574473009844
 31
0.0
  0
LINE
  5
15ABB
  8
KI2
 10
221.66703291304501
 20
652.70574473009844
 30
0.0
 11
221.66703291304501
 21
644.80574473009847
 31
0.0
  0
LINE
  5
15ABC
  8
KI2
 10
221.66703291304501
 20
652.70574473009844
 30
0.0
 11
221.16703291304489
 21
653.20574473009844
 31
0.0
  0
LINE
  5
15ABD
  8
KI2
 10
223.44703291304489
 20
644.80574473009847
 30
0.0
 11
223.44703291304489
 21
642.99574473009852
 31
0.0
  0
LINE
  5
15ABE
  8
KI2
 10
225.34703291304501
 20
642.99574473009852
 30
0.0
 11
225.34703291304501
 21
640.99574473009852
 31
0.0
  0
LINE
  5
15ABF
  8
KI2
 10
215.44703291304489
 20
644.80574473009847
 30
0.0
 11
223.44703291304489
 21
644.80574473009847
 31
0.0
  0
LINE
  5
15AC0
  8
KI2
 10
213.54703291304489
 20
640.99574473009852
 30
0.0
 11
225.34703291304501
 21
640.99574473009852
 31
0.0
  0
LINE
  5
15AC1
  8
KI2
 10
213.54703291304489
 20
642.99574473009852
 30
0.0
 11
225.34703291304501
 21
642.99574473009852
 31
0.0
  0
LINE
  5
15AC2
  8
KI2
 10
215.44703291304489
 20
644.80574473009847
 30
0.0
 11
215.44703291304489
 21
642.99574473009852
 31
0.0
  0
LINE
  5
15AC3
  8
KI2
 10
213.54703291304489
 20
642.99574473009852
 30
0.0
 11
213.54703291304489
 21
640.99574473009852
 31
0.0
  0
LINE
  5
15AC4
  8
KI2
 10
222.44703291304501
 20
640.99574473009852
 30
0.0
 11
222.44703291304501
 21
627.10574473009865
 31
0.0
  0
LINE
  5
15AC5
  8
KI2
 10
216.44703291304501
 20
640.99574473009852
 30
0.0
 11
216.44703291304501
 21
627.10574473009865
 31
0.0
  0
LINE
  5
15AC6
  8
KI2
 10
216.44703291304501
 20
638.48574473009853
 30
0.0
 11
222.44703291304501
 21
638.48574473009853
 31
0.0
  0
LINE
  5
15AC7
  8
KI2
 10
181.72703291304489
 20
653.20574473009844
 30
0.0
 11
185.16703291304489
 21
653.20574473009844
 31
0.0
  0
LINE
  5
15AC8
  8
KI2
 10
185.66703291304489
 20
652.70574473009844
 30
0.0
 11
181.22703291304489
 21
652.70574473009844
 31
0.0
  0
LINE
  5
15AC9
  8
KI2
 10
181.22703291304489
 20
652.70574473009844
 30
0.0
 11
181.22703291304489
 21
644.80574473009847
 31
0.0
  0
LINE
  5
15ACA
  8
KI2
 10
181.72703291304489
 20
653.20574473009844
 30
0.0
 11
181.22703291304489
 21
652.70574473009844
 31
0.0
  0
LINE
  5
15ACB
  8
KI2
 10
185.66703291304489
 20
652.70574473009844
 30
0.0
 11
185.66703291304489
 21
644.80574473009847
 31
0.0
  0
LINE
  5
15ACC
  8
KI2
 10
185.66703291304489
 20
652.70574473009844
 30
0.0
 11
185.16703291304489
 21
653.20574473009844
 31
0.0
  0
LINE
  5
15ACD
  8
KI2
 10
187.44703291304489
 20
644.80574473009847
 30
0.0
 11
187.44703291304489
 21
642.99574473009852
 31
0.0
  0
LINE
  5
15ACE
  8
KI2
 10
189.3470329130449
 20
642.99574473009852
 30
0.0
 11
189.3470329130449
 21
640.99574473009852
 31
0.0
  0
LINE
  5
15ACF
  8
KI2
 10
179.44703291304489
 20
644.80574473009847
 30
0.0
 11
187.44703291304489
 21
644.80574473009847
 31
0.0
  0
LINE
  5
15AD0
  8
KI2
 10
177.54703291304489
 20
640.99574473009852
 30
0.0
 11
189.3470329130449
 21
640.99574473009852
 31
0.0
  0
LINE
  5
15AD1
  8
KI2
 10
177.54703291304489
 20
642.99574473009852
 30
0.0
 11
189.3470329130449
 21
642.99574473009852
 31
0.0
  0
LINE
  5
15AD2
  8
KI2
 10
179.44703291304489
 20
644.80574473009847
 30
0.0
 11
179.44703291304489
 21
642.99574473009852
 31
0.0
  0
LINE
  5
15AD3
  8
KI2
 10
177.54703291304489
 20
642.99574473009852
 30
0.0
 11
177.54703291304489
 21
640.99574473009852
 31
0.0
  0
LINE
  5
15AD4
  8
KI2
 10
186.44703291304489
 20
640.99574473009852
 30
0.0
 11
186.44703291304489
 21
627.10574473009865
 31
0.0
  0
LINE
  5
15AD5
  8
KI2
 10
180.44703291304489
 20
640.99574473009852
 30
0.0
 11
180.44703291304489
 21
627.10574473009865
 31
0.0
  0
LINE
  5
15AD6
  8
KI2
 10
180.44703291304489
 20
638.48574473009853
 30
0.0
 11
186.44703291304489
 21
638.48574473009853
 31
0.0
  0
LINE
  5
15B48
  8
OS
 10
1073.565971806895
 20
467.48474779943427
 30
0.0
 11
1073.565971806895
 21
237.98474779943419
 31
0.0
  0
LINE
  5
15B49
  8
OS
 10
1071.565971806895
 20
467.48474779943427
 30
0.0
 11
1071.565971806895
 21
237.98474779943419
 31
0.0
  0
LINE
  5
15B4A
  8
OS
 10
1061.065971806895
 20
467.48474779943427
 30
0.0
 11
1061.065971806895
 21
237.98474779943419
 31
0.0
  0
LINE
  5
15B4B
  8
OS
 10
1055.065971806895
 20
473.48474779943427
 30
0.0
 11
1055.065971806895
 21
231.9847477994343
 31
0.0
  0
LINE
  5
15B4C
  8
OS
 10
1063.065971806895
 20
467.48474779943427
 30
0.0
 11
1063.065971806895
 21
237.98474779943419
 31
0.0
  0
LINE
  5
15B4E
  8
OS
 10
1119.565974255424
 20
239.9847477994343
 30
0.0
 11
1073.565971806895
 21
239.9847477994343
 31
0.0
  0
LINE
  5
15B4F
  8
OS
 10
1119.565974255424
 20
237.9847477994343
 30
0.0
 11
1061.065971806895
 21
237.98474779943419
 31
0.0
  0
LINE
  5
15B50
  8
OS
 10
1119.565974255424
 20
231.9847477994343
 30
0.0
 11
1055.065971806895
 21
231.9847477994343
 31
0.0
  0
LINE
  5
15B52
  8
OS
 10
1119.565974255424
 20
248.4847477994343
 30
0.0
 11
1073.565971806895
 21
248.4847477994343
 31
0.0
  0
LINE
  5
15B53
  8
OS
 10
1119.565974255424
 20
250.4847477994343
 30
0.0
 11
1073.565971806895
 21
250.4847477994343
 31
0.0
  0
LINE
  5
15B55
  8
OS
 10
1119.565974255424
 20
465.48474779943427
 30
0.0
 11
1073.565971806895
 21
465.48474779943427
 31
0.0
  0
LINE
  5
15B56
  8
OS
 10
1119.565974255424
 20
467.48474779943427
 30
0.0
 11
1061.065971806895
 21
467.48474779943427
 31
0.0
  0
LINE
  5
15B57
  8
OS
 10
1119.565974255424
 20
473.48474779943427
 30
0.0
 11
1055.065971806895
 21
473.48474779943427
 31
0.0
  0
LINE
  5
15B58
  8
OS
 10
1119.565974255424
 20
456.98474779943422
 30
0.0
 11
1073.565971806895
 21
456.98474779943422
 31
0.0
  0
LINE
  5
15B59
  8
OS
 10
1119.565974255424
 20
454.98474779943427
 30
0.0
 11
1073.565971806895
 21
454.98474779943427
 31
0.0
  0
TEXT
  5
15B5B
  8
SU
 10
1110.1038156386089
 20
491.36158451676641
 30
0.0
 40
7.9999999999999982
  1
巾木
 41
0.9
  0
LINE
  5
15B65
  8
SU
 10
1099.634517507021
 20
472.29939163974359
 30
0.0
 11
1097.798003166786
 21
469.8750948183727
 31
0.0
  0
LINE
  5
15B66
  8
SU
 10
1098.7489880330511
 20
472.76397484082707
 30
0.0
 11
1097.798003166786
 21
469.8750948183727
 31
0.0
  0
LINE
  5
15B67
  8
SU
 10
1097.798003166786
 20
469.8750948183727
 30
0.0
 11
1099.1917527700359
 21
472.5316832402853
 31
0.0
  0
LINE
  5
15B68
  8
SU
 10
1099.1917527700359
 20
472.5316832402853
 30
0.0
 11
1107.806419811478
 21
488.95186708648009
 31
0.0
1001
ACAD
1000
DSTYLE
1002
{
1070
   371
1070
    13
1070
   176
1070
   256
1070
    41
1040
1.5
1070
   147
1040
1.0
1070
    77
1070
     0
1002
}
  0
LINE
  5
15B69
  8
SU
 10
1107.806419811478
 20
488.95186708648009
 30
0.0
 11
1129.168082497778
 21
488.95186708648009
 31
0.0
1001
ACAD
1000
DSTYLE
1002
{
1070
   371
1070
    13
1070
   176
1070
   256
1070
    41
1040
1.5
1070
   147
1040
1.0
1070
    77
1070
     0
1002
}
  0
LINE
  5
15B6A
  8
SU
 10
668.35028660594537
 20
472.53168324028519
 30
0.0
 11
659.73561956450317
 21
488.95186708647998
 31
0.0
1001
ACAD
1000
DSTYLE
1002
{
1070
   371
1070
    13
1070
   176
1070
   256
1070
    41
1040
1.5
1070
   147
1040
1.0
1070
    77
1070
     0
1002
}
  0
LINE
  5
15B6B
  8
SU
 10
659.73561956450317
 20
488.95186708647998
 30
0.0
 11
638.37395687820322
 21
488.95186708647998
 31
0.0
1001
ACAD
1000
DSTYLE
1002
{
1070
   371
1070
    13
1070
   176
1070
   256
1070
    41
1040
1.5
1070
   147
1040
1.0
1070
    77
1070
     0
1002
}
  0
LINE
  5
15B74
  8
SU
 10
668.79305134293065
 20
472.7639748408269
 30
0.0
 11
669.74403620919543
 21
469.87509481837259
 31
0.0
  0
LINE
  5
15B75
  8
SU
 10
667.90752186895975
 20
472.29939163974348
 30
0.0
 11
669.74403620919543
 21
469.87509481837259
 31
0.0
  0
LINE
  5
15B76
  8
SU
 10
669.74403620919543
 20
469.87509481837259
 30
0.0
 11
668.35028660594537
 21
472.53168324028519
 31
0.0
  0
LINE
  5
15B77
  8
SU
 10
95.014029944404058
 20
365.45382015807922
 30
0.0
 11
96.947042646296282
 21
363.10574394672591
 31
0.0
210
0.0
220
0.0
230
-1.0
  0
LINE
  5
15B78
  8
SU
 10
95.880055348188506
 20
365.95382015807922
 30
0.0
 11
96.947042646296282
 21
363.10574394672591
 31
0.0
210
0.0
220
0.0
230
-1.0
  0
LINE
  5
15B79
  8
SU
 10
96.947042646296282
 20
363.10574394672591
 30
0.0
 11
95.447042646296268
 21
365.70382015807922
 31
0.0
210
0.0
220
0.0
230
-1.0
  0
LINE
  5
15B7A
  8
SU
 10
95.447042646296268
 20
365.70382015807922
 30
0.0
 11
84.841318934547417
 21
384.07347247786652
 31
0.0
210
0.0
220
0.0
230
-1.0
1001
ACAD
1000
DSTYLE
1002
{
1070
    41
1040
1.5
1070
    77
1070
     0
1070
   371
1070
    13
1002
}
  0
LINE
  5
15B7B
  8
SU
 10
84.841318934547417
 20
384.07347247786652
 30
0.0
 11
63.479656248247458
 21
384.07347247786652
 31
0.0
210
0.0
220
0.0
230
-1.0
1001
ACAD
1000
DSTYLE
1002
{
1070
    41
1040
1.5
1070
    77
1070
     0
1070
   371
1070
    13
1002
}
  0
LINE
  5
15B7C
  8
SU
 10
95.014029944402694
 20
161.63108369907431
 30
0.0
 11
96.947042646294904
 21
159.28300748772091
 31
0.0
210
0.0
220
0.0
230
-1.0
  0
LINE
  5
15B7D
  8
SU
 10
95.880055348187142
 20
162.1310836990742
 30
0.0
 11
96.947042646294904
 21
159.28300748772091
 31
0.0
210
0.0
220
0.0
230
-1.0
  0
LINE
  5
15B7E
  8
SU
 10
96.947042646294904
 20
159.28300748772091
 30
0.0
 11
95.447042646294918
 21
161.88108369907431
 31
0.0
210
0.0
220
0.0
230
-1.0
  0
LINE
  5
15B7F
  8
SU
 10
95.447042646294918
 20
161.88108369907431
 30
0.0
 11
84.841318934546052
 21
180.25073601886149
 31
0.0
210
0.0
220
0.0
230
-1.0
1001
ACAD
1000
DSTYLE
1002
{
1070
    41
1040
1.5
1070
    77
1070
     0
1070
   371
1070
    13
1002
}
  0
LINE
  5
15B80
  8
SU
 10
84.841318934546052
 20
180.25073601886149
 30
0.0
 11
63.479656248246101
 21
180.25073601886149
 31
0.0
210
0.0
220
0.0
230
-1.0
1001
ACAD
1000
DSTYLE
1002
{
1070
    41
1040
1.5
1070
    77
1070
     0
1070
   371
1070
    13
1002
}
  0
LINE
  5
160B8
  8
KI1
 10
233.69703412796159
 20
662.40574394563089
 30
0.0
 11
224.94703412796159
 21
662.40574394563089
 31
0.0
  0
ARC
  5
160B9
  8
KI1
 10
231.5470341279615
 20
637.10574394563082
 30
0.0
 40
0.5
 50
270.0
 51
0.0
  0
LINE
  5
160BA
  8
KI1
 10
233.5470341279615
 20
640.10574394563082
 30
0.0
 11
232.0470341279615
 21
640.10574394563082
 31
0.0
  0
LINE
  5
160BB
  8
KI1
 10
231.39703412796149
 20
641.25574394563091
 30
0.0
 11
233.5470341279615
 21
641.25574394563091
 31
0.0
  0
LINE
  5
160BC
  8
KI1
 10
205.19703412796159
 20
662.40574394563089
 30
0.0
 11
213.94703412796159
 21
662.40574394563089
 31
0.0
  0
LINE
  5
160BD
  8
KI1
 10
207.4970341279616
 20
641.25574394563091
 30
0.0
 11
205.34703412796159
 21
641.25574394563091
 31
0.0
  0
LINE
  5
160BE
  8
KI1
 10
205.34703412796159
 20
640.10574394563082
 30
0.0
 11
206.84703412796159
 21
640.10574394563082
 31
0.0
  0
LINE
  5
160BF
  8
KI1
 10
205.84703412796159
 20
661.25574394563091
 30
0.0
 11
233.0470341279615
 21
661.25574394563091
 31
0.0
  0
ARC
  5
160C0
  8
KI1
 10
204.69703412796159
 20
663.60574394563082
 30
0.0
 40
0.5
 50
0.0
 51
180.0
  0
ARC
  5
160C1
  8
KI1
 10
204.7720341279616
 20
638.33574394563084
 30
0.0
 40
0.575000000000003
 50
180.0
 51
0.0
  0
LINE
  5
160C2
  8
KI1
 10
204.19703412796159
 20
638.33574394563084
 30
0.0
 11
204.19703412796159
 21
663.60574394563082
 31
0.0
  0
LINE
  5
160C3
  8
KI1
 10
205.19703412796159
 20
663.60574394563082
 30
0.0
 11
205.19703412796159
 21
662.40574394563089
 31
0.0
  0
LINE
  5
160C4
  8
KI1
 10
205.34703412796159
 20
641.25574394563091
 30
0.0
 11
205.34703412796159
 21
660.75574394563091
 31
0.0
  0
LINE
  5
160C5
  8
KI1
 10
205.34703412796159
 20
638.33574394563084
 30
0.0
 11
205.34703412796159
 21
640.10574394563082
 31
0.0
  0
ARC
  5
160C6
  8
KI1
 10
205.84703412796159
 20
660.75574394563091
 30
0.0
 40
0.4999999999999999
 50
90.0
 51
180.0
  0
LINE
  5
160C7
  8
KI1
 10
214.94703412796159
 20
662.40574394563089
 30
0.0
 11
223.9470341279615
 21
662.40574394563089
 31
0.0
  0
ARC
  5
160C8
  8
KI1
 10
212.3720341279616
 20
645.78074394563089
 30
0.0
 40
0.5749999999999959
 50
0.0
 51
180.0
  0
LINE
  5
160C9
  8
KI1
 10
212.6470341279616
 20
636.60574394563082
 30
0.0
 11
207.34703412796159
 21
636.60574394563082
 31
0.0
  0
LINE
  5
160CA
  8
KI1
 10
211.4970341279616
 20
637.75574394563091
 30
0.0
 11
207.99703412796151
 21
637.75574394563091
 31
0.0
  0
ARC
  5
160CB
  8
KI1
 10
207.4970341279616
 20
640.75574394563091
 30
0.0
 40
0.5
 50
0.0
 51
90.0
  0
ARC
  5
160CC
  8
KI1
 10
207.34703412796159
 20
637.10574394563082
 30
0.0
 40
0.5
 50
180.0
 51
270.0
  0
LINE
  5
160CD
  8
KI1
 10
206.84703412796159
 20
637.10574394563082
 30
0.0
 11
206.84703412796159
 21
640.10574394563082
 31
0.0
  0
LINE
  5
160CE
  8
KI1
 10
207.99703412796151
 20
640.75574394563091
 30
0.0
 11
207.99703412796151
 21
637.75574394563091
 31
0.0
  0
LINE
  5
160CF
  8
KI1
 10
211.7970341279615
 20
638.05574394563087
 30
0.0
 11
211.7970341279615
 21
645.78074394563089
 31
0.0
  0
ARC
  5
160D0
  8
KI1
 10
211.4970341279616
 20
638.05574394563087
 30
0.0
 40
0.2999999999999999
 50
270.0
 51
0.0
  0
LINE
  5
160D1
  8
KI1
 10
214.69829826731049
 20
643.90574394563066
 30
0.0
 11
213.14703412796169
 21
643.90574394563066
 31
0.0
  0
LINE
  5
160D2
  8
KI1
 10
214.89703412796169
 20
637.60574394563082
 30
0.0
 11
212.94703412796159
 21
637.60574394563082
 31
0.0
  0
LINE
  5
160D3
  8
KI1
 10
214.89829826731059
 20
645.05574394563064
 30
0.0
 11
212.94703412796159
 21
645.05574394563064
 31
0.0
  0
LINE
  5
160D4
  8
KI1
 10
214.0470341279615
 20
639.30574394563064
 30
0.0
 11
214.69703412796159
 21
640.30574394563064
 31
0.0
  0
ARC
  5
160D5
  8
KI1
 10
214.44703412796159
 20
663.60574394563082
 30
0.0
 40
0.5
 50
0.0
 51
180.0
  0
LINE
  5
160D6
  8
KI1
 10
212.94703412796159
 20
642.40574394563077
 30
0.0
 11
213.14703412796169
 21
643.90574394563066
 31
0.0
  0
LINE
  5
160D7
  8
KI1
 10
212.94703412796159
 20
638.90574394563066
 30
0.0
 11
212.94703412796159
 21
642.40574394563077
 31
0.0
  0
LINE
  5
160D8
  8
KI1
 10
214.0470341279615
 20
638.90574394563066
 30
0.0
 11
212.94703412796159
 21
638.90574394563066
 31
0.0
  0
LINE
  5
160D9
  8
KI1
 10
214.0470341279615
 20
638.90574394563066
 30
0.0
 11
214.0470341279615
 21
639.30574394563064
 31
0.0
  0
LINE
  5
160DA
  8
KI1
 10
212.94703412796159
 20
645.78074394563089
 30
0.0
 11
212.94703412796159
 21
645.05574394563064
 31
0.0
  0
LINE
  5
160DB
  8
KI1
 10
213.94703412796159
 20
663.60574394563082
 30
0.0
 11
213.94703412796159
 21
662.40574394563089
 31
0.0
  0
ARC
  5
160DC
  8
KI1
 10
212.6470341279616
 20
636.90574394563089
 30
0.0
 40
0.2999999999999999
 50
270.0
 51
0.0
  0
LINE
  5
160DD
  8
KI1
 10
212.94703412796159
 20
636.90574394563089
 30
0.0
 11
212.94703412796159
 21
637.60574394563082
 31
0.0
  0
ARC
  5
160DE
  8
KI1
 10
214.89703412796169
 20
637.90574394563077
 30
0.0
 40
0.2999999999999999
 50
270.0
 51
0.0
  0
ARC
  5
160DF
  8
KI1
 10
214.89829826731059
 20
644.75574394563057
 30
0.0
 40
0.2999999999999999
 50
0.0
 51
90.0
  0
LINE
  5
160E0
  8
KI1
 10
215.19829826731049
 20
644.75574394563057
 30
0.0
 11
215.19829826731049
 21
644.40574394563066
 31
0.0
  0
LINE
  5
160E1
  8
KI1
 10
215.19703412796159
 20
640.00574394563068
 30
0.0
 11
215.19703412796159
 21
637.90574394563077
 31
0.0
  0
ARC
  5
160E2
  8
KI1
 10
214.89703412796169
 20
640.00574394563068
 30
0.0
 40
0.2999999999999999
 50
0.0
 51
90.0
  0
LINE
  5
160E3
  8
KI1
 10
214.89703412796169
 20
640.30574394563064
 30
0.0
 11
214.69703412796159
 21
640.30574394563064
 31
0.0
  0
ARC
  5
160E4
  8
KI1
 10
214.69829826731049
 20
644.40574394563066
 30
0.0
 40
0.5
 50
270.0
 51
0.0
  0
LINE
  5
160E5
  8
KI1
 10
214.94703412796159
 20
663.60574394563082
 30
0.0
 11
214.94703412796159
 21
662.40574394563089
 31
0.0
  0
LINE
  5
160E6
  8
KI1
 10
224.19829826731049
 20
643.90574394563066
 30
0.0
 11
225.7470341279616
 21
643.90574394563066
 31
0.0
  0
LINE
  5
160E7
  8
KI1
 10
223.9970341279616
 20
637.60574394563082
 30
0.0
 11
225.94703412796159
 21
637.60574394563082
 31
0.0
  0
LINE
  5
160E8
  8
KI1
 10
224.84703412796159
 20
638.90574394563066
 30
0.0
 11
225.94703412796159
 21
638.90574394563066
 31
0.0
  0
LINE
  5
160E9
  8
KI1
 10
223.9982982673105
 20
645.05574394563064
 30
0.0
 11
225.94703412796159
 21
645.05574394563064
 31
0.0
  0
ARC
  5
160EA
  8
KI1
 10
224.19829826731049
 20
644.40574394563066
 30
0.0
 40
0.5
 50
180.0
 51
270.0
  0
LINE
  5
160EB
  8
KI1
 10
223.9970341279616
 20
640.30574394563064
 30
0.0
 11
224.19703412796159
 21
640.30574394563064
 31
0.0
  0
ARC
  5
160EC
  8
KI1
 10
224.44703412796159
 20
663.60574394563082
 30
0.0
 40
0.5
 50
0.0
 51
180.0
  0
ARC
  5
160ED
  8
KI1
 10
223.9970341279616
 20
637.90574394563077
 30
0.0
 40
0.2999999999999999
 50
180.0
 51
270.0
  0
ARC
  5
160EE
  8
KI1
 10
223.9982982673105
 20
644.75574394563057
 30
0.0
 40
0.2999999999999999
 50
90.0
 51
180.0
  0
LINE
  5
160EF
  8
KI1
 10
223.69829826731049
 20
644.75574394563057
 30
0.0
 11
223.69829826731049
 21
644.40574394563066
 31
0.0
  0
LINE
  5
160F0
  8
KI1
 10
223.69703412796159
 20
640.00574394563068
 30
0.0
 11
223.69703412796159
 21
637.90574394563077
 31
0.0
  0
ARC
  5
160F1
  8
KI1
 10
223.9970341279616
 20
640.00574394563068
 30
0.0
 40
0.2999999999999999
 50
90.0
 51
180.0
  0
LINE
  5
160F2
  8
KI1
 10
223.94703412796159
 20
663.60574394563082
 30
0.0
 11
223.94703412796159
 21
662.40574394563089
 31
0.0
  0
LINE
  5
160F3
  8
KI1
 10
224.84703412796159
 20
638.90574394563066
 30
0.0
 11
224.84703412796159
 21
639.30574394563064
 31
0.0
  0
LINE
  5
160F4
  8
KI1
 10
224.84703412796159
 20
639.30574394563064
 30
0.0
 11
224.19703412796159
 21
640.30574394563064
 31
0.0
  0
LINE
  5
160F5
  8
KI1
 10
224.94703412796159
 20
663.60574394563082
 30
0.0
 11
224.94703412796159
 21
662.40574394563089
 31
0.0
  0
LINE
  5
160F6
  8
KI1
 10
226.2470341279616
 20
636.60574394563082
 30
0.0
 11
231.5470341279615
 21
636.60574394563082
 31
0.0
  0
LINE
  5
160F7
  8
KI1
 10
227.39703412796149
 20
637.75574394563091
 30
0.0
 11
230.8970341279616
 21
637.75574394563091
 31
0.0
  0
ARC
  5
160F8
  8
KI1
 10
227.39703412796149
 20
638.05574394563087
 30
0.0
 40
0.2999999999999999
 50
180.0
 51
270.0
  0
LINE
  5
160F9
  8
KI1
 10
225.7470341279616
 20
643.90574394563066
 30
0.0
 11
225.94703412796159
 21
642.40574394563077
 31
0.0
  0
LINE
  5
160FA
  8
KI1
 10
225.94703412796159
 20
638.90574394563066
 30
0.0
 11
225.94703412796159
 21
642.40574394563077
 31
0.0
  0
LINE
  5
160FB
  8
KI1
 10
227.09703412796159
 20
638.05574394563087
 30
0.0
 11
227.09703412796159
 21
645.78074394563089
 31
0.0
  0
LINE
  5
160FC
  8
KI1
 10
225.94703412796159
 20
645.78074394563089
 30
0.0
 11
225.94703412796159
 21
645.05574394563064
 31
0.0
  0
ARC
  5
160FD
  8
KI1
 10
226.52203412796149
 20
645.78074394563089
 30
0.0
 40
0.5749999999999959
 50
0.0
 51
180.0
  0
LINE
  5
160FE
  8
KI1
 10
225.94703412796159
 20
636.90574394563089
 30
0.0
 11
225.94703412796159
 21
637.60574394563082
 31
0.0
  0
ARC
  5
160FF
  8
KI1
 10
226.2470341279616
 20
636.90574394563089
 30
0.0
 40
0.2999999999999999
 50
180.0
 51
270.0
  0
LINE
  5
16100
  8
KI1
 10
232.0470341279615
 20
637.10574394563082
 30
0.0
 11
232.0470341279615
 21
640.10574394563082
 31
0.0
  0
ARC
  5
16101
  8
KI1
 10
234.19703412796159
 20
663.60574394563082
 30
0.0
 40
0.5
 50
0.0
 51
180.0
  0
ARC
  5
16102
  8
KI1
 10
234.12203412796151
 20
638.33574394563084
 30
0.0
 40
0.575000000000003
 50
180.0
 51
0.0
  0
LINE
  5
16103
  8
KI1
 10
233.69703412796159
 20
663.60574394563082
 30
0.0
 11
233.69703412796159
 21
662.40574394563089
 31
0.0
  0
LINE
  5
16104
  8
KI1
 10
233.5470341279615
 20
641.25574394563091
 30
0.0
 11
233.5470341279615
 21
660.75574394563091
 31
0.0
  0
LINE
  5
16105
  8
KI1
 10
233.5470341279615
 20
638.33574394563084
 30
0.0
 11
233.5470341279615
 21
640.10574394563082
 31
0.0
  0
ARC
  5
16106
  8
KI1
 10
233.0470341279615
 20
660.75574394563091
 30
0.0
 40
0.4999999999999999
 50
0.0
 51
90.0
  0
LINE
  5
16107
  8
KI1
 10
234.69703412796159
 20
638.33574394563084
 30
0.0
 11
234.69703412796159
 21
663.60574394563082
 31
0.0
  0
ARC
  5
16108
  8
KI1
 10
231.39703412796169
 20
640.75574394563091
 30
0.0
 40
0.5
 50
90.0
 51
180.0
  0
LINE
  5
16109
  8
KI1
 10
230.8970341279616
 20
640.75574394563091
 30
0.0
 11
230.8970341279616
 21
637.75574394563091
 31
0.0
  0
LINE
  5
1610A
  8
KI1
 10
191.39703412796149
 20
637.75574394563091
 30
0.0
 11
197.5470341279615
 21
637.75574394563091
 31
0.0
  0
LINE
  5
1610B
  8
KI1
 10
190.2470341279616
 20
636.60574394563082
 30
0.0
 11
206.62703412796151
 21
636.60574394563082
 31
0.0
  0
LINE
  5
1610C
  8
KI1
 10
197.69703412796159
 20
662.40574394563089
 30
0.0
 11
188.94703412796159
 21
662.40574394563089
 31
0.0
  0
LINE
  5
1610D
  8
KI1
 10
197.0470341279615
 20
661.25574394563091
 30
0.0
 11
169.84703412796159
 21
661.25574394563091
 31
0.0
  0
LINE
  5
1610E
  8
KI1
 10
198.69703412796159
 20
637.75574394563091
 30
0.0
 11
205.4270341279616
 21
637.75574394563091
 31
0.0
  0
ARC
  5
1610F
  8
KI1
 10
206.02703412796151
 20
639.00574394563091
 30
0.0
 40
0.5999999999999996
 50
0.0
 51
180.0
  0
LINE
  5
16110
  8
KI1
 10
206.62703412796151
 20
639.00574394563091
 30
0.0
 11
206.62703412796151
 21
636.60574394563082
 31
0.0
  0
LINE
  5
16111
  8
KI1
 10
205.4270341279616
 20
639.00574394563091
 30
0.0
 11
205.4270341279616
 21
637.75574394563091
 31
0.0
  0
ARC
  5
16112
  8
KI1
 10
198.19703412796159
 20
663.60574394563082
 30
0.0
 40
0.5
 50
0.0
 51
180.0
  0
LINE
  5
16113
  8
KI1
 10
198.69703412796159
 20
637.75574394563091
 30
0.0
 11
198.69703412796159
 21
663.60574394563082
 31
0.0
  0
LINE
  5
16114
  8
KI1
 10
197.69703412796159
 20
663.60574394563082
 30
0.0
 11
197.69703412796159
 21
662.40574394563089
 31
0.0
  0
LINE
  5
16115
  8
KI1
 10
197.5470341279615
 20
637.75574394563091
 30
0.0
 11
197.5470341279615
 21
660.75574394563091
 31
0.0
  0
ARC
  5
16116
  8
KI1
 10
197.0470341279615
 20
660.75574394563091
 30
0.0
 40
0.4999999999999999
 50
0.0
 51
90.0
  0
LINE
  5
16117
  8
KI1
 10
163.89703412796149
 20
636.60574394563082
 30
0.0
 11
176.64703412796149
 21
636.60574394563082
 31
0.0
  0
LINE
  5
16118
  8
KI1
 10
163.09703412796159
 20
637.60574394563082
 30
0.0
 11
168.19703412796159
 21
637.60574394563082
 31
0.0
  0
LINE
  5
16119
  8
KI1
 10
178.89703412796149
 20
637.60574394563082
 30
0.0
 11
176.94703412796159
 21
637.60574394563082
 31
0.0
  0
LINE
  5
1611A
  8
KI1
 10
178.89576998861261
 20
645.05574394563075
 30
0.0
 11
176.94703412796159
 21
645.05574394563075
 31
0.0
  0
ARC
  5
1611B
  8
KI1
 10
178.69576998861271
 20
644.40574394563066
 30
0.0
 40
0.5
 50
270.0
 51
0.0
  0
LINE
  5
1611C
  8
KI1
 10
178.89703412796149
 20
640.30574394563064
 30
0.0
 11
178.69703412796159
 21
640.30574394563064
 31
0.0
  0
ARC
  5
1611D
  8
KI1
 10
178.44703412796159
 20
663.60574394563082
 30
0.0
 40
0.5
 50
0.0
 51
180.0
  0
LINE
  5
1611E
  8
KI1
 10
188.19576998861271
 20
643.90574394563066
 30
0.0
 11
189.74703412796151
 21
643.90574394563066
 31
0.0
  0
LINE
  5
1611F
  8
KI1
 10
187.9970341279616
 20
637.60574394563082
 30
0.0
 11
189.94703412796159
 21
637.60574394563082
 31
0.0
  0
LINE
  5
16120
  8
KI1
 10
187.99576998861261
 20
645.05574394563075
 30
0.0
 11
189.94703412796159
 21
645.05574394563075
 31
0.0
  0
LINE
  5
16121
  8
KI1
 10
188.84703412796159
 20
639.30574394563075
 30
0.0
 11
188.19703412796159
 21
640.30574394563064
 31
0.0
  0
ARC
  5
16122
  8
KI1
 10
188.44703412796159
 20
663.60574394563082
 30
0.0
 40
0.5
 50
0.0
 51
180.0
  0
LINE
  5
16123
  8
KI1
 10
188.94703412796159
 20
663.60574394563082
 30
0.0
 11
188.94703412796159
 21
662.40574394563089
 31
0.0
  0
ARC
  5
16124
  8
KI1
 10
190.52203412796149
 20
645.78074394563089
 30
0.0
 40
0.5749999999999959
 50
0.0
 51
180.0
  0
ARC
  5
16125
  8
KI1
 10
190.2470341279616
 20
636.90574394563089
 30
0.0
 40
0.2999999999999999
 50
180.0
 51
270.0
  0
LINE
  5
16126
  8
KI1
 10
191.09703412796159
 20
638.05574394563087
 30
0.0
 11
191.09703412796159
 21
645.78074394563089
 31
0.0
  0
ARC
  5
16127
  8
KI1
 10
191.39703412796149
 20
638.05574394563087
 30
0.0
 40
0.2999999999999999
 50
180.0
 51
270.0
  0
LINE
  5
16128
  8
KI1
 10
189.74703412796151
 20
643.90574394563066
 30
0.0
 11
189.94703412796159
 21
642.40574394563077
 31
0.0
  0
LINE
  5
16129
  8
KI1
 10
189.94703412796159
 20
638.90574394563066
 30
0.0
 11
189.94703412796159
 21
642.40574394563077
 31
0.0
  0
LINE
  5
1612A
  8
KI1
 10
188.84703412796159
 20
638.90574394563066
 30
0.0
 11
189.94703412796159
 21
638.90574394563066
 31
0.0
  0
LINE
  5
1612B
  8
KI1
 10
188.84703412796159
 20
638.90574394563066
 30
0.0
 11
188.84703412796159
 21
639.30574394563075
 31
0.0
  0
LINE
  5
1612C
  8
KI1
 10
189.94703412796159
 20
645.78074394563089
 30
0.0
 11
189.94703412796159
 21
645.05574394563075
 31
0.0
  0
LINE
  5
1612D
  8
KI1
 10
189.94703412796159
 20
636.90574394563089
 30
0.0
 11
189.94703412796159
 21
637.60574394563082
 31
0.0
  0
LINE
  5
1612E
  8
KI1
 10
187.94703412796159
 20
663.60574394563082
 30
0.0
 11
187.94703412796159
 21
662.40574394563089
 31
0.0
  0
ARC
  5
1612F
  8
KI1
 10
187.9970341279616
 20
637.90574394563077
 30
0.0
 40
0.2999999999999999
 50
180.0
 51
270.0
  0
ARC
  5
16130
  8
KI1
 10
187.99576998861261
 20
644.75574394563057
 30
0.0
 40
0.2999999999999999
 50
90.0
 51
180.0
  0
LINE
  5
16131
  8
KI1
 10
187.69576998861271
 20
644.75574394563057
 30
0.0
 11
187.69576998861271
 21
644.40574394563066
 31
0.0
  0
LINE
  5
16132
  8
KI1
 10
187.69703412796159
 20
640.00574394563068
 30
0.0
 11
187.69703412796159
 21
637.90574394563077
 31
0.0
  0
ARC
  5
16133
  8
KI1
 10
187.9970341279616
 20
640.00574394563068
 30
0.0
 40
0.2999999999999999
 50
90.0
 51
180.0
  0
LINE
  5
16134
  8
KI1
 10
187.9970341279616
 20
640.30574394563064
 30
0.0
 11
188.19703412796159
 21
640.30574394563064
 31
0.0
  0
ARC
  5
16135
  8
KI1
 10
188.19576998861271
 20
644.40574394563066
 30
0.0
 40
0.5
 50
180.0
 51
270.0
  0
LINE
  5
16136
  8
KI1
 10
178.94703412796159
 20
662.40574394563089
 30
0.0
 11
187.94703412796159
 21
662.40574394563089
 31
0.0
  0
LINE
  5
16137
  8
KI1
 10
178.94703412796159
 20
663.60574394563082
 30
0.0
 11
178.94703412796159
 21
662.40574394563089
 31
0.0
  0
ARC
  5
16138
  8
KI1
 10
178.89703412796149
 20
637.90574394563077
 30
0.0
 40
0.2999999999999999
 50
270.0
 51
0.0
  0
ARC
  5
16139
  8
KI1
 10
178.89576998861261
 20
644.75574394563057
 30
0.0
 40
0.2999999999999999
 50
0.0
 51
90.0
  0
LINE
  5
1613A
  8
KI1
 10
179.19576998861271
 20
644.75574394563057
 30
0.0
 11
179.19576998861271
 21
644.40574394563066
 31
0.0
  0
LINE
  5
1613B
  8
KI1
 10
179.19703412796159
 20
640.00574394563068
 30
0.0
 11
179.19703412796159
 21
637.90574394563077
 31
0.0
  0
ARC
  5
1613C
  8
KI1
 10
178.89703412796149
 20
640.00574394563068
 30
0.0
 40
0.2999999999999999
 50
0.0
 51
90.0
  0
LINE
  5
1613D
  8
KI1
 10
175.4970341279616
 20
637.75574394563091
 30
0.0
 11
169.34703412796159
 21
637.75574394563091
 31
0.0
  0
LINE
  5
1613E
  8
KI1
 10
169.19703412796159
 20
662.40574394563089
 30
0.0
 11
177.94703412796159
 21
662.40574394563089
 31
0.0
  0
ARC
  5
1613F
  8
KI1
 10
175.4970341279616
 20
638.05574394563087
 30
0.0
 40
0.2999999999999999
 50
270.0
 51
0.0
  0
LINE
  5
16140
  8
KI1
 10
177.94703412796159
 20
663.60574394563082
 30
0.0
 11
177.94703412796159
 21
662.40574394563089
 31
0.0
  0
LINE
  5
16141
  8
KI1
 10
178.69576998861271
 20
643.90574394563066
 30
0.0
 11
177.14703412796149
 21
643.90574394563066
 31
0.0
  0
LINE
  5
16142
  8
KI1
 10
178.0470341279615
 20
638.90574394563066
 30
0.0
 11
176.94703412796159
 21
638.90574394563066
 31
0.0
  0
LINE
  5
16143
  8
KI1
 10
178.0470341279615
 20
638.90574394563066
 30
0.0
 11
178.0470341279615
 21
639.30574394563075
 31
0.0
  0
LINE
  5
16144
  8
KI1
 10
178.0470341279615
 20
639.30574394563075
 30
0.0
 11
178.69703412796159
 21
640.30574394563064
 31
0.0
  0
LINE
  5
16145
  8
KI1
 10
177.14703412796149
 20
643.90574394563066
 30
0.0
 11
176.94703412796159
 21
642.40574394563077
 31
0.0
  0
LINE
  5
16146
  8
KI1
 10
176.94703412796159
 20
638.90574394563066
 30
0.0
 11
176.94703412796159
 21
642.40574394563077
 31
0.0
  0
LINE
  5
16147
  8
KI1
 10
175.7970341279615
 20
638.05574394563087
 30
0.0
 11
175.7970341279615
 21
645.78074394563089
 31
0.0
  0
LINE
  5
16148
  8
KI1
 10
176.94703412796159
 20
645.78074394563089
 30
0.0
 11
176.94703412796159
 21
645.05574394563075
 31
0.0
  0
ARC
  5
16149
  8
KI1
 10
176.37203412796151
 20
645.78074394563089
 30
0.0
 40
0.5749999999999959
 50
0.0
 51
180.0
  0
LINE
  5
1614A
  8
KI1
 10
176.94703412796159
 20
636.90574394563089
 30
0.0
 11
176.94703412796159
 21
637.60574394563082
 31
0.0
  0
ARC
  5
1614B
  8
KI1
 10
176.64703412796149
 20
636.90574394563089
 30
0.0
 40
0.2999999999999999
 50
270.0
 51
0.0
  0
ARC
  5
1614C
  8
KI1
 10
168.69703412796159
 20
663.60574394563082
 30
0.0
 40
0.5
 50
0.0
 51
180.0
  0
LINE
  5
1614D
  8
KI1
 10
169.19703412796159
 20
663.60574394563082
 30
0.0
 11
169.19703412796159
 21
662.40574394563089
 31
0.0
  0
LINE
  5
1614E
  8
KI1
 10
169.34703412796159
 20
637.75574394563091
 30
0.0
 11
169.34703412796159
 21
660.75574394563091
 31
0.0
  0
ARC
  5
1614F
  8
KI1
 10
169.84703412796159
 20
660.75574394563091
 30
0.0
 40
0.4999999999999999
 50
90.0
 51
180.0
  0
LINE
  5
16150
  8
KI1
 10
168.19703412796159
 20
637.60574394563082
 30
0.0
 11
168.19703412796159
 21
663.60574394563082
 31
0.0
  0
ARC
  5
16151
  8
KI1
 10
163.09703412796159
 20
637.10574394563082
 30
0.0
 40
0.5
 50
90.0
 51
180.0
  0
ARC
  5
16152
  8
KI1
 10
163.89703412796149
 20
636.30574394563087
 30
0.0
 40
0.2999999999999999
 50
90.0
 51
180.0
  0
LINE
  5
16153
  8
KI1
 10
163.59703412796159
 20
636.30574394563087
 30
0.0
 11
163.59703412796159
 21
624.10574394563082
 31
0.0
  0
LINE
  5
16154
  8
KI1
 10
162.59703412796159
 20
637.10574394563082
 30
0.0
 11
162.59703412796159
 21
624.10574394563082
 31
0.0
  0
ARC
  5
16155
  8
KI1
 10
163.09703412796159
 20
624.10574394563082
 30
0.0
 40
0.5
 50
180.0
 51
0.0
  0
TEXT
  5
1641E
  8
MJ
 10
217.9430416946376
 20
55.783007487720909
 30
0.0
 40
7.0
  1
埋込みレール
 41
0.8299999999999999
 72
     4
 11
237.69704169463759
 21
59.283007487720909
 31
0.0
  0
TEXT
  5
16442
  8
MJ
 10
217.9430416946376
 20
272.65186288284468
 30
0.0
 40
7.0
  1
直貼りレール
 41
0.8299999999999999
 72
     4
 11
237.69704169463759
 21
276.15186288284468
 31
0.0
  0
LINE
  5
18A9A
  8
KI2
 10
254.22703291304489
 20
653.20574473009844
 30
0.0
 11
257.66703291304498
 21
653.20574473009844
 31
0.0
  0
LINE
  5
18A9B
  8
KI2
 10
258.16703291304498
 20
652.70574473009844
 30
0.0
 11
253.72703291304489
 21
652.70574473009844
 31
0.0
  0
LINE
  5
18A9C
  8
KI2
 10
253.72703291304489
 20
652.70574473009844
 30
0.0
 11
253.72703291304489
 21
644.80574473009847
 31
0.0
  0
LINE
  5
18A9D
  8
KI2
 10
254.22703291304489
 20
653.20574473009844
 30
0.0
 11
253.72703291304489
 21
652.70574473009844
 31
0.0
  0
LINE
  5
18A9E
  8
KI2
 10
258.16703291304498
 20
652.70574473009844
 30
0.0
 11
258.16703291304498
 21
644.80574473009847
 31
0.0
  0
LINE
  5
18A9F
  8
KI2
 10
258.16703291304498
 20
652.70574473009844
 30
0.0
 11
257.66703291304498
 21
653.20574473009844
 31
0.0
  0
LINE
  5
18AA0
  8
KI2
 10
259.94703291304501
 20
644.80574473009847
 30
0.0
 11
259.94703291304501
 21
642.99574473009852
 31
0.0
  0
LINE
  5
18AA1
  8
KI2
 10
261.84703291304493
 20
642.99574473009852
 30
0.0
 11
261.84703291304493
 21
640.99574473009852
 31
0.0
  0
LINE
  5
18AA2
  8
KI2
 10
251.94703291304501
 20
644.80574473009847
 30
0.0
 11
259.94703291304501
 21
644.80574473009847
 31
0.0
  0
LINE
  5
18AA3
  8
KI2
 10
250.04703291304489
 20
640.99574473009852
 30
0.0
 11
261.84703291304493
 21
640.99574473009852
 31
0.0
  0
LINE
  5
18AA4
  8
KI2
 10
250.04703291304489
 20
642.99574473009852
 30
0.0
 11
261.84703291304493
 21
642.99574473009852
 31
0.0
  0
LINE
  5
18AA5
  8
KI2
 10
251.94703291304501
 20
644.80574473009847
 30
0.0
 11
251.94703291304501
 21
642.99574473009852
 31
0.0
  0
LINE
  5
18AA6
  8
KI2
 10
250.04703291304489
 20
642.99574473009852
 30
0.0
 11
250.04703291304489
 21
640.99574473009852
 31
0.0
  0
LINE
  5
18AA7
  8
KI2
 10
258.94703291304489
 20
640.99574473009852
 30
0.0
 11
258.94703291304489
 21
627.10574473009865
 31
0.0
  0
LINE
  5
18AA8
  8
KI2
 10
252.94703291304489
 20
640.99574473009852
 30
0.0
 11
252.94703291304489
 21
627.10574473009865
 31
0.0
  0
LINE
  5
18AA9
  8
KI2
 10
252.94703291304489
 20
638.48574473009853
 30
0.0
 11
258.94703291304489
 21
638.48574473009853
 31
0.0
  0
LINE
  5
18AD0
  8
KI1
 10
275.44704169456833
 20
627.10574473009865
 30
0.0
 11
308.44703291288653
 21
627.10574473009865
 31
0.0
  0
LINE
  5
18AD8
  8
KI1
 10
275.44704169463762
 20
337.1057439467258
 30
0.0
 11
308.44704169456833
 21
337.1057439467258
 31
0.0
  0
LINE
  5
18ADB
  8
KI1
 10
275.44704169456833
 20
627.10574473009865
 30
0.0
 11
275.44704169456833
 21
337.1057439467258
 31
0.0
  0
LINE
  5
18ADC
  8
KI1
 10
308.44704169456833
 20
627.10574473009865
 30
0.0
 11
308.44704169456833
 21
337.1057439467258
 31
0.0
  0
LINE
  5
18ADF
  8
KI2
 10
290.22703291304492
 20
653.20574473009844
 30
0.0
 11
293.66703291304498
 21
653.20574473009844
 31
0.0
  0
LINE
  5
18AE0
  8
KI2
 10
294.16703291304498
 20
652.70574473009844
 30
0.0
 11
289.72703291304492
 21
652.70574473009844
 31
0.0
  0
LINE
  5
18AE1
  8
KI2
 10
289.72703291304492
 20
652.70574473009844
 30
0.0
 11
289.72703291304492
 21
644.80574473009847
 31
0.0
  0
LINE
  5
18AE2
  8
KI2
 10
290.22703291304492
 20
653.20574473009844
 30
0.0
 11
289.72703291304492
 21
652.70574473009844
 31
0.0
  0
LINE
  5
18AE3
  8
KI2
 10
294.16703291304498
 20
652.70574473009844
 30
0.0
 11
294.16703291304498
 21
644.80574473009847
 31
0.0
  0
LINE
  5
18AE4
  8
KI2
 10
294.16703291304498
 20
652.70574473009844
 30
0.0
 11
293.66703291304498
 21
653.20574473009844
 31
0.0
  0
LINE
  5
18AE5
  8
KI2
 10
295.94703291304501
 20
644.80574473009847
 30
0.0
 11
295.94703291304501
 21
642.99574473009852
 31
0.0
  0
LINE
  5
18AE6
  8
KI2
 10
297.84703291304493
 20
642.99574473009852
 30
0.0
 11
297.84703291304493
 21
640.99574473009852
 31
0.0
  0
LINE
  5
18AE7
  8
KI2
 10
287.94703291304501
 20
644.80574473009847
 30
0.0
 11
295.94703291304501
 21
644.80574473009847
 31
0.0
  0
LINE
  5
18AE8
  8
KI2
 10
286.04703291304497
 20
640.99574473009852
 30
0.0
 11
297.84703291304493
 21
640.99574473009852
 31
0.0
  0
LINE
  5
18AE9
  8
KI2
 10
286.04703291304497
 20
642.99574473009852
 30
0.0
 11
297.84703291304493
 21
642.99574473009852
 31
0.0
  0
LINE
  5
18AEA
  8
KI2
 10
287.94703291304501
 20
644.80574473009847
 30
0.0
 11
287.94703291304501
 21
642.99574473009852
 31
0.0
  0
LINE
  5
18AEB
  8
KI2
 10
286.04703291304497
 20
642.99574473009852
 30
0.0
 11
286.04703291304497
 21
640.99574473009852
 31
0.0
  0
LINE
  5
18AEC
  8
KI2
 10
294.94703291304489
 20
640.99574473009852
 30
0.0
 11
294.94703291304489
 21
627.10574473009865
 31
0.0
  0
LINE
  5
18AED
  8
KI2
 10
288.94703291304501
 20
640.99574473009852
 30
0.0
 11
288.94703291304501
 21
627.10574473009865
 31
0.0
  0
LINE
  5
18AEE
  8
KI2
 10
288.94703291304501
 20
638.48574473009853
 30
0.0
 11
294.94703291304489
 21
638.48574473009853
 31
0.0
  0
LINE
  5
18AEF
  8
OS
 10
275.44704169456833
 20
388.10574394672591
 30
0.0
 11
272.44704169456833
 21
388.10574394672591
 31
0.0
  0
LINE
  5
18C73
  8
KI2
 10
179.947041694706
 20
333.11057788732762
 30
0.0
 11
182.447041694706
 21
331.61057788732751
 31
0.0
  0
LINE
  5
18C74
  8
KI2
 10
179.947041694706
 20
335.60574394672591
 30
0.0
 11
179.947041694706
 21
333.11057788732762
 31
0.0
  0
LINE
  5
18C75
  8
KI2
 10
184.447041694706
 20
330.11057788732762
 30
0.0
 11
183.44704169470609
 21
330.11057788732762
 31
0.0
  0
LINE
  5
18C76
  8
KI2
 10
182.447041694706
 20
330.11057788732762
 30
0.0
 11
183.44704169470609
 21
330.11057788732762
 31
0.0
  0
LINE
  5
18C77
  8
KI2
 10
186.947041694706
 20
333.11057788732762
 30
0.0
 11
184.447041694706
 21
331.61057788732751
 31
0.0
  0
LINE
  5
18C78
  8
KI2
 10
186.947041694706
 20
335.60574394672591
 30
0.0
 11
186.947041694706
 21
333.11057788732762
 31
0.0
  0
LINE
  5
18C79
  8
KI2
 10
184.447041694706
 20
335.60574394672591
 30
0.0
 11
184.447041694706
 21
330.11057788732762
 31
0.0
  0
LINE
  5
18C7A
  8
KI2
 10
182.447041694706
 20
335.60574394672591
 30
0.0
 11
182.447041694706
 21
330.11057788732762
 31
0.0
  0
LINE
  5
18C7B
  8
KI2
 10
168.44704169470691
 20
335.6057439467258
 30
0.0
 11
198.44704169470691
 21
335.60574394672602
 31
0.0
  0
ARC
  5
18C7C
  8
KI2
 10
168.44704169470691
 20
337.1057439467258
 30
0.0
 40
1.5
 50
180.0
 51
270.0
  0
ARC
  5
18C7D
  8
KI2
 10
198.44704169470691
 20
337.1057439467258
 30
0.0
 40
1.5
 50
270.0
 51
0.0
  0
LINE
  5
18C7E
  8
KI2
 10
215.94704169470609
 20
333.11057788732762
 30
0.0
 11
218.44704169470609
 21
331.61057788732751
 31
0.0
  0
LINE
  5
18C7F
  8
KI2
 10
215.94704169470609
 20
335.60574394672591
 30
0.0
 11
215.94704169470609
 21
333.11057788732762
 31
0.0
  0
LINE
  5
18C80
  8
KI2
 10
222.947041694706
 20
333.11057788732762
 30
0.0
 11
220.44704169470609
 21
331.61057788732751
 31
0.0
  0
LINE
  5
18C81
  8
KI2
 10
222.947041694706
 20
335.60574394672591
 30
0.0
 11
222.947041694706
 21
333.11057788732762
 31
0.0
  0
LINE
  5
18C82
  8
KI2
 10
220.44704169470609
 20
335.60574394672591
 30
0.0
 11
220.44704169470609
 21
330.11057788732762
 31
0.0
  0
LINE
  5
18C83
  8
KI2
 10
218.44704169470609
 20
335.60574394672591
 30
0.0
 11
218.44704169470609
 21
330.11057788732762
 31
0.0
  0
LINE
  5
18C84
  8
KI2
 10
204.447041694707
 20
335.6057439467258
 30
0.0
 11
234.447041694707
 21
335.60574394672602
 31
0.0
  0
ARC
  5
18C85
  8
KI2
 10
204.447041694707
 20
337.1057439467258
 30
0.0
 40
1.5
 50
180.0
 51
270.0
  0
ARC
  5
18C86
  8
KI2
 10
234.447041694707
 20
337.1057439467258
 30
0.0
 40
1.5
 50
270.0
 51
0.0
  0
ARC
  5
18C87
  8
KI1
 10
178.77249740346559
 20
331.40573902738771
 30
0.0
 40
0.5
 50
90.0
 51
130.40000551602071
  0
LINE
  5
18C88
  8
KI1
 10
179.84704663754309
 20
333.10573902738793
 30
0.0
 11
178.14701909808011
 21
333.10573902738793
 31
0.0
  0
LINE
  5
18C89
  8
KI1
 10
174.64704169463789
 20
328.55126617303608
 30
0.0
 11
174.64704169463789
 21
328.10574394672608
 31
0.0
  0
LINE
  5
18C8A
  8
KI1
 10
173.44704169463759
 20
329.10574394672699
 30
0.0
 11
173.44704169463759
 21
328.10574394672608
 31
0.0
  0
LINE
  5
18C8B
  8
KI1
 10
174.64704169463789
 20
328.10574394672608
 30
0.0
 11
173.44704169463759
 21
328.10574394672608
 31
0.0
  0
LINE
  5
18C8C
  8
KI1
 10
178.4484374162773
 20
331.7865081499578
 30
0.0
 11
174.64704169463789
 21
328.55126617303608
 31
0.0
  0
LINE
  5
18C8D
  8
KI1
 10
178.14701909808011
 20
333.10573902738793
 30
0.0
 11
173.44704169463759
 21
329.10574394672699
 31
0.0
  0
LINE
  5
18C8E
  8
KI1
 10
214.19319743544909
 20
328.10574394672608
 30
0.0
 11
201.44704169463759
 21
328.10574394672608
 31
0.0
  0
LINE
  5
18C8F
  8
KI1
 10
206.64704169463789
 20
331.60574400564218
 30
0.0
 11
212.34704813249189
 21
331.60574400564218
 31
0.0
  0
LINE
  5
18C90
  8
KI1
 10
214.6470381642018
 20
332.80573652058609
 30
0.0
 11
188.24704522507429
 21
332.80573652058609
 31
0.0
  0
LINE
  5
18C91
  8
KI1
 10
201.7298804090062
 20
329.30573646167181
 30
0.0
 11
214.04703909357499
 21
329.30573646167181
 31
0.0
  0
LINE
  5
18C92
  8
KI1
 10
205.7470416946378
 20
331.60574400564218
 30
0.0
 11
205.7470416946378
 21
330.05573652058609
 31
0.0
  0
ARC
  5
18C93
  8
KI1
 10
206.19704169463759
 20
330.05573652058609
 30
0.0
 40
0.4499999999999992
 50
180.0
 51
0.0
  0
LINE
  5
18C94
  8
KI1
 10
206.64704169463789
 20
331.60574400564218
 30
0.0
 11
206.64704169463789
 21
330.05573652058609
 31
0.0
  0
ARC
  5
18C95
  8
KI1
 10
201.447044080762
 20
329.30573646167181
 30
0.0
 40
0.3
 50
180.0
 51
0.0
  0
ARC
  5
18C96
  8
KI1
 10
196.69704169463759
 20
330.05573652058609
 30
0.0
 40
0.4499999999999992
 50
180.0
 51
0.0
  0
LINE
  5
18C97
  8
KI1
 10
196.2470416946378
 20
331.60574400564218
 30
0.0
 11
196.2470416946378
 21
330.05573652058609
 31
0.0
  0
LINE
  5
18C98
  8
KI1
 10
197.14704169463789
 20
331.60574400564218
 30
0.0
 11
197.14704169463789
 21
330.05573652058609
 31
0.0
  0
LINE
  5
18C99
  8
KI1
 10
197.14704169463789
 20
331.60574400564218
 30
0.0
 11
205.7470416946378
 21
331.60574400564218
 31
0.0
  0
ARC
  5
18C9A
  8
KI1
 10
188.70088595382609
 20
329.10574394672608
 30
0.0
 40
1.0
 50
199.72084247195721
 51
270.0
  0
LINE
  5
18C9B
  8
KI1
 10
187.75953809636439
 20
328.7683062321002
 30
0.0
 11
187.66771562336859
 21
329.0244628040391
 31
0.0
  0
LINE
  5
18C9C
  8
KI1
 10
186.63454529291079
 20
328.7683062321002
 30
0.0
 11
186.72636776590659
 21
329.0244628040391
 31
0.0
  0
ARC
  5
18C9D
  8
KI1
 10
187.19704169463759
 20
328.85574394672608
 30
0.0
 40
0.5
 50
19.72084247195728
 51
160.2791575280427
  0
ARC
  5
18C9E
  8
KI1
 10
187.747049285738
 20
332.80573902738729
 30
0.0
 40
0.3
 50
0.0
 51
90.0
  0
LINE
  5
18C9F
  8
KI1
 10
187.747049285738
 20
333.10573902738793
 30
0.0
 11
187.047036751733
 21
333.10573902738793
 31
0.0
  0
LINE
  5
18CA0
  8
KI1
 10
188.84704429570201
 20
330.60574148705678
 30
0.0
 11
188.84704429570201
 21
329.30573646167181
 31
0.0
  0
LINE
  5
18CA1
  8
KI1
 10
189.24704430748511
 20
330.60574148705678
 30
0.0
 11
188.84704429570201
 21
330.60574148705678
 31
0.0
  0
ARC
  5
18CA2
  8
KI1
 10
189.24704430748511
 20
330.90574148705701
 30
0.0
 40
0.3
 50
270.0
 51
0.0
  0
LINE
  5
18CA3
  8
KI1
 10
189.54704430748481
 20
331.00574400564102
 30
0.0
 11
189.54704430748481
 21
330.90574148705701
 31
0.0
  0
ARC
  5
18CA4
  8
KI1
 10
188.9470443074849
 20
331.00574400564102
 30
0.0
 40
0.6
 50
0.0
 51
90.0
  0
LINE
  5
18CA5
  8
KI1
 10
189.64704524863981
 20
331.60574400564218
 30
0.0
 11
188.04704928573821
 21
331.60574400564218
 31
0.0
  0
LINE
  5
18CA6
  8
KI1
 10
188.04704928573821
 20
332.80573902738729
 30
0.0
 11
188.04704928573821
 21
331.60574400564218
 31
0.0
  0
LINE
  5
18CA7
  8
KI1
 10
190.71329664254989
 20
330.1674446719137
 30
0.0
 11
190.4308414191425
 21
330.57294102618312
 31
0.0
  0
LINE
  5
18CA8
  8
KI1
 10
190.55666699916509
 20
329.6924596744268
 30
0.0
 11
190.63914973847091
 21
329.75019759193918
 31
0.0
  0
LINE
  5
18CA9
  8
KI1
 10
190.54705276904241
 20
330.97968075083207
 30
0.0
 11
190.54705276904241
 21
331.60574400564218
 31
0.0
  0
LINE
  5
18CAA
  8
KI1
 10
190.4308414191425
 20
330.57294102618312
 30
0.0
 11
190.54705276904241
 21
330.97968075083207
 31
0.0
  0
LINE
  5
18CAC
  8
KI1
 10
189.64704524863981
 20
331.60574400564218
 30
0.0
 11
189.64704524863981
 21
331.10573399021968
 31
0.0
  0
LINE
  5
18CAD
  8
KI1
 10
189.64704524863981
 20
331.10573399021968
 30
0.0
 11
189.5124810514387
 21
330.63472427549573
 31
0.0
  0
LINE
  5
18CAE
  8
KI1
 10
188.24704522507429
 20
332.80573652058609
 30
0.0
 11
188.24704522507429
 21
331.60574400564218
 31
0.0
  0
LINE
  5
18CAF
  8
KI1
 10
189.58361584699171
 20
330.21062990230189
 30
0.0
 11
189.86030953722931
 21
329.8153431949579
 31
0.0
  0
ARC
  5
18CB0
  8
KI1
 10
190.46712681953409
 20
329.99598214526048
 30
0.0
 40
0.3000000099360252
 50
304.99198913572991
 51
34.858993530263639
  0
ARC
  5
18CB1
  8
KI1
 10
190.2699387845926
 20
330.10208892178912
 30
0.0
 40
0.4999999937576218
 50
214.99197387695901
 51
304.99198913572991
  0
ARC
  5
18CB2
  8
KI1
 10
189.9932275820963
 20
330.49735811687492
 30
0.0
 40
0.4999999937576218
 50
164.0549926757796
 51
214.9919891357321
  0
ARC
  5
18CB3
  8
KI1
 10
181.14704169463789
 20
329.10574394672699
 30
0.0
 40
1.0
 50
180.0
 51
270.0
  0
LINE
  5
18CB4
  8
KI1
 10
179.84704169463771
 20
333.10573902738793
 30
0.0
 11
181.34704169463771
 21
331.84708958062203
 31
0.0
  0
ARC
  5
18CB5
  8
KI1
 10
179.84704169463771
 20
331.14762809338868
 30
0.0
 40
0.3
 50
0.0
 51
50.000000000010331
  0
LINE
  5
18CB6
  8
KI1
 10
179.22829229638569
 20
331.9057390273872
 30
0.0
 11
178.77249740346559
 21
331.9057390273872
 31
0.0
  0
LINE
  5
18CB7
  8
KI1
 10
179.5496861012291
 20
331.78876124894742
 30
0.0
 11
180.03987797754439
 21
331.37744142632499
 31
0.0
  0
ARC
  5
18CB8
  8
KI1
 10
179.22829229638569
 20
331.40573902738771
 30
0.0
 40
0.5
 50
50.000000000010331
 51
90.0
  0
LINE
  5
18CB9
  8
KI1
 10
180.14704169463789
 20
329.10574394672699
 30
0.0
 11
180.14704169463789
 21
331.14762809338868
 31
0.0
  0
LINE
  5
18CBA
  8
KI1
 10
181.34704169463771
 20
329.30574394672681
 30
0.0
 11
181.34704169463771
 21
331.84708958062203
 31
0.0
  0
LINE
  5
18CBB
  8
KI1
 10
181.34704169463771
 20
329.30574394672681
 30
0.0
 11
183.44704169463759
 21
329.30574394672681
 31
0.0
  0
LINE
  5
18CBC
  8
KI1
 10
185.69319743544901
 20
328.10574394672608
 30
0.0
 11
181.14704169463789
 21
328.10574394672699
 31
0.0
  0
LINE
  5
18CBD
  8
KI1
 10
185.5470416946375
 20
329.30574394672681
 30
0.0
 11
185.5470416946375
 21
331.84708958062203
 31
0.0
  0
LINE
  5
18CBE
  8
KI1
 10
185.5470416946375
 20
329.30574394672681
 30
0.0
 11
183.44704169463759
 21
329.30574394672681
 31
0.0
  0
ARC
  5
18CBF
  8
KI1
 10
185.69319743544901
 20
329.10574394672608
 30
0.0
 40
1.0
 50
270.0
 51
340.27915752804267
  0
LINE
  5
18CC0
  8
KI1
 10
187.0470416946375
 20
333.10573902738793
 30
0.0
 11
185.5470416946375
 21
331.84708958062203
 31
0.0
  0
LINE
  5
18CC2
  8
KI1
 10
188.70088595382609
 20
328.10574394672608
 30
0.0
 11
201.44704169463759
 21
328.10574394672608
 31
0.0
  0
LINE
  5
18CC3
  8
KI1
 10
201.16420298026989
 20
329.30573646167181
 30
0.0
 11
188.84704429570201
 21
329.30573646167181
 31
0.0
  0
LINE
  5
18CC4
  8
KI1
 10
190.54705276904241
 20
331.60574400564218
 30
0.0
 11
196.2470416946378
 21
331.60574400564218
 31
0.0
  0
LINE
  5
18CC5
  8
KI1
 10
229.44704169463759
 20
329.10574394672699
 30
0.0
 11
229.44704169463759
 21
328.10574394672608
 31
0.0
  0
LINE
  5
18CC6
  8
KI1
 10
228.2470416946378
 20
328.55126617303608
 30
0.0
 11
228.2470416946378
 21
328.10574394672608
 31
0.0
  0
LINE
  5
18CC8
  8
KI1
 10
229.44704169463759
 20
328.10574394672608
 30
0.0
 11
228.2470416946378
 21
328.10574394672608
 31
0.0
  0
ARC
  5
18CCA
  8
KI1
 10
223.2470416946378
 20
331.05436656175812
 30
0.0
 40
0.5
 50
129.99999999998971
 51
180.0
  0
LINE
  5
18CCB
  8
KI1
 10
223.34439728804711
 20
331.78876124894742
 30
0.0
 11
222.9256478897953
 21
331.43738878331692
 31
0.0
  0
ARC
  5
18CCC
  8
KI1
 10
223.66579109289091
 20
331.40573902738771
 30
0.0
 40
0.5
 50
90.0
 51
129.99999999998971
  0
LINE
  5
18CCD
  8
KI1
 10
224.1215859858101
 20
331.9057390273872
 30
0.0
 11
223.66579109289091
 21
331.9057390273872
 31
0.0
  0
ARC
  5
18CCE
  8
KI1
 10
224.1215859858101
 20
331.40573902738771
 30
0.0
 40
0.5
 50
49.599994483979231
 51
90.0
  0
LINE
  5
18CD0
  8
KI1
 10
222.7470416946378
 20
329.10574394672699
 30
0.0
 11
222.7470416946378
 21
331.05436656175812
 31
0.0
  0
ARC
  5
18CD1
  8
KI1
 10
221.7470416946378
 20
329.10574394672699
 30
0.0
 40
1.0
 50
270.0
 51
0.0
  0
LINE
  5
18CD2
  8
KI1
 10
223.047036751733
 20
333.10573902738793
 30
0.0
 11
224.74706429119601
 21
333.10573902738793
 31
0.0
  0
LINE
  5
18CD3
  8
KI1
 10
223.0470416946375
 20
333.10573902738793
 30
0.0
 11
221.5470416946375
 21
331.84708958062203
 31
0.0
  0
LINE
  5
18CD4
  8
KI1
 10
221.5470416946375
 20
331.84708958062203
 30
0.0
 11
221.5470416946375
 21
329.30574394672681
 31
0.0
  0
LINE
  5
18CD5
  8
KI1
 10
221.5470416946375
 20
329.30574394672681
 30
0.0
 11
219.44704169463901
 21
329.30574394672681
 31
0.0
  0
ARC
  5
18CD6
  8
KI1
 10
214.19319743544909
 20
329.10574394672608
 30
0.0
 40
1.0
 50
270.0
 51
340.27915752804267
  0
ARC
  5
18CD7
  8
KI1
 10
217.2008859538262
 20
329.10574394672608
 30
0.0
 40
1.0
 50
199.72084247195721
 51
270.0
  0
LINE
  5
18CD8
  8
KI1
 10
216.25953809636439
 20
328.7683062321002
 30
0.0
 11
216.16771562336859
 21
329.02446280403899
 31
0.0
  0
LINE
  5
18CD9
  8
KI1
 10
215.13454529291079
 20
328.7683062321002
 30
0.0
 11
215.22636776590659
 21
329.02446280403899
 31
0.0
  0
ARC
  5
18CDA
  8
KI1
 10
215.69704169463759
 20
328.85574394672608
 30
0.0
 40
0.5
 50
19.72084247195728
 51
160.2791575280427
  0
LINE
  5
18CDB
  8
KI1
 10
213.2470556528954
 20
331.60574400564218
 30
0.0
 11
214.84703410353791
 21
331.60574400564218
 31
0.0
  0
LINE
  5
18CDD
  8
KI1
 10
214.04703909357499
 20
330.60574148705678
 30
0.0
 11
214.04703909357499
 21
329.30573646167181
 31
0.0
  0
LINE
  5
18CDE
  8
KI1
 10
213.64703908179109
 20
330.60574148705678
 30
0.0
 11
214.04703909357499
 21
330.60574148705678
 31
0.0
  0
ARC
  5
18CDF
  8
KI1
 10
213.64703908179109
 20
330.90574148705701
 30
0.0
 40
0.3
 50
180.0
 51
270.0
  0
LINE
  5
18CE0
  8
KI1
 10
213.31048505454299
 20
330.21062990230189
 30
0.0
 11
213.0337913643063
 21
329.8153431949579
 31
0.0
  0
LINE
  5
18CE1
  8
KI1
 10
213.2470556528954
 20
331.10573399021968
 30
0.0
 11
213.381637362356
 21
330.63472427549573
 31
0.0
  0
LINE
  5
18CE2
  8
KI1
 10
213.2470556528954
 20
331.60574400564218
 30
0.0
 11
213.2470556528954
 21
331.10573399021968
 31
0.0
  0
LINE
  5
18CE3
  8
KI1
 10
212.18082177124299
 20
330.1674446719137
 30
0.0
 11
212.4632594823909
 21
330.57294102618312
 31
0.0
  0
LINE
  5
18CE4
  8
KI1
 10
212.33743390237009
 20
329.6924596744268
 30
0.0
 11
212.25493365080621
 21
329.75019759193918
 31
0.0
  0
LINE
  5
18CE5
  8
KI1
 10
212.34704813249189
 20
330.97968075083207
 30
0.0
 11
212.34704813249189
 21
331.60574400564218
 31
0.0
  0
LINE
  5
18CE6
  8
KI1
 10
212.4632594823909
 20
330.57294102618312
 30
0.0
 11
212.34704813249189
 21
330.97968075083207
 31
0.0
  0
ARC
  5
18CE7
  8
KI1
 10
212.9008558071794
 20
330.49735811687492
 30
0.0
 40
0.4999999937576218
 50
325.00799560546028
 51
15.944992065438351
  0
ARC
  5
18CE8
  8
KI1
 10
212.4269740820011
 20
329.99598214526048
 30
0.0
 40
0.3000000099360252
 50
145.14099121094179
 51
235.0079956054567
  0
ARC
  5
18CE9
  8
KI1
 10
212.6241621169431
 20
330.10208892178912
 30
0.0
 40
0.4999999937576218
 50
235.0079956054567
 51
325.00799560546028
  0
LINE
  5
18CEA
  8
KI1
 10
213.34703908179219
 20
331.00574400564102
 30
0.0
 11
213.34703908179219
 21
330.90574148705701
 31
0.0
  0
ARC
  5
18CEB
  8
KI1
 10
213.94703908179119
 20
331.00574400564102
 30
0.0
 40
0.6
 50
90.0
 51
180.0
  0
LINE
  5
18CEC
  8
KI1
 10
215.84704169463771
 20
333.10573902738793
 30
0.0
 11
217.34704169463771
 21
331.84708958062203
 31
0.0
  0
LINE
  5
18CEE
  8
KI1
 10
217.34704169463771
 20
329.30574394672681
 30
0.0
 11
217.34704169463771
 21
331.84708958062203
 31
0.0
  0
LINE
  5
18CEF
  8
KI1
 10
214.84703410353791
 20
332.80573902738729
 30
0.0
 11
214.84703410353791
 21
331.60574400564218
 31
0.0
  0
LINE
  5
18CF0
  8
KI1
 10
215.14703410353809
 20
333.10573902738793
 30
0.0
 11
215.84704663754309
 21
333.10573902738793
 31
0.0
  0
ARC
  5
18CF1
  8
KI1
 10
215.14703410353809
 20
332.80573902738729
 30
0.0
 40
0.3
 50
90.0
 51
180.0
  0
LINE
  5
18CF2
  8
KI1
 10
214.6470381642018
 20
331.60574400564218
 30
0.0
 11
214.6470381642018
 21
332.80573652058609
 31
0.0
  0
LINE
  5
18CF4
  8
KI1
 10
221.7470416946378
 20
328.10574394672608
 30
0.0
 11
217.2008859538262
 21
328.10574394672608
 31
0.0
  0
LINE
  5
18CF5
  8
KI1
 10
217.34704169463771
 20
329.30574394672681
 30
0.0
 11
219.44704169463901
 21
329.30574394672681
 31
0.0
  0
LINE
  5
18CF6
  8
KI1
 10
224.44564597300021
 20
331.7865081499578
 30
0.0
 11
228.2470416946378
 21
328.55126617303608
 31
0.0
  0
LINE
  5
18CF8
  8
KI1
 10
224.74706429119601
 20
333.10573902738793
 30
0.0
 11
229.44704169463759
 21
329.10574394672699
 31
0.0
  0
LINE
  5
18CF9
  8
KI2
 10
220.44704169470609
 20
330.11057788732762
 30
0.0
 11
219.44704169470609
 21
330.11057788732762
 31
0.0
  0
LINE
  5
18CFA
  8
KI2
 10
218.44704169470609
 20
330.11057788732762
 30
0.0
 11
219.44704169470609
 21
330.11057788732762
 31
0.0
  0
LINE
  5
18D8A
  8
KI2
 10
252.447041694706
 20
333.11057788732762
 30
0.0
 11
254.94704169470609
 21
331.61057788732751
 31
0.0
  0
LINE
  5
18D8B
  8
KI2
 10
252.447041694706
 20
335.60574394672591
 30
0.0
 11
252.447041694706
 21
333.11057788732762
 31
0.0
  0
LINE
  5
18D8C
  8
KI2
 10
256.94704169470612
 20
330.11057788732762
 30
0.0
 11
255.94704169470609
 21
330.11057788732762
 31
0.0
  0
LINE
  5
18D8D
  8
KI2
 10
254.94704169470609
 20
330.11057788732762
 30
0.0
 11
255.94704169470609
 21
330.11057788732762
 31
0.0
  0
LINE
  5
18D8E
  8
KI2
 10
259.44704169470612
 20
333.11057788732762
 30
0.0
 11
256.94704169470612
 21
331.61057788732751
 31
0.0
  0
LINE
  5
18D8F
  8
KI2
 10
259.44704169470612
 20
335.60574394672591
 30
0.0
 11
259.44704169470612
 21
333.11057788732762
 31
0.0
  0
LINE
  5
18D90
  8
KI2
 10
256.94704169470612
 20
335.60574394672591
 30
0.0
 11
256.94704169470612
 21
330.11057788732762
 31
0.0
  0
LINE
  5
18D91
  8
KI2
 10
254.94704169470609
 20
335.60574394672591
 30
0.0
 11
254.94704169470609
 21
330.11057788732762
 31
0.0
  0
LINE
  5
18D92
  8
KI2
 10
240.94704169470691
 20
335.6057439467258
 30
0.0
 11
270.94704169470702
 21
335.60574394672602
 31
0.0
  0
ARC
  5
18D93
  8
KI2
 10
240.94704169470691
 20
337.1057439467258
 30
0.0
 40
1.5
 50
180.0
 51
270.0
  0
ARC
  5
18D94
  8
KI2
 10
270.94704169470702
 20
337.1057439467258
 30
0.0
 40
1.5
 50
270.0
 51
0.0
  0
LINE
  5
18D95
  8
KI2
 10
288.44704169470612
 20
333.11057788732762
 30
0.0
 11
290.94704169470612
 21
331.61057788732751
 31
0.0
  0
LINE
  5
18D96
  8
KI2
 10
288.44704169470612
 20
335.60574394672591
 30
0.0
 11
288.44704169470612
 21
333.11057788732762
 31
0.0
  0
LINE
  5
18D97
  8
KI2
 10
295.447041694706
 20
333.11057788732762
 30
0.0
 11
292.94704169470612
 21
331.61057788732751
 31
0.0
  0
LINE
  5
18D98
  8
KI2
 10
295.447041694706
 20
335.60574394672591
 30
0.0
 11
295.447041694706
 21
333.11057788732762
 31
0.0
  0
LINE
  5
18D99
  8
KI2
 10
292.94704169470612
 20
335.60574394672591
 30
0.0
 11
292.94704169470612
 21
330.11057788732762
 31
0.0
  0
LINE
  5
18D9A
  8
KI2
 10
290.94704169470612
 20
335.60574394672591
 30
0.0
 11
290.94704169470612
 21
330.11057788732762
 31
0.0
  0
LINE
  5
18D9B
  8
KI2
 10
276.94704169470702
 20
335.6057439467258
 30
0.0
 11
306.94704169470702
 21
335.60574394672602
 31
0.0
  0
ARC
  5
18D9C
  8
KI2
 10
276.94704169470702
 20
337.1057439467258
 30
0.0
 40
1.5
 50
180.0
 51
270.0
  0
ARC
  5
18D9D
  8
KI2
 10
306.94704169470702
 20
337.1057439467258
 30
0.0
 40
1.5
 50
270.0
 51
0.0
  0
ARC
  5
18D9E
  8
KI1
 10
251.27249740346559
 20
331.40573902738771
 30
0.0
 40
0.5
 50
90.0
 51
130.40000551602071
  0
LINE
  5
18D9F
  8
KI1
 10
252.3470466375432
 20
333.10573902738793
 30
0.0
 11
250.64701909808019
 21
333.10573902738793
 31
0.0
  0
LINE
  5
18DA0
  8
KI1
 10
247.14704169463789
 20
328.55126617303608
 30
0.0
 11
247.14704169463789
 21
328.10574394672608
 31
0.0
  0
LINE
  5
18DA1
  8
KI1
 10
245.94704169463759
 20
329.10574394672699
 30
0.0
 11
245.94704169463759
 21
328.10574394672608
 31
0.0
  0
LINE
  5
18DA2
  8
KI1
 10
247.14704169463789
 20
328.10574394672608
 30
0.0
 11
245.94704169463759
 21
328.10574394672608
 31
0.0
  0
LINE
  5
18DA3
  8
KI1
 10
250.9484374162773
 20
331.7865081499578
 30
0.0
 11
247.14704169463789
 21
328.55126617303608
 31
0.0
  0
LINE
  5
18DA4
  8
KI1
 10
250.64701909808019
 20
333.10573902738793
 30
0.0
 11
245.94704169463759
 21
329.10574394672699
 31
0.0
  0
LINE
  5
18DA5
  8
KI1
 10
286.69319743544912
 20
328.10574394672608
 30
0.0
 11
273.94704169463762
 21
328.10574394672608
 31
0.0
  0
LINE
  5
18DA6
  8
KI1
 10
279.14704169463789
 20
331.60574400564218
 30
0.0
 11
284.84704813249192
 21
331.60574400564218
 31
0.0
  0
LINE
  5
18DA7
  8
KI1
 10
287.14703816420177
 20
332.80573652058609
 30
0.0
 11
260.74704522507432
 21
332.80573652058609
 31
0.0
  0
LINE
  5
18DA8
  8
KI1
 10
274.22988040900623
 20
329.30573646167181
 30
0.0
 11
286.54703909357499
 21
329.30573646167181
 31
0.0
  0
LINE
  5
18DA9
  8
KI1
 10
278.2470416946378
 20
331.60574400564218
 30
0.0
 11
278.2470416946378
 21
330.05573652058609
 31
0.0
  0
ARC
  5
18DAA
  8
KI1
 10
278.69704169463762
 20
330.05573652058609
 30
0.0
 40
0.4499999999999992
 50
180.0
 51
0.0
  0
LINE
  5
18DAB
  8
KI1
 10
279.14704169463789
 20
331.60574400564218
 30
0.0
 11
279.14704169463789
 21
330.05573652058609
 31
0.0
  0
ARC
  5
18DAC
  8
KI1
 10
273.947044080762
 20
329.30573646167181
 30
0.0
 40
0.3
 50
180.0
 51
0.0
  0
ARC
  5
18DAD
  8
KI1
 10
269.19704169463762
 20
330.05573652058609
 30
0.0
 40
0.4499999999999992
 50
180.0
 51
0.0
  0
LINE
  5
18DAE
  8
KI1
 10
268.7470416946378
 20
331.60574400564218
 30
0.0
 11
268.7470416946378
 21
330.05573652058609
 31
0.0
  0
LINE
  5
18DAF
  8
KI1
 10
269.64704169463789
 20
331.60574400564218
 30
0.0
 11
269.64704169463789
 21
330.05573652058609
 31
0.0
  0
LINE
  5
18DB0
  8
KI1
 10
269.64704169463789
 20
331.60574400564218
 30
0.0
 11
278.2470416946378
 21
331.60574400564218
 31
0.0
  0
ARC
  5
18DB1
  8
KI1
 10
261.20088595382617
 20
329.10574394672608
 30
0.0
 40
1.0
 50
199.72084247195721
 51
270.0
  0
LINE
  5
18DB2
  8
KI1
 10
260.25953809636439
 20
328.7683062321002
 30
0.0
 11
260.16771562336862
 21
329.0244628040391
 31
0.0
  0
LINE
  5
18DB3
  8
KI1
 10
259.13454529291079
 20
328.7683062321002
 30
0.0
 11
259.22636776590662
 21
329.0244628040391
 31
0.0
  0
ARC
  5
18DB4
  8
KI1
 10
259.69704169463762
 20
328.85574394672608
 30
0.0
 40
0.5
 50
19.72084247195728
 51
160.2791575280427
  0
ARC
  5
18DB5
  8
KI1
 10
260.247049285738
 20
332.80573902738729
 30
0.0
 40
0.3
 50
0.0
 51
90.0
  0
LINE
  5
18DB6
  8
KI1
 10
260.247049285738
 20
333.10573902738793
 30
0.0
 11
259.547036751733
 21
333.10573902738793
 31
0.0
  0
LINE
  5
18DB7
  8
KI1
 10
261.34704429570212
 20
330.60574148705678
 30
0.0
 11
261.34704429570212
 21
329.30573646167181
 31
0.0
  0
LINE
  5
18DB8
  8
KI1
 10
261.74704430748511
 20
330.60574148705678
 30
0.0
 11
261.34704429570212
 21
330.60574148705678
 31
0.0
  0
ARC
  5
18DB9
  8
KI1
 10
261.74704430748511
 20
330.90574148705701
 30
0.0
 40
0.3
 50
270.0
 51
0.0
  0
LINE
  5
18DBA
  8
KI1
 10
262.04704430748478
 20
331.00574400564102
 30
0.0
 11
262.04704430748478
 21
330.90574148705701
 31
0.0
  0
ARC
  5
18DBB
  8
KI1
 10
261.44704430748487
 20
331.00574400564102
 30
0.0
 40
0.6
 50
0.0
 51
90.0
  0
LINE
  5
18DBC
  8
KI1
 10
262.14704524863981
 20
331.60574400564218
 30
0.0
 11
260.54704928573818
 21
331.60574400564218
 31
0.0
  0
LINE
  5
18DBD
  8
KI1
 10
260.54704928573818
 20
332.80573902738729
 30
0.0
 11
260.54704928573818
 21
331.60574400564218
 31
0.0
  0
LINE
  5
18DBE
  8
KI1
 10
263.21329664254989
 20
330.1674446719137
 30
0.0
 11
262.93084141914261
 21
330.57294102618312
 31
0.0
  0
LINE
  5
18DBF
  8
KI1
 10
263.05666699916509
 20
329.6924596744268
 30
0.0
 11
263.13914973847091
 21
329.75019759193918
 31
0.0
  0
LINE
  5
18DC0
  8
KI1
 10
263.04705276904241
 20
330.97968075083207
 30
0.0
 11
263.04705276904241
 21
331.60574400564218
 31
0.0
  0
LINE
  5
18DC1
  8
KI1
 10
262.93084141914261
 20
330.57294102618312
 30
0.0
 11
263.04705276904241
 21
330.97968075083207
 31
0.0
  0
LINE
  5
18DC3
  8
KI1
 10
262.14704524863981
 20
331.60574400564218
 30
0.0
 11
262.14704524863981
 21
331.10573399021968
 31
0.0
  0
LINE
  5
18DC4
  8
KI1
 10
262.14704524863981
 20
331.10573399021968
 30
0.0
 11
262.01248105143873
 21
330.63472427549573
 31
0.0
  0
LINE
  5
18DC5
  8
KI1
 10
260.74704522507432
 20
332.80573652058609
 30
0.0
 11
260.74704522507432
 21
331.60574400564218
 31
0.0
  0
LINE
  5
18DC6
  8
KI1
 10
262.08361584699168
 20
330.21062990230189
 30
0.0
 11
262.36030953722928
 21
329.8153431949579
 31
0.0
  0
ARC
  5
18DC7
  8
KI1
 10
262.96712681953409
 20
329.99598214526048
 30
0.0
 40
0.3000000099360252
 50
304.99198913572991
 51
34.858993530263639
  0
ARC
  5
18DC8
  8
KI1
 10
262.76993878459263
 20
330.10208892178912
 30
0.0
 40
0.4999999937576218
 50
214.99197387695901
 51
304.99198913572991
  0
ARC
  5
18DC9
  8
KI1
 10
262.49322758209632
 20
330.49735811687492
 30
0.0
 40
0.4999999937576218
 50
164.0549926757796
 51
214.9919891357321
  0
ARC
  5
18DCA
  8
KI1
 10
253.64704169463789
 20
329.10574394672699
 30
0.0
 40
1.0
 50
180.0
 51
270.0
  0
LINE
  5
18DCB
  8
KI1
 10
252.34704169463771
 20
333.10573902738793
 30
0.0
 11
253.84704169463771
 21
331.84708958062203
 31
0.0
  0
ARC
  5
18DCC
  8
KI1
 10
252.34704169463771
 20
331.14762809338868
 30
0.0
 40
0.3
 50
0.0
 51
50.000000000010331
  0
LINE
  5
18DCD
  8
KI1
 10
251.72829229638569
 20
331.9057390273872
 30
0.0
 11
251.27249740346559
 21
331.9057390273872
 31
0.0
  0
LINE
  5
18DCE
  8
KI1
 10
252.0496861012291
 20
331.78876124894742
 30
0.0
 11
252.53987797754439
 21
331.37744142632499
 31
0.0
  0
ARC
  5
18DCF
  8
KI1
 10
251.72829229638569
 20
331.40573902738771
 30
0.0
 40
0.5
 50
50.000000000010331
 51
90.0
  0
LINE
  5
18DD0
  8
KI1
 10
252.64704169463789
 20
329.10574394672699
 30
0.0
 11
252.64704169463789
 21
331.14762809338868
 31
0.0
  0
LINE
  5
18DD1
  8
KI1
 10
253.84704169463771
 20
329.30574394672681
 30
0.0
 11
253.84704169463771
 21
331.84708958062203
 31
0.0
  0
LINE
  5
18DD2
  8
KI1
 10
253.84704169463771
 20
329.30574394672681
 30
0.0
 11
255.94704169463759
 21
329.30574394672681
 31
0.0
  0
LINE
  5
18DD3
  8
KI1
 10
258.19319743544912
 20
328.10574394672608
 30
0.0
 11
253.64704169463789
 21
328.10574394672699
 31
0.0
  0
LINE
  5
18DD4
  8
KI1
 10
258.04704169463753
 20
329.30574394672681
 30
0.0
 11
258.04704169463753
 21
331.84708958062203
 31
0.0
  0
LINE
  5
18DD5
  8
KI1
 10
258.04704169463753
 20
329.30574394672681
 30
0.0
 11
255.94704169463759
 21
329.30574394672681
 31
0.0
  0
ARC
  5
18DD6
  8
KI1
 10
258.19319743544912
 20
329.10574394672608
 30
0.0
 40
1.0
 50
270.0
 51
340.27915752804267
  0
LINE
  5
18DD8
  8
KI1
 10
259.54704169463753
 20
333.10573902738793
 30
0.0
 11
258.04704169463753
 21
331.84708958062203
 31
0.0
  0
LINE
  5
18DD9
  8
KI1
 10
261.20088595382617
 20
328.10574394672608
 30
0.0
 11
273.94704169463762
 21
328.10574394672608
 31
0.0
  0
LINE
  5
18DDA
  8
KI1
 10
273.66420298026992
 20
329.30573646167181
 30
0.0
 11
261.34704429570212
 21
329.30573646167181
 31
0.0
  0
LINE
  5
18DDB
  8
KI1
 10
263.04705276904241
 20
331.60574400564218
 30
0.0
 11
268.7470416946378
 21
331.60574400564218
 31
0.0
  0
LINE
  5
18DDC
  8
KI1
 10
301.94704169463762
 20
329.10574394672699
 30
0.0
 11
301.94704169463762
 21
328.10574394672608
 31
0.0
  0
LINE
  5
18DDD
  8
KI1
 10
300.7470416946378
 20
328.55126617303608
 30
0.0
 11
300.7470416946378
 21
328.10574394672608
 31
0.0
  0
LINE
  5
18DDF
  8
KI1
 10
301.94704169463762
 20
328.10574394672608
 30
0.0
 11
300.7470416946378
 21
328.10574394672608
 31
0.0
  0
LINE
  5
18DE0
  8
KI1
 10
295.54704169463753
 20
333.10573902738793
 30
0.0
 11
294.04704169463753
 21
331.84708958062203
 31
0.0
  0
ARC
  5
18DE1
  8
KI1
 10
295.7470416946378
 20
331.05436656175812
 30
0.0
 40
0.5
 50
129.99999999998971
 51
180.0
  0
LINE
  5
18DE2
  8
KI1
 10
295.84439728804699
 20
331.78876124894742
 30
0.0
 11
295.4256478897953
 21
331.43738878331692
 31
0.0
  0
ARC
  5
18DE3
  8
KI1
 10
296.16579109289091
 20
331.40573902738771
 30
0.0
 40
0.5
 50
90.0
 51
129.99999999998971
  0
LINE
  5
18DE4
  8
KI1
 10
296.62158598580999
 20
331.9057390273872
 30
0.0
 11
296.16579109289091
 21
331.9057390273872
 31
0.0
  0
ARC
  5
18DE5
  8
KI1
 10
296.62158598580999
 20
331.40573902738771
 30
0.0
 40
0.5
 50
49.599994483979231
 51
90.0
  0
LINE
  5
18DE7
  8
KI1
 10
295.2470416946378
 20
329.10574394672699
 30
0.0
 11
295.2470416946378
 21
331.05436656175812
 31
0.0
  0
ARC
  5
18DE8
  8
KI1
 10
294.2470416946378
 20
329.10574394672699
 30
0.0
 40
1.0
 50
270.0
 51
0.0
  0
LINE
  5
18DE9
  8
KI1
 10
295.547036751733
 20
333.10573902738793
 30
0.0
 11
297.24706429119601
 21
333.10573902738793
 31
0.0
  0
LINE
  5
18DEB
  8
KI1
 10
294.04704169463753
 20
331.84708958062203
 30
0.0
 11
294.04704169463753
 21
329.30574394672681
 31
0.0
  0
LINE
  5
18DEC
  8
KI1
 10
294.04704169463753
 20
329.30574394672681
 30
0.0
 11
291.94704169463898
 21
329.30574394672681
 31
0.0
  0
ARC
  5
18DED
  8
KI1
 10
286.69319743544912
 20
329.10574394672608
 30
0.0
 40
1.0
 50
270.0
 51
340.27915752804267
  0
ARC
  5
18DEE
  8
KI1
 10
289.70088595382617
 20
329.10574394672608
 30
0.0
 40
1.0
 50
199.72084247195721
 51
270.0
  0
LINE
  5
18DEF
  8
KI1
 10
288.75953809636439
 20
328.7683062321002
 30
0.0
 11
288.66771562336862
 21
329.02446280403899
 31
0.0
  0
LINE
  5
18DF0
  8
KI1
 10
287.6345452929109
 20
328.7683062321002
 30
0.0
 11
287.72636776590662
 21
329.02446280403899
 31
0.0
  0
ARC
  5
18DF1
  8
KI1
 10
288.19704169463762
 20
328.85574394672608
 30
0.0
 40
0.5
 50
19.72084247195728
 51
160.2791575280427
  0
LINE
  5
18DF2
  8
KI1
 10
285.74705565289543
 20
331.60574400564218
 30
0.0
 11
287.34703410353791
 21
331.60574400564218
 31
0.0
  0
LINE
  5
18DF4
  8
KI1
 10
286.54703909357499
 20
330.60574148705678
 30
0.0
 11
286.54703909357499
 21
329.30573646167181
 31
0.0
  0
LINE
  5
18DF5
  8
KI1
 10
286.14703908179098
 20
330.60574148705678
 30
0.0
 11
286.54703909357499
 21
330.60574148705678
 31
0.0
  0
ARC
  5
18DF6
  8
KI1
 10
286.14703908179098
 20
330.90574148705701
 30
0.0
 40
0.3
 50
180.0
 51
270.0
  0
LINE
  5
18DF7
  8
KI1
 10
285.81048505454299
 20
330.21062990230189
 30
0.0
 11
285.5337913643063
 21
329.8153431949579
 31
0.0
  0
LINE
  5
18DF8
  8
KI1
 10
285.74705565289543
 20
331.10573399021968
 30
0.0
 11
285.88163736235612
 21
330.63472427549573
 31
0.0
  0
LINE
  5
18DF9
  8
KI1
 10
285.74705565289543
 20
331.60574400564218
 30
0.0
 11
285.74705565289543
 21
331.10573399021968
 31
0.0
  0
LINE
  5
18DFA
  8
KI1
 10
284.68082177124302
 20
330.1674446719137
 30
0.0
 11
284.96325948239081
 21
330.57294102618312
 31
0.0
  0
LINE
  5
18DFB
  8
KI1
 10
284.83743390237009
 20
329.6924596744268
 30
0.0
 11
284.75493365080621
 21
329.75019759193918
 31
0.0
  0
LINE
  5
18DFC
  8
KI1
 10
284.84704813249192
 20
330.97968075083207
 30
0.0
 11
284.84704813249192
 21
331.60574400564218
 31
0.0
  0
LINE
  5
18DFD
  8
KI1
 10
284.96325948239081
 20
330.57294102618312
 30
0.0
 11
284.84704813249192
 21
330.97968075083207
 31
0.0
  0
ARC
  5
18DFE
  8
KI1
 10
285.40085580717931
 20
330.49735811687492
 30
0.0
 40
0.4999999937576218
 50
325.00799560546028
 51
15.944992065438351
  0
ARC
  5
18DFF
  8
KI1
 10
284.92697408200121
 20
329.99598214526048
 30
0.0
 40
0.3000000099360252
 50
145.14099121094179
 51
235.0079956054567
  0
ARC
  5
18E00
  8
KI1
 10
285.12416211694313
 20
330.10208892178912
 30
0.0
 40
0.4999999937576218
 50
235.0079956054567
 51
325.00799560546028
  0
LINE
  5
18E01
  8
KI1
 10
285.84703908179222
 20
331.00574400564102
 30
0.0
 11
285.84703908179222
 21
330.90574148705701
 31
0.0
  0
ARC
  5
18E02
  8
KI1
 10
286.44703908179122
 20
331.00574400564102
 30
0.0
 40
0.6
 50
90.0
 51
180.0
  0
LINE
  5
18E04
  8
KI1
 10
288.34704169463771
 20
333.10573902738793
 30
0.0
 11
289.84704169463771
 21
331.84708958062203
 31
0.0
  0
LINE
  5
18E05
  8
KI1
 10
289.84704169463771
 20
329.30574394672681
 30
0.0
 11
289.84704169463771
 21
331.84708958062203
 31
0.0
  0
LINE
  5
18E06
  8
KI1
 10
287.34703410353791
 20
332.80573902738729
 30
0.0
 11
287.34703410353791
 21
331.60574400564218
 31
0.0
  0
LINE
  5
18E07
  8
KI1
 10
287.64703410353809
 20
333.10573902738793
 30
0.0
 11
288.34704663754309
 21
333.10573902738793
 31
0.0
  0
ARC
  5
18E08
  8
KI1
 10
287.64703410353809
 20
332.80573902738729
 30
0.0
 40
0.3
 50
90.0
 51
180.0
  0
LINE
  5
18E09
  8
KI1
 10
287.14703816420177
 20
331.60574400564218
 30
0.0
 11
287.14703816420177
 21
332.80573652058609
 31
0.0
  0
LINE
  5
18E0B
  8
KI1
 10
294.2470416946378
 20
328.10574394672608
 30
0.0
 11
289.70088595382617
 21
328.10574394672608
 31
0.0
  0
LINE
  5
18E0C
  8
KI1
 10
289.84704169463771
 20
329.30574394672681
 30
0.0
 11
291.94704169463898
 21
329.30574394672681
 31
0.0
  0
LINE
  5
18E0D
  8
KI1
 10
296.94564597300018
 20
331.7865081499578
 30
0.0
 11
300.7470416946378
 21
328.55126617303608
 31
0.0
  0
LINE
  5
18E0E
  8
KI1
 10
297.24706429119601
 20
333.10573902738793
 30
0.0
 11
301.94704169463762
 21
329.10574394672699
 31
0.0
  0
LINE
  5
18E10
  8
KI2
 10
292.94704169470612
 20
330.11057788732762
 30
0.0
 11
291.947041694706
 21
330.11057788732762
 31
0.0
  0
LINE
  5
18E11
  8
KI2
 10
290.94704169470612
 20
330.11057788732762
 30
0.0
 11
291.947041694706
 21
330.11057788732762
 31
0.0
  0
LINE
  5
19293
  8
KI2
 10
240.69704169472561
 20
647.81594516296593
 30
0.0
 11
240.69704169472561
 21
637.81594516296593
 31
0.0
  0
LINE
  5
19294
  8
KI2
 10
239.79704169472549
 20
641.41594516296584
 30
0.0
 11
239.79704169472549
 21
638.71594516296602
 31
0.0
  0
LINE
  5
19295
  8
KI2
 10
239.79704169472549
 20
641.41594516296584
 30
0.0
 11
238.8970416947254
 21
641.41594516296584
 31
0.0
  0
LINE
  5
19296
  8
KI2
 10
239.79704169472549
 20
644.21594516296545
 30
0.0
 11
238.8970416947254
 21
644.21594516296545
 31
0.0
  0
LINE
  5
19297
  8
KI2
 10
239.79704169472549
 20
646.91594516296584
 30
0.0
 11
239.79704169472549
 21
644.21594516296545
 31
0.0
  0
LINE
  5
19298
  8
KI2
 10
238.8970416947254
 20
643.31594516296593
 30
0.0
 11
239.29704169472549
 21
643.31594516296593
 31
0.0
  0
LINE
  5
19299
  8
KI2
 10
238.8970416947254
 20
642.31594516296593
 30
0.0
 11
239.29704169472549
 21
642.31594516296593
 31
0.0
  0
ARC
  5
1929A
  8
KI2
 10
239.29704169472549
 20
642.81594516296593
 30
0.0
 40
0.5
 50
270.0
 51
90.0
  0
LINE
  5
1929B
  8
KI2
 10
234.69704169472561
 20
637.81594516296593
 30
0.0
 11
234.69704169472561
 21
647.81594516296593
 31
0.0
  0
LINE
  5
1929C
  8
KI2
 10
235.59704169472431
 20
644.21594516296545
 30
0.0
 11
235.59704169472431
 21
646.91594516296584
 31
0.0
  0
LINE
  5
1929D
  8
KI2
 10
236.4970416947254
 20
644.21594516296545
 30
0.0
 11
235.59704169472431
 21
644.21594516296545
 31
0.0
  0
LINE
  5
1929E
  8
KI2
 10
236.79704169472549
 20
643.75402831493057
 30
0.0
 11
236.79704169472549
 21
643.91594516296584
 31
0.0
  0
LINE
  5
1929F
  8
KI2
 10
236.09704169472431
 20
643.31594516296593
 30
0.0
 11
236.4970416947254
 21
643.31594516296593
 31
0.0
  0
LINE
  5
192A0
  8
KI2
 10
236.79704169472549
 20
641.71594516296557
 30
0.0
 11
236.79704169472549
 21
641.87786201099891
 31
0.0
  0
LINE
  5
192A1
  8
KI2
 10
235.59704169472431
 20
641.41594516296584
 30
0.0
 11
236.4970416947254
 21
641.41594516296584
 31
0.0
  0
LINE
  5
192A2
  8
KI2
 10
238.59704169472431
 20
641.71594516296557
 30
0.0
 11
238.59704169472431
 21
641.87786201099891
 31
0.0
  0
LINE
  5
192A3
  8
KI2
 10
238.59704169472431
 20
643.91594516296584
 30
0.0
 11
238.59704169472431
 21
643.75402831493057
 31
0.0
  0
LINE
  5
192A4
  8
KI2
 10
235.59704169472431
 20
638.71594516296602
 30
0.0
 11
235.59704169472431
 21
641.41594516296584
 31
0.0
  0
LINE
  5
192A5
  8
KI2
 10
236.4970416947254
 20
642.31594516296593
 30
0.0
 11
236.09704169472431
 21
642.31594516296593
 31
0.0
  0
ARC
  5
192A6
  8
KI2
 10
237.69704169472561
 20
642.81594516296593
 30
0.0
 40
1.300000000000356
 50
202.61986494803151
 51
226.18693853966499
  0
ARC
  5
192A7
  8
KI2
 10
237.69704169472561
 20
642.81594516296593
 30
0.0
 40
1.3000000000001859
 50
133.81306146040981
 51
157.38013505196841
  0
ARC
  5
192A8
  8
KI2
 10
236.09704169472431
 20
642.81594516296593
 30
0.0
 40
0.5
 50
90.0
 51
270.0
  0
ARC
  5
192A9
  8
KI2
 10
236.4970416947254
 20
641.71594516296557
 30
0.0
 40
0.2999999999997414
 50
270.0
 51
0.0
  0
ARC
  5
192AA
  8
KI2
 10
236.4970416947254
 20
643.91594516296584
 30
0.0
 40
0.300000000000182
 50
0.0
 51
90.0
  0
LINE
  5
192AB
  8
KI2
 10
234.69704169472561
 20
647.81594516296593
 30
0.0
 11
240.69704169472561
 21
647.81594516296593
 31
0.0
  0
LINE
  5
192AC
  8
KI2
 10
235.59704169472431
 20
646.91594516296584
 30
0.0
 11
239.79704169472549
 21
646.91594516296584
 31
0.0
  0
ARC
  5
192AD
  8
KI2
 10
237.69704169472561
 20
642.81594516296593
 30
0.0
 40
1.299999999999832
 50
22.619864948046072
 51
46.186938539646619
  0
ARC
  5
192AE
  8
KI2
 10
237.69704169472561
 20
642.81594516296593
 30
0.0
 40
1.3000000000007239
 50
313.8130614602797
 51
337.38013505195391
  0
ARC
  5
192AF
  8
KI2
 10
238.8970416947254
 20
643.91594516296584
 30
0.0
 40
0.2999999999997414
 50
90.0
 51
180.0
  0
ARC
  5
192B0
  8
KI2
 10
238.8970416947254
 20
641.71594516296557
 30
0.0
 40
0.300000000001205
 50
180.0
 51
270.0
  0
LINE
  5
192B1
  8
KI2
 10
234.69704169472561
 20
637.81594516296593
 30
0.0
 11
240.69704169472561
 21
637.81594516296593
 31
0.0
  0
LINE
  5
192B2
  8
KI2
 10
235.59704169472431
 20
638.71594516296602
 30
0.0
 11
239.79704169472549
 21
638.71594516296602
 31
0.0
  0
LINE
  5
192B3
  8
KI1
 10
270.19704169472561
 20
662.40574356431478
 30
0.0
 11
261.44704169472561
 21
662.40574356431478
 31
0.0
  0
ARC
  5
192B4
  8
KI1
 10
268.04704169472552
 20
637.10574356431493
 30
0.0
 40
0.5
 50
270.0
 51
0.0
  0
LINE
  5
192B5
  8
KI1
 10
270.04704169472552
 20
640.10574356431493
 30
0.0
 11
268.54704169472552
 21
640.10574356431493
 31
0.0
  0
LINE
  5
192B6
  8
KI1
 10
267.89704169472549
 20
641.25574356431468
 30
0.0
 11
270.04704169472552
 21
641.25574356431468
 31
0.0
  0
LINE
  5
192B7
  8
KI1
 10
241.69704169472561
 20
662.40574356431478
 30
0.0
 11
250.44704169472561
 21
662.40574356431478
 31
0.0
  0
LINE
  5
192B8
  8
KI1
 10
243.9970416947256
 20
641.25574356431468
 30
0.0
 11
241.84704169472559
 21
641.25574356431468
 31
0.0
  0
LINE
  5
192B9
  8
KI1
 10
241.84704169472559
 20
640.10574356431493
 30
0.0
 11
243.34704169472559
 21
640.10574356431493
 31
0.0
  0
LINE
  5
192BA
  8
KI1
 10
242.34704169472559
 20
661.2557435643148
 30
0.0
 11
269.54704169472552
 21
661.2557435643148
 31
0.0
  0
ARC
  5
192BB
  8
KI1
 10
241.19704169472561
 20
663.60574356431493
 30
0.0
 40
0.5
 50
0.0
 51
180.0
  0
ARC
  5
192BC
  8
KI1
 10
241.2720416947256
 20
638.33574356431495
 30
0.0
 40
0.575000000000003
 50
180.0
 51
0.0
  0
LINE
  5
192BD
  8
KI1
 10
240.69704169472561
 20
638.33574356431495
 30
0.0
 11
240.69704169472561
 21
663.60574356431493
 31
0.0
  0
LINE
  5
192BE
  8
KI1
 10
241.69704169472561
 20
663.60574356431493
 30
0.0
 11
241.69704169472561
 21
662.40574356431478
 31
0.0
  0
LINE
  5
192BF
  8
KI1
 10
241.84704169472559
 20
641.25574356431468
 30
0.0
 11
241.84704169472559
 21
660.7557435643148
 31
0.0
  0
LINE
  5
192C0
  8
KI1
 10
241.84704169472559
 20
638.33574356431495
 30
0.0
 11
241.84704169472559
 21
640.10574356431493
 31
0.0
  0
ARC
  5
192C1
  8
KI1
 10
242.34704169472559
 20
660.7557435643148
 30
0.0
 40
0.4999999999999999
 50
90.0
 51
180.0
  0
LINE
  5
192C2
  8
KI1
 10
251.44704169472561
 20
662.40574356431478
 30
0.0
 11
260.4470416947255
 21
662.40574356431478
 31
0.0
  0
ARC
  5
192C3
  8
KI1
 10
248.8720416947256
 20
645.78074356431478
 30
0.0
 40
0.5749999999999959
 50
0.0
 51
180.0
  0
LINE
  5
192C4
  8
KI1
 10
249.14704169472569
 20
636.60574356431493
 30
0.0
 11
243.84704169472559
 21
636.60574356431493
 31
0.0
  0
LINE
  5
192C5
  8
KI1
 10
247.9970416947256
 20
637.75574356431468
 30
0.0
 11
244.4970416947256
 21
637.75574356431468
 31
0.0
  0
ARC
  5
192C6
  8
KI1
 10
243.9970416947256
 20
640.75574356431468
 30
0.0
 40
0.5
 50
0.0
 51
90.0
  0
ARC
  5
192C7
  8
KI1
 10
243.84704169472559
 20
637.10574356431493
 30
0.0
 40
0.5
 50
180.0
 51
270.0
  0
LINE
  5
192C8
  8
KI1
 10
243.34704169472559
 20
637.10574356431493
 30
0.0
 11
243.34704169472559
 21
640.10574356431493
 31
0.0
  0
LINE
  5
192C9
  8
KI1
 10
244.4970416947256
 20
640.75574356431468
 30
0.0
 11
244.4970416947256
 21
637.75574356431468
 31
0.0
  0
LINE
  5
192CA
  8
KI1
 10
248.29704169472549
 20
638.05574356431475
 30
0.0
 11
248.29704169472549
 21
645.78074356431478
 31
0.0
  0
ARC
  5
192CB
  8
KI1
 10
247.9970416947256
 20
638.05574356431475
 30
0.0
 40
0.2999999999999999
 50
270.0
 51
0.0
  0
LINE
  5
192CC
  8
KI1
 10
251.19830583407449
 20
643.90574356431455
 30
0.0
 11
249.64704169472569
 21
643.90574356431455
 31
0.0
  0
LINE
  5
192CD
  8
KI1
 10
251.39704169472569
 20
637.60574356431471
 30
0.0
 11
249.44704169472561
 21
637.60574356431471
 31
0.0
  0
LINE
  5
192CE
  8
KI1
 10
251.39830583407459
 20
645.05574356431475
 30
0.0
 11
249.44704169472561
 21
645.05574356431475
 31
0.0
  0
LINE
  5
192CF
  8
KI1
 10
250.54704169472549
 20
639.30574356431475
 30
0.0
 11
251.19704169472561
 21
640.30574356431475
 31
0.0
  0
ARC
  5
192D0
  8
KI1
 10
250.94704169472561
 20
663.60574356431493
 30
0.0
 40
0.5
 50
0.0
 51
180.0
  0
LINE
  5
192D1
  8
KI1
 10
249.44704169472561
 20
642.40574356431455
 30
0.0
 11
249.64704169472569
 21
643.90574356431455
 31
0.0
  0
LINE
  5
192D2
  8
KI1
 10
249.44704169472561
 20
638.90574356431455
 30
0.0
 11
249.44704169472561
 21
642.40574356431455
 31
0.0
  0
LINE
  5
192D3
  8
KI1
 10
250.54704169472549
 20
638.90574356431455
 30
0.0
 11
249.44704169472561
 21
638.90574356431455
 31
0.0
  0
LINE
  5
192D4
  8
KI1
 10
250.54704169472549
 20
638.90574356431455
 30
0.0
 11
250.54704169472549
 21
639.30574356431475
 31
0.0
  0
LINE
  5
192D5
  8
KI1
 10
249.44704169472561
 20
645.78074356431478
 30
0.0
 11
249.44704169472561
 21
645.05574356431475
 31
0.0
  0
LINE
  5
192D6
  8
KI1
 10
250.44704169472561
 20
663.60574356431493
 30
0.0
 11
250.44704169472561
 21
662.40574356431478
 31
0.0
  0
ARC
  5
192D7
  8
KI1
 10
249.14704169472569
 20
636.90574356431478
 30
0.0
 40
0.2999999999999999
 50
270.0
 51
0.0
  0
LINE
  5
192D8
  8
KI1
 10
249.44704169472561
 20
636.90574356431478
 30
0.0
 11
249.44704169472561
 21
637.60574356431471
 31
0.0
  0
ARC
  5
192D9
  8
KI1
 10
251.39704169472569
 20
637.90574356431455
 30
0.0
 40
0.2999999999999999
 50
270.0
 51
0.0
  0
ARC
  5
192DA
  8
KI1
 10
251.39830583407459
 20
644.75574356431468
 30
0.0
 40
0.2999999999999999
 50
0.0
 51
90.0
  0
LINE
  5
192DB
  8
KI1
 10
251.69830583407449
 20
644.75574356431468
 30
0.0
 11
251.69830583407449
 21
644.40574356431455
 31
0.0
  0
LINE
  5
192DC
  8
KI1
 10
251.69704169472561
 20
640.0057435643148
 30
0.0
 11
251.69704169472561
 21
637.90574356431455
 31
0.0
  0
ARC
  5
192DD
  8
KI1
 10
251.39704169472569
 20
640.0057435643148
 30
0.0
 40
0.2999999999999999
 50
0.0
 51
90.0
  0
LINE
  5
192DE
  8
KI1
 10
251.39704169472569
 20
640.30574356431475
 30
0.0
 11
251.19704169472561
 21
640.30574356431475
 31
0.0
  0
ARC
  5
192DF
  8
KI1
 10
251.19830583407449
 20
644.40574356431455
 30
0.0
 40
0.5
 50
270.0
 51
0.0
  0
LINE
  5
192E0
  8
KI1
 10
251.44704169472561
 20
663.60574356431493
 30
0.0
 11
251.44704169472561
 21
662.40574356431478
 31
0.0
  0
LINE
  5
192E1
  8
KI1
 10
260.69830583407452
 20
643.90574356431455
 30
0.0
 11
262.24704169472562
 21
643.90574356431455
 31
0.0
  0
LINE
  5
192E2
  8
KI1
 10
260.49704169472562
 20
637.60574356431471
 30
0.0
 11
262.44704169472561
 21
637.60574356431471
 31
0.0
  0
LINE
  5
192E3
  8
KI1
 10
261.34704169472559
 20
638.90574356431455
 30
0.0
 11
262.44704169472561
 21
638.90574356431455
 31
0.0
  0
LINE
  5
192E4
  8
KI1
 10
260.49830583407447
 20
645.05574356431475
 30
0.0
 11
262.44704169472561
 21
645.05574356431475
 31
0.0
  0
ARC
  5
192E5
  8
KI1
 10
260.69830583407452
 20
644.40574356431455
 30
0.0
 40
0.5
 50
180.0
 51
270.0
  0
LINE
  5
192E6
  8
KI1
 10
260.49704169472562
 20
640.30574356431475
 30
0.0
 11
260.69704169472561
 21
640.30574356431475
 31
0.0
  0
ARC
  5
192E7
  8
KI1
 10
260.94704169472561
 20
663.60574356431493
 30
0.0
 40
0.5
 50
0.0
 51
180.0
  0
ARC
  5
192E8
  8
KI1
 10
260.49704169472562
 20
637.90574356431455
 30
0.0
 40
0.2999999999999999
 50
180.0
 51
270.0
  0
ARC
  5
192E9
  8
KI1
 10
260.49830583407447
 20
644.75574356431468
 30
0.0
 40
0.2999999999999999
 50
90.0
 51
180.0
  0
LINE
  5
192EA
  8
KI1
 10
260.19830583407452
 20
644.75574356431468
 30
0.0
 11
260.19830583407452
 21
644.40574356431455
 31
0.0
  0
LINE
  5
192EB
  8
KI1
 10
260.19704169472561
 20
640.0057435643148
 30
0.0
 11
260.19704169472561
 21
637.90574356431455
 31
0.0
  0
ARC
  5
192EC
  8
KI1
 10
260.49704169472562
 20
640.0057435643148
 30
0.0
 40
0.2999999999999999
 50
90.0
 51
180.0
  0
LINE
  5
192ED
  8
KI1
 10
260.44704169472561
 20
663.60574356431493
 30
0.0
 11
260.44704169472561
 21
662.40574356431478
 31
0.0
  0
LINE
  5
192EE
  8
KI1
 10
261.34704169472559
 20
638.90574356431455
 30
0.0
 11
261.34704169472559
 21
639.30574356431475
 31
0.0
  0
LINE
  5
192EF
  8
KI1
 10
261.34704169472559
 20
639.30574356431475
 30
0.0
 11
260.69704169472561
 21
640.30574356431475
 31
0.0
  0
LINE
  5
192F0
  8
KI1
 10
261.44704169472561
 20
663.60574356431493
 30
0.0
 11
261.44704169472561
 21
662.40574356431478
 31
0.0
  0
LINE
  5
192F1
  8
KI1
 10
262.74704169472562
 20
636.60574356431493
 30
0.0
 11
268.04704169472552
 21
636.60574356431493
 31
0.0
  0
LINE
  5
192F2
  8
KI1
 10
263.89704169472549
 20
637.75574356431468
 30
0.0
 11
267.3970416947256
 21
637.75574356431468
 31
0.0
  0
ARC
  5
192F3
  8
KI1
 10
263.89704169472549
 20
638.05574356431475
 30
0.0
 40
0.2999999999999999
 50
180.0
 51
270.0
  0
LINE
  5
192F4
  8
KI1
 10
262.24704169472562
 20
643.90574356431455
 30
0.0
 11
262.44704169472561
 21
642.40574356431455
 31
0.0
  0
LINE
  5
192F5
  8
KI1
 10
262.44704169472561
 20
638.90574356431455
 30
0.0
 11
262.44704169472561
 21
642.40574356431455
 31
0.0
  0
LINE
  5
192F6
  8
KI1
 10
263.59704169472559
 20
638.05574356431475
 30
0.0
 11
263.59704169472559
 21
645.78074356431478
 31
0.0
  0
LINE
  5
192F7
  8
KI1
 10
262.44704169472561
 20
645.78074356431478
 30
0.0
 11
262.44704169472561
 21
645.05574356431475
 31
0.0
  0
ARC
  5
192F8
  8
KI1
 10
263.02204169472549
 20
645.78074356431478
 30
0.0
 40
0.5749999999999959
 50
0.0
 51
180.0
  0
LINE
  5
192F9
  8
KI1
 10
262.44704169472561
 20
636.90574356431478
 30
0.0
 11
262.44704169472561
 21
637.60574356431471
 31
0.0
  0
ARC
  5
192FA
  8
KI1
 10
262.74704169472562
 20
636.90574356431478
 30
0.0
 40
0.2999999999999999
 50
180.0
 51
270.0
  0
LINE
  5
192FB
  8
KI1
 10
268.54704169472552
 20
637.10574356431493
 30
0.0
 11
268.54704169472552
 21
640.10574356431493
 31
0.0
  0
ARC
  5
192FC
  8
KI1
 10
270.69704169472561
 20
663.60574356431493
 30
0.0
 40
0.5
 50
0.0
 51
180.0
  0
ARC
  5
192FD
  8
KI1
 10
270.62204169472562
 20
638.33574356431495
 30
0.0
 40
0.575000000000003
 50
180.0
 51
0.0
  0
LINE
  5
192FE
  8
KI1
 10
270.19704169472561
 20
663.60574356431493
 30
0.0
 11
270.19704169472561
 21
662.40574356431478
 31
0.0
  0
LINE
  5
192FF
  8
KI1
 10
270.04704169472552
 20
641.25574356431468
 30
0.0
 11
270.04704169472552
 21
660.7557435643148
 31
0.0
  0
LINE
  5
19300
  8
KI1
 10
270.04704169472552
 20
638.33574356431495
 30
0.0
 11
270.04704169472552
 21
640.10574356431493
 31
0.0
  0
ARC
  5
19301
  8
KI1
 10
269.54704169472552
 20
660.7557435643148
 30
0.0
 40
0.4999999999999999
 50
0.0
 51
90.0
  0
LINE
  5
19302
  8
KI1
 10
271.19704169472561
 20
638.33574356431495
 30
0.0
 11
271.19704169472561
 21
663.60574356431493
 31
0.0
  0
ARC
  5
19303
  8
KI1
 10
267.89704169472571
 20
640.75574356431468
 30
0.0
 40
0.5
 50
90.0
 51
180.0
  0
LINE
  5
19304
  8
KI1
 10
267.3970416947256
 20
640.75574356431468
 30
0.0
 11
267.3970416947256
 21
637.75574356431468
 31
0.0
  0
LINE
  5
19305
  8
KI1
 10
283.99704169472562
 20
637.75574356431468
 30
0.0
 11
277.84704169472559
 21
637.75574356431468
 31
0.0
  0
LINE
  5
19306
  8
KI1
 10
285.14704169472549
 20
636.60574356431493
 30
0.0
 11
268.76704169472561
 21
636.60574356431493
 31
0.0
  0
LINE
  5
19307
  8
KI1
 10
277.6970416947255
 20
662.40574356431478
 30
0.0
 11
286.4470416947255
 21
662.40574356431478
 31
0.0
  0
LINE
  5
19308
  8
KI1
 10
278.34704169472559
 20
661.2557435643148
 30
0.0
 11
305.54704169472552
 21
661.2557435643148
 31
0.0
  0
LINE
  5
19309
  8
KI1
 10
276.6970416947255
 20
637.75574356431468
 30
0.0
 11
269.96704169472548
 21
637.75574356431468
 31
0.0
  0
ARC
  5
1930A
  8
KI1
 10
269.36704169472557
 20
639.00574356431468
 30
0.0
 40
0.5999999999999996
 50
0.0
 51
180.0
  0
LINE
  5
1930B
  8
KI1
 10
268.76704169472561
 20
639.00574356431468
 30
0.0
 11
268.76704169472561
 21
636.60574356431493
 31
0.0
  0
LINE
  5
1930C
  8
KI1
 10
269.96704169472548
 20
639.00574356431468
 30
0.0
 11
269.96704169472548
 21
637.75574356431468
 31
0.0
  0
ARC
  5
1930D
  8
KI1
 10
277.1970416947255
 20
663.60574356431493
 30
0.0
 40
0.5
 50
0.0
 51
180.0
  0
LINE
  5
1930E
  8
KI1
 10
276.6970416947255
 20
637.75574356431468
 30
0.0
 11
276.6970416947255
 21
663.60574356431493
 31
0.0
  0
LINE
  5
1930F
  8
KI1
 10
277.6970416947255
 20
663.60574356431493
 30
0.0
 11
277.6970416947255
 21
662.40574356431478
 31
0.0
  0
LINE
  5
19310
  8
KI1
 10
277.84704169472559
 20
637.75574356431468
 30
0.0
 11
277.84704169472559
 21
660.7557435643148
 31
0.0
  0
ARC
  5
19311
  8
KI1
 10
278.34704169472559
 20
660.7557435643148
 30
0.0
 40
0.4999999999999999
 50
90.0
 51
180.0
  0
LINE
  5
19312
  8
KI1
 10
311.49704169472562
 20
636.60574356431493
 30
0.0
 11
298.74704169472562
 21
636.60574356431493
 31
0.0
  0
LINE
  5
19313
  8
KI1
 10
312.29704169472552
 20
637.60574356431493
 30
0.0
 11
307.1970416947255
 21
637.60574356431493
 31
0.0
  0
LINE
  5
19314
  8
KI1
 10
296.49704169472562
 20
637.60574356431471
 30
0.0
 11
298.4470416947255
 21
637.60574356431471
 31
0.0
  0
LINE
  5
19315
  8
KI1
 10
296.49830583407447
 20
645.05574356431475
 30
0.0
 11
298.4470416947255
 21
645.05574356431475
 31
0.0
  0
ARC
  5
19316
  8
KI1
 10
296.6983058340744
 20
644.40574356431455
 30
0.0
 40
0.5
 50
180.0
 51
270.0
  0
LINE
  5
19317
  8
KI1
 10
296.49704169472562
 20
640.30574356431475
 30
0.0
 11
296.6970416947255
 21
640.30574356431475
 31
0.0
  0
ARC
  5
19318
  8
KI1
 10
296.9470416947255
 20
663.60574356431493
 30
0.0
 40
0.5
 50
0.0
 51
180.0
  0
LINE
  5
19319
  8
KI1
 10
287.1983058340744
 20
643.90574356431455
 30
0.0
 11
285.6470416947256
 21
643.90574356431455
 31
0.0
  0
LINE
  5
1931A
  8
KI1
 10
287.39704169472549
 20
637.60574356431471
 30
0.0
 11
285.4470416947255
 21
637.60574356431471
 31
0.0
  0
LINE
  5
1931B
  8
KI1
 10
287.39830583407439
 20
645.05574356431475
 30
0.0
 11
285.4470416947255
 21
645.05574356431475
 31
0.0
  0
LINE
  5
1931C
  8
KI1
 10
286.54704169472552
 20
639.30574356431475
 30
0.0
 11
287.1970416947255
 21
640.30574356431475
 31
0.0
  0
ARC
  5
1931D
  8
KI1
 10
286.9470416947255
 20
663.60574356431493
 30
0.0
 40
0.5
 50
0.0
 51
180.0
  0
LINE
  5
1931E
  8
KI1
 10
286.4470416947255
 20
663.60574356431493
 30
0.0
 11
286.4470416947255
 21
662.40574356431478
 31
0.0
  0
ARC
  5
1931F
  8
KI1
 10
284.87204169472551
 20
645.78074356431478
 30
0.0
 40
0.5749999999999959
 50
0.0
 51
180.0
  0
ARC
  5
19320
  8
KI1
 10
285.14704169472549
 20
636.90574356431478
 30
0.0
 40
0.2999999999999999
 50
270.0
 51
0.0
  0
LINE
  5
19321
  8
KI1
 10
284.29704169472552
 20
638.05574356431487
 30
0.0
 11
284.29704169472552
 21
645.78074356431478
 31
0.0
  0
ARC
  5
19322
  8
KI1
 10
283.99704169472562
 20
638.05574356431487
 30
0.0
 40
0.2999999999999999
 50
270.0
 51
0.0
  0
LINE
  5
19323
  8
KI1
 10
285.6470416947256
 20
643.90574356431455
 30
0.0
 11
285.4470416947255
 21
642.40574356431455
 31
0.0
  0
LINE
  5
19324
  8
KI1
 10
285.4470416947255
 20
638.90574356431455
 30
0.0
 11
285.4470416947255
 21
642.40574356431455
 31
0.0
  0
LINE
  5
19325
  8
KI1
 10
286.54704169472552
 20
638.90574356431455
 30
0.0
 11
285.4470416947255
 21
638.90574356431455
 31
0.0
  0
LINE
  5
19326
  8
KI1
 10
286.54704169472552
 20
638.90574356431455
 30
0.0
 11
286.54704169472552
 21
639.30574356431475
 31
0.0
  0
LINE
  5
19327
  8
KI1
 10
285.4470416947255
 20
645.78074356431478
 30
0.0
 11
285.4470416947255
 21
645.05574356431475
 31
0.0
  0
LINE
  5
19328
  8
KI1
 10
285.4470416947255
 20
636.90574356431478
 30
0.0
 11
285.4470416947255
 21
637.60574356431471
 31
0.0
  0
LINE
  5
19329
  8
KI1
 10
287.4470416947255
 20
663.60574356431493
 30
0.0
 11
287.4470416947255
 21
662.40574356431478
 31
0.0
  0
ARC
  5
1932A
  8
KI1
 10
287.39704169472549
 20
637.90574356431455
 30
0.0
 40
0.2999999999999999
 50
270.0
 51
0.0
  0
ARC
  5
1932B
  8
KI1
 10
287.39830583407439
 20
644.75574356431468
 30
0.0
 40
0.2999999999999999
 50
0.0
 51
90.0
  0
LINE
  5
1932C
  8
KI1
 10
287.6983058340744
 20
644.75574356431468
 30
0.0
 11
287.6983058340744
 21
644.40574356431455
 31
0.0
  0
LINE
  5
1932D
  8
KI1
 10
287.6970416947255
 20
640.0057435643148
 30
0.0
 11
287.6970416947255
 21
637.90574356431455
 31
0.0
  0
ARC
  5
1932E
  8
KI1
 10
287.39704169472549
 20
640.0057435643148
 30
0.0
 40
0.2999999999999999
 50
0.0
 51
90.0
  0
LINE
  5
1932F
  8
KI1
 10
287.39704169472549
 20
640.30574356431475
 30
0.0
 11
287.1970416947255
 21
640.30574356431475
 31
0.0
  0
ARC
  5
19330
  8
KI1
 10
287.1983058340744
 20
644.40574356431455
 30
0.0
 40
0.5
 50
270.0
 51
0.0
  0
LINE
  5
19331
  8
KI1
 10
296.4470416947255
 20
662.40574356431478
 30
0.0
 11
287.4470416947255
 21
662.40574356431478
 31
0.0
  0
LINE
  5
19332
  8
KI1
 10
296.4470416947255
 20
663.60574356431493
 30
0.0
 11
296.4470416947255
 21
662.40574356431478
 31
0.0
  0
ARC
  5
19333
  8
KI1
 10
296.49704169472562
 20
637.90574356431455
 30
0.0
 40
0.2999999999999999
 50
180.0
 51
270.0
  0
ARC
  5
19334
  8
KI1
 10
296.49830583407447
 20
644.75574356431468
 30
0.0
 40
0.2999999999999999
 50
90.0
 51
180.0
  0
LINE
  5
19335
  8
KI1
 10
296.1983058340744
 20
644.75574356431468
 30
0.0
 11
296.1983058340744
 21
644.40574356431455
 31
0.0
  0
LINE
  5
19336
  8
KI1
 10
296.1970416947255
 20
640.0057435643148
 30
0.0
 11
296.1970416947255
 21
637.90574356431455
 31
0.0
  0
ARC
  5
19337
  8
KI1
 10
296.49704169472562
 20
640.0057435643148
 30
0.0
 40
0.2999999999999999
 50
90.0
 51
180.0
  0
LINE
  5
19338
  8
KI1
 10
299.89704169472549
 20
637.75574356431468
 30
0.0
 11
306.04704169472552
 21
637.75574356431468
 31
0.0
  0
LINE
  5
19339
  8
KI1
 10
306.1970416947255
 20
662.40574356431478
 30
0.0
 11
297.4470416947255
 21
662.40574356431478
 31
0.0
  0
ARC
  5
1933A
  8
KI1
 10
299.89704169472549
 20
638.05574356431487
 30
0.0
 40
0.2999999999999999
 50
180.0
 51
270.0
  0
LINE
  5
1933B
  8
KI1
 10
297.4470416947255
 20
663.60574356431493
 30
0.0
 11
297.4470416947255
 21
662.40574356431478
 31
0.0
  0
LINE
  5
1933C
  8
KI1
 10
296.6983058340744
 20
643.90574356431455
 30
0.0
 11
298.24704169472562
 21
643.90574356431455
 31
0.0
  0
LINE
  5
1933D
  8
KI1
 10
297.34704169472559
 20
638.90574356431455
 30
0.0
 11
298.4470416947255
 21
638.90574356431455
 31
0.0
  0
LINE
  5
1933E
  8
KI1
 10
297.34704169472559
 20
638.90574356431455
 30
0.0
 11
297.34704169472559
 21
639.30574356431475
 31
0.0
  0
LINE
  5
1933F
  8
KI1
 10
297.34704169472559
 20
639.30574356431475
 30
0.0
 11
296.6970416947255
 21
640.30574356431475
 31
0.0
  0
LINE
  5
19340
  8
KI1
 10
298.24704169472562
 20
643.90574356431455
 30
0.0
 11
298.4470416947255
 21
642.40574356431455
 31
0.0
  0
LINE
  5
19341
  8
KI1
 10
298.4470416947255
 20
638.90574356431455
 30
0.0
 11
298.4470416947255
 21
642.40574356431455
 31
0.0
  0
LINE
  5
19342
  8
KI1
 10
299.59704169472559
 20
638.05574356431487
 30
0.0
 11
299.59704169472559
 21
645.78074356431478
 31
0.0
  0
LINE
  5
19343
  8
KI1
 10
298.4470416947255
 20
645.78074356431478
 30
0.0
 11
298.4470416947255
 21
645.05574356431475
 31
0.0
  0
ARC
  5
19344
  8
KI1
 10
299.0220416947256
 20
645.78074356431478
 30
0.0
 40
0.5749999999999959
 50
0.0
 51
180.0
  0
LINE
  5
19345
  8
KI1
 10
298.4470416947255
 20
636.90574356431478
 30
0.0
 11
298.4470416947255
 21
637.60574356431471
 31
0.0
  0
ARC
  5
19346
  8
KI1
 10
298.74704169472562
 20
636.90574356431478
 30
0.0
 40
0.2999999999999999
 50
180.0
 51
270.0
  0
ARC
  5
19347
  8
KI1
 10
306.6970416947255
 20
663.60574356431493
 30
0.0
 40
0.5
 50
0.0
 51
180.0
  0
LINE
  5
19348
  8
KI1
 10
306.1970416947255
 20
663.60574356431493
 30
0.0
 11
306.1970416947255
 21
662.40574356431478
 31
0.0
  0
LINE
  5
19349
  8
KI1
 10
306.04704169472552
 20
637.75574356431468
 30
0.0
 11
306.04704169472552
 21
660.7557435643148
 31
0.0
  0
ARC
  5
1934A
  8
KI1
 10
305.54704169472552
 20
660.7557435643148
 30
0.0
 40
0.4999999999999999
 50
0.0
 51
90.0
  0
LINE
  5
1934B
  8
KI1
 10
307.1970416947255
 20
637.60574356431493
 30
0.0
 11
307.1970416947255
 21
663.60574356431493
 31
0.0
  0
ARC
  5
1934C
  8
KI1
 10
312.29704169472552
 20
637.10574356431493
 30
0.0
 40
0.5
 50
0.0
 51
90.0
  0
ARC
  5
1934D
  8
KI1
 10
311.49704169472562
 20
636.30574356431487
 30
0.0
 40
0.2999999999999999
 50
0.0
 51
90.0
  0
LINE
  5
1934E
  8
KI1
 10
311.79704169472552
 20
636.30574356431487
 30
0.0
 11
311.79704169472552
 21
624.10574356431493
 31
0.0
  0
LINE
  5
1934F
  8
KI1
 10
312.79704169472552
 20
637.10574356431493
 30
0.0
 11
312.79704169472552
 21
624.10574356431493
 31
0.0
  0
ARC
  5
19350
  8
KI1
 10
312.29704169472552
 20
624.10574356431493
 30
0.0
 40
0.5
 50
180.0
 51
0.0
  0
LINE
  5
19539
  8
KI2
 10
215.94704169463509
 20
126.0711938844105
 30
0.0
 11
218.44704169463509
 21
124.5711938844105
 31
0.0
  0
LINE
  5
1953A
  8
KI2
 10
215.94704169463509
 20
129.78300748772091
 30
0.0
 11
215.94704169463509
 21
126.0711938844105
 31
0.0
  0
LINE
  5
1953B
  8
KI2
 10
220.44704169463509
 20
123.0711938844105
 30
0.0
 11
219.44704169463509
 21
123.0711938844105
 31
0.0
  0
LINE
  5
1953C
  8
KI2
 10
218.44704169463509
 20
123.0711938844105
 30
0.0
 11
219.44704169463509
 21
123.0711938844105
 31
0.0
  0
LINE
  5
1953D
  8
KI2
 10
222.94704169463509
 20
126.0711938844105
 30
0.0
 11
220.44704169463509
 21
124.5711938844105
 31
0.0
  0
LINE
  5
1953E
  8
KI2
 10
222.94704169463509
 20
129.78300748772091
 30
0.0
 11
222.94704169463509
 21
126.0711938844105
 31
0.0
  0
LINE
  5
1953F
  8
KI2
 10
220.44704169463509
 20
129.78300748772091
 30
0.0
 11
220.44704169463509
 21
123.0711938844105
 31
0.0
  0
LINE
  5
19540
  8
KI2
 10
218.44704169463509
 20
129.78300748772091
 30
0.0
 11
218.44704169463509
 21
123.0711938844105
 31
0.0
  0
LINE
  5
19541
  8
KI2
 10
204.447041694636
 20
129.78300748772091
 30
0.0
 11
234.447041694636
 21
129.78300748772099
 31
0.0
  0
LINE
  5
19542
  8
KI1
 10
202.947041694636
 20
131.28300748772091
 30
0.0
 11
235.94704169456671
 21
131.28300748772091
 31
0.0
  0
ARC
  5
19543
  8
KI2
 10
204.447041694636
 20
131.28300748772091
 30
0.0
 40
1.5
 50
180.0
 51
270.0
  0
ARC
  5
19544
  8
KI2
 10
234.447041694636
 20
131.28300748772091
 30
0.0
 40
1.5
 50
270.0
 51
0.0
  0
LINE
  5
19545
  8
KI2
 10
179.94704169463509
 20
126.0711938844105
 30
0.0
 11
182.44704169463509
 21
124.5711938844105
 31
0.0
  0
LINE
  5
19546
  8
KI2
 10
179.94704169463509
 20
129.78300748772091
 30
0.0
 11
179.94704169463509
 21
126.0711938844105
 31
0.0
  0
LINE
  5
19547
  8
KI2
 10
184.44704169463509
 20
123.0711938844105
 30
0.0
 11
183.44704169463509
 21
123.0711938844105
 31
0.0
  0
LINE
  5
19548
  8
KI2
 10
182.44704169463509
 20
123.0711938844105
 30
0.0
 11
183.44704169463509
 21
123.0711938844105
 31
0.0
  0
LINE
  5
19549
  8
KI2
 10
186.94704169463509
 20
126.0711938844105
 30
0.0
 11
184.44704169463509
 21
124.5711938844105
 31
0.0
  0
LINE
  5
1954A
  8
KI2
 10
186.94704169463509
 20
129.78300748772091
 30
0.0
 11
186.94704169463509
 21
126.0711938844105
 31
0.0
  0
LINE
  5
1954B
  8
KI2
 10
184.44704169463509
 20
129.78300748772091
 30
0.0
 11
184.44704169463509
 21
123.0711938844105
 31
0.0
  0
LINE
  5
1954C
  8
KI2
 10
182.44704169463509
 20
129.78300748772091
 30
0.0
 11
182.44704169463509
 21
123.0711938844105
 31
0.0
  0
LINE
  5
1954D
  8
KI2
 10
168.447041694636
 20
129.78300748772091
 30
0.0
 11
198.447041694636
 21
129.78300748772099
 31
0.0
  0
LINE
  5
1954E
  8
KI1
 10
166.947041694636
 20
131.28300748772091
 30
0.0
 11
199.94704169456659
 21
131.28300748772091
 31
0.0
  0
ARC
  5
1954F
  8
KI2
 10
168.447041694636
 20
131.28300748772091
 30
0.0
 40
1.5
 50
180.0
 51
270.0
  0
ARC
  5
19550
  8
KI2
 10
198.447041694636
 20
131.28300748772091
 30
0.0
 40
1.5
 50
270.0
 51
0.0
  0
LINE
  5
19551
  8
KI2
 10
178.8470616945653
 20
126.0830073963906
 30
0.0
 11
179.8470616945653
 21
126.0830073963906
 31
0.0
  0
LINE
  5
19552
  8
KI2
 10
179.94706169456521
 20
118.9830073963907
 30
0.0
 11
178.8470616945653
 21
122.0230073963907
 31
0.0
  0
LINE
  5
19553
  8
KI2
 10
179.24706169456519
 20
116.0830073963906
 30
0.0
 11
179.94706169456521
 21
116.0830073963906
 31
0.0
  0
LINE
  5
19554
  8
KI2
 10
179.94706169456521
 20
117.5830073963906
 30
0.0
 11
179.3470616945653
 21
116.8830073963906
 31
0.0
  0
ARC
  5
19555
  8
KI2
 10
178.8470616945653
 20
125.7830073963907
 30
0.0
 40
0.3
 50
90.0
 51
180.0
  0
LINE
  5
19556
  8
KI2
 10
178.5470616945654
 20
122.3830073963906
 30
0.0
 11
178.8470616945653
 21
122.0230073963907
 31
0.0
  0
LINE
  5
19557
  8
KI2
 10
178.74706169456519
 20
116.8830073963906
 30
0.0
 11
178.74706169456519
 21
116.5830073963906
 31
0.0
  0
ARC
  5
19558
  8
KI2
 10
179.24706169456519
 20
116.5830073963906
 30
0.0
 40
0.5
 50
180.0
 51
270.0
  0
LINE
  5
19559
  8
KI2
 10
178.74706169456519
 20
116.8830073963906
 30
0.0
 11
179.3470616945653
 21
116.8830073963906
 31
0.0
  0
LINE
  5
1955A
  8
KI2
 10
178.5470616945654
 20
125.7830073963907
 30
0.0
 11
178.5470616945654
 21
122.3830073963906
 31
0.0
  0
ARC
  5
1955B
  8
KI2
 10
188.0470616945654
 20
125.7830073963907
 30
0.0
 40
0.3
 50
0.0
 51
90.0
  0
ARC
  5
1955C
  8
KI2
 10
185.8470616945653
 20
124.6844656521782
 30
0.0
 40
0.3
 50
130.00000000000239
 51
180.0
  0
LINE
  5
1955D
  8
KI2
 10
185.6542254116593
 20
124.9142789851139
 30
0.0
 11
187.0470616945654
 21
126.0830073963906
 31
0.0
  0
LINE
  5
1955E
  8
KI2
 10
188.0470616945654
 20
126.0830073963906
 30
0.0
 11
187.0470616945654
 21
126.0830073963906
 31
0.0
  0
LINE
  5
1955F
  8
KI2
 10
188.3470616945653
 20
122.3830073963906
 30
0.0
 11
188.0470616945654
 21
122.0230073963907
 31
0.0
  0
ARC
  5
19560
  8
KI2
 10
185.64706169456531
 20
122.3330073963907
 30
0.0
 40
0.75
 50
270.0
 51
90.0
  0
LINE
  5
19561
  8
KI2
 10
185.59862725830271
 20
121.2830073963907
 30
0.0
 11
185.59862725830271
 21
121.5830073963907
 31
0.0
  0
LINE
  5
19562
  8
KI2
 10
185.59862725830271
 20
121.5830073963907
 30
0.0
 11
185.64706169456531
 21
121.5830073963907
 31
0.0
  0
LINE
  5
19563
  8
KI2
 10
185.64706169456531
 20
123.0830073963907
 30
0.0
 11
185.5470616945654
 21
123.0830073963907
 31
0.0
  0
LINE
  5
19564
  8
KI2
 10
186.94706169456529
 20
118.9830073963907
 30
0.0
 11
186.94706169456529
 21
117.5830073963906
 31
0.0
  0
POINT
  5
19565
  8
KI2
 10
186.94706169456529
 20
118.46891912357501
 30
0.0
  0
LINE
  5
19566
  8
KI2
 10
186.94706169456529
 20
118.9830073963907
 30
0.0
 11
188.0470616945654
 21
122.0230073963907
 31
0.0
  0
ARC
  5
19567
  8
KI2
 10
185.09862725830271
 20
121.2830073963907
 30
0.0
 40
0.5
 50
270.0
 51
0.0
  0
LINE
  5
19568
  8
KI2
 10
188.14706169456531
 20
116.8830073963906
 30
0.0
 11
188.14706169456531
 21
116.5830073963906
 31
0.0
  0
LINE
  5
19569
  8
KI2
 10
187.64706169456531
 20
116.0830073963906
 30
0.0
 11
186.94706169456529
 21
116.0830073963906
 31
0.0
  0
LINE
  5
1956A
  8
KI2
 10
186.64706169456531
 20
116.3830073963906
 30
0.0
 11
186.94706169456529
 21
116.0830073963906
 31
0.0
  0
LINE
  5
1956B
  8
KI2
 10
184.19706169456521
 20
117.0830073963906
 30
0.0
 11
184.69706169456521
 21
116.3830073963906
 31
0.0
  0
LINE
  5
1956C
  8
KI2
 10
186.64706169456531
 20
116.3830073963906
 30
0.0
 11
184.69706169456521
 21
116.3830073963906
 31
0.0
  0
ARC
  5
1956D
  8
KI2
 10
187.64706169456531
 20
116.5830073963906
 30
0.0
 40
0.5
 50
270.0
 51
0.0
  0
LINE
  5
1956E
  8
KI2
 10
188.14706169456531
 20
116.8830073963906
 30
0.0
 11
187.5470616945654
 21
116.8830073963906
 31
0.0
  0
LINE
  5
1956F
  8
KI2
 10
186.94706169456529
 20
117.5830073963906
 30
0.0
 11
187.5470616945654
 21
116.8830073963906
 31
0.0
  0
LINE
  5
19570
  8
KI2
 10
188.3470616945653
 20
125.7830073963907
 30
0.0
 11
188.3470616945653
 21
122.3830073963906
 31
0.0
  0
LINE
  5
19571
  8
KI2
 10
185.5470616945654
 20
124.6844656521782
 30
0.0
 11
185.5470616945654
 21
123.0830073963907
 31
0.0
  0
ARC
  5
19572
  8
KI2
 10
181.0470616945654
 20
124.6844656521782
 30
0.0
 40
0.3
 50
0.0
 51
49.999999999997613
  0
LINE
  5
19573
  8
KI2
 10
181.23989797747109
 20
124.9142789851139
 30
0.0
 11
179.8470616945651
 21
126.0830073963906
 31
0.0
  0
ARC
  5
19574
  8
KI2
 10
181.24706169456519
 20
122.3330073963907
 30
0.0
 40
0.75
 50
90.0
 51
270.0
  0
LINE
  5
19575
  8
KI2
 10
181.29549613082801
 20
121.2830073963907
 30
0.0
 11
181.29549613082801
 21
121.5830073963907
 31
0.0
  0
LINE
  5
19576
  8
KI2
 10
181.29549613082801
 20
121.5830073963907
 30
0.0
 11
181.24706169456519
 21
121.5830073963907
 31
0.0
  0
LINE
  5
19577
  8
KI2
 10
181.24706169456519
 20
123.0830073963907
 30
0.0
 11
181.3470616945653
 21
123.0830073963907
 31
0.0
  0
ARC
  5
19578
  8
KI2
 10
183.44706169456521
 20
120.7830073963907
 30
0.0
 40
0.3
 50
270.0
 51
0.0
  0
LINE
  5
19579
  8
KI2
 10
179.94706169456521
 20
118.9830073963907
 30
0.0
 11
179.94706169456521
 21
117.5830073963906
 31
0.0
  0
LINE
  5
1957A
  8
KI2
 10
181.79549613082801
 20
120.7830073963907
 30
0.0
 11
183.14706169456531
 21
120.7830073963907
 31
0.0
  0
POINT
  5
1957B
  8
KI2
 10
179.94706169456521
 20
118.46891912357501
 30
0.0
  0
ARC
  5
1957C
  8
KI2
 10
183.44706169456521
 20
120.7830073963907
 30
0.0
 40
0.3
 50
180.0
 51
270.0
  0
ARC
  5
1957D
  8
KI2
 10
181.79549613082801
 20
121.2830073963907
 30
0.0
 40
0.5
 50
180.0
 51
270.0
  0
LINE
  5
1957E
  8
KI2
 10
180.24706169456519
 20
116.3830073963906
 30
0.0
 11
182.19706169456521
 21
116.3830073963906
 31
0.0
  0
LINE
  5
1957F
  8
KI2
 10
180.24706169456519
 20
116.3830073963906
 30
0.0
 11
179.94706169456521
 21
116.0830073963906
 31
0.0
  0
LINE
  5
19580
  8
KI2
 10
182.69706169456521
 20
117.0830073963906
 30
0.0
 11
182.19706169456521
 21
116.3830073963906
 31
0.0
  0
LINE
  5
19581
  8
KI2
 10
183.14706169456531
 20
117.0830073963906
 30
0.0
 11
182.69706169456521
 21
117.0830073963906
 31
0.0
  0
ARC
  5
19582
  8
KI2
 10
183.44706169456521
 20
117.0830073963906
 30
0.0
 40
0.3
 50
0.0
 51
90.0
  0
ARC
  5
19583
  8
KI2
 10
183.44706169456521
 20
117.0830073963906
 30
0.0
 40
0.3
 50
90.0
 51
180.0
  0
LINE
  5
19584
  8
KI2
 10
181.3470616945653
 20
124.6844656521782
 30
0.0
 11
181.3470616945653
 21
123.0830073963907
 31
0.0
  0
LINE
  5
19585
  8
KI2
 10
183.74706169456519
 20
117.0830073963906
 30
0.0
 11
184.19706169456521
 21
117.0830073963906
 31
0.0
  0
LINE
  5
19586
  8
KI2
 10
185.09862725830271
 20
120.7830073963907
 30
0.0
 11
183.74706169456519
 21
120.7830073963907
 31
0.0
  0
LINE
  5
19587
  8
KI2
 10
214.84706169456541
 20
126.0830073963906
 30
0.0
 11
215.84706169456541
 21
126.0830073963906
 31
0.0
  0
LINE
  5
19588
  8
KI2
 10
215.94706169456529
 20
118.9830073963907
 30
0.0
 11
214.84706169456541
 21
122.0230073963907
 31
0.0
  0
LINE
  5
19589
  8
KI2
 10
215.24706169456519
 20
116.0830073963906
 30
0.0
 11
215.94706169456529
 21
116.0830073963906
 31
0.0
  0
LINE
  5
1958A
  8
KI2
 10
215.94706169456529
 20
117.5830073963906
 30
0.0
 11
215.34706169456541
 21
116.8830073963906
 31
0.0
  0
ARC
  5
1958B
  8
KI2
 10
214.84706169456541
 20
125.7830073963907
 30
0.0
 40
0.3
 50
90.0
 51
180.0
  0
LINE
  5
1958C
  8
KI2
 10
214.5470616945654
 20
122.3830073963906
 30
0.0
 11
214.84706169456541
 21
122.0230073963907
 31
0.0
  0
LINE
  5
1958D
  8
KI2
 10
214.74706169456519
 20
116.8830073963906
 30
0.0
 11
214.74706169456519
 21
116.5830073963906
 31
0.0
  0
ARC
  5
1958E
  8
KI2
 10
215.24706169456519
 20
116.5830073963906
 30
0.0
 40
0.5
 50
180.0
 51
270.0
  0
LINE
  5
1958F
  8
KI2
 10
214.74706169456519
 20
116.8830073963906
 30
0.0
 11
215.34706169456541
 21
116.8830073963906
 31
0.0
  0
LINE
  5
19590
  8
KI2
 10
214.5470616945654
 20
125.7830073963907
 30
0.0
 11
214.5470616945654
 21
122.3830073963906
 31
0.0
  0
ARC
  5
19591
  8
KI2
 10
224.0470616945654
 20
125.7830073963907
 30
0.0
 40
0.3
 50
0.0
 51
90.0
  0
ARC
  5
19592
  8
KI2
 10
221.84706169456541
 20
124.6844656521782
 30
0.0
 40
0.3
 50
130.00000000000239
 51
180.0
  0
LINE
  5
19593
  8
KI2
 10
221.65422541165941
 20
124.9142789851139
 30
0.0
 11
223.0470616945654
 21
126.0830073963906
 31
0.0
  0
LINE
  5
19594
  8
KI2
 10
224.0470616945654
 20
126.0830073963906
 30
0.0
 11
223.0470616945654
 21
126.0830073963906
 31
0.0
  0
LINE
  5
19595
  8
KI2
 10
224.3470616945653
 20
122.3830073963906
 30
0.0
 11
224.0470616945654
 21
122.0230073963907
 31
0.0
  0
ARC
  5
19596
  8
KI2
 10
221.64706169456531
 20
122.3330073963907
 30
0.0
 40
0.75
 50
270.0
 51
90.0
  0
LINE
  5
19597
  8
KI2
 10
221.59862725830271
 20
121.2830073963907
 30
0.0
 11
221.59862725830271
 21
121.5830073963907
 31
0.0
  0
LINE
  5
19598
  8
KI2
 10
221.59862725830271
 20
121.5830073963907
 30
0.0
 11
221.64706169456531
 21
121.5830073963907
 31
0.0
  0
LINE
  5
19599
  8
KI2
 10
221.64706169456531
 20
123.0830073963907
 30
0.0
 11
221.5470616945654
 21
123.0830073963907
 31
0.0
  0
LINE
  5
1959A
  8
KI2
 10
222.94706169456529
 20
118.9830073963907
 30
0.0
 11
222.94706169456529
 21
117.5830073963906
 31
0.0
  0
POINT
  5
1959B
  8
KI2
 10
222.94706169456529
 20
118.46891912357501
 30
0.0
  0
LINE
  5
1959C
  8
KI2
 10
222.94706169456529
 20
118.9830073963907
 30
0.0
 11
224.0470616945654
 21
122.0230073963907
 31
0.0
  0
ARC
  5
1959D
  8
KI2
 10
221.09862725830271
 20
121.2830073963907
 30
0.0
 40
0.5
 50
270.0
 51
0.0
  0
LINE
  5
1959E
  8
KI2
 10
224.14706169456531
 20
116.8830073963906
 30
0.0
 11
224.14706169456531
 21
116.5830073963906
 31
0.0
  0
LINE
  5
1959F
  8
KI2
 10
223.64706169456531
 20
116.0830073963906
 30
0.0
 11
222.94706169456529
 21
116.0830073963906
 31
0.0
  0
LINE
  5
195A0
  8
KI2
 10
222.64706169456531
 20
116.3830073963906
 30
0.0
 11
222.94706169456529
 21
116.0830073963906
 31
0.0
  0
LINE
  5
195A1
  8
KI2
 10
220.19706169456521
 20
117.0830073963906
 30
0.0
 11
220.69706169456529
 21
116.3830073963906
 31
0.0
  0
LINE
  5
195A2
  8
KI2
 10
222.64706169456531
 20
116.3830073963906
 30
0.0
 11
220.69706169456529
 21
116.3830073963906
 31
0.0
  0
ARC
  5
195A3
  8
KI2
 10
223.64706169456531
 20
116.5830073963906
 30
0.0
 40
0.5
 50
270.0
 51
0.0
  0
LINE
  5
195A4
  8
KI2
 10
224.14706169456531
 20
116.8830073963906
 30
0.0
 11
223.5470616945654
 21
116.8830073963906
 31
0.0
  0
LINE
  5
195A5
  8
KI2
 10
222.94706169456529
 20
117.5830073963906
 30
0.0
 11
223.5470616945654
 21
116.8830073963906
 31
0.0
  0
LINE
  5
195A6
  8
KI2
 10
224.3470616945653
 20
125.7830073963907
 30
0.0
 11
224.3470616945653
 21
122.3830073963906
 31
0.0
  0
LINE
  5
195A7
  8
KI2
 10
221.5470616945654
 20
124.6844656521782
 30
0.0
 11
221.5470616945654
 21
123.0830073963907
 31
0.0
  0
ARC
  5
195A8
  8
KI2
 10
217.0470616945654
 20
124.6844656521782
 30
0.0
 40
0.3
 50
0.0
 51
49.999999999997613
  0
LINE
  5
195A9
  8
KI2
 10
217.2398979774712
 20
124.9142789851139
 30
0.0
 11
215.8470616945651
 21
126.0830073963906
 31
0.0
  0
ARC
  5
195AA
  8
KI2
 10
217.24706169456519
 20
122.3330073963907
 30
0.0
 40
0.75
 50
90.0
 51
270.0
  0
LINE
  5
195AB
  8
KI2
 10
217.29549613082801
 20
121.2830073963907
 30
0.0
 11
217.29549613082801
 21
121.5830073963907
 31
0.0
  0
LINE
  5
195AC
  8
KI2
 10
217.29549613082801
 20
121.5830073963907
 30
0.0
 11
217.24706169456519
 21
121.5830073963907
 31
0.0
  0
LINE
  5
195AD
  8
KI2
 10
217.24706169456519
 20
123.0830073963907
 30
0.0
 11
217.34706169456541
 21
123.0830073963907
 31
0.0
  0
ARC
  5
195AE
  8
KI2
 10
219.44706169456529
 20
120.7830073963907
 30
0.0
 40
0.3
 50
270.0
 51
0.0
  0
LINE
  5
195AF
  8
KI2
 10
215.94706169456529
 20
118.9830073963907
 30
0.0
 11
215.94706169456529
 21
117.5830073963906
 31
0.0
  0
LINE
  5
195B0
  8
KI2
 10
217.79549613082801
 20
120.7830073963907
 30
0.0
 11
219.14706169456531
 21
120.7830073963907
 31
0.0
  0
POINT
  5
195B1
  8
KI2
 10
215.94706169456529
 20
118.46891912357501
 30
0.0
  0
ARC
  5
195B2
  8
KI2
 10
219.44706169456529
 20
120.7830073963907
 30
0.0
 40
0.3
 50
180.0
 51
270.0
  0
ARC
  5
195B3
  8
KI2
 10
217.79549613082801
 20
121.2830073963907
 30
0.0
 40
0.5
 50
180.0
 51
270.0
  0
LINE
  5
195B4
  8
KI2
 10
216.24706169456519
 20
116.3830073963906
 30
0.0
 11
218.19706169456521
 21
116.3830073963906
 31
0.0
  0
LINE
  5
195B5
  8
KI2
 10
216.24706169456519
 20
116.3830073963906
 30
0.0
 11
215.94706169456529
 21
116.0830073963906
 31
0.0
  0
LINE
  5
195B6
  8
KI2
 10
218.69706169456529
 20
117.0830073963906
 30
0.0
 11
218.19706169456521
 21
116.3830073963906
 31
0.0
  0
LINE
  5
195B7
  8
KI2
 10
219.14706169456531
 20
117.0830073963906
 30
0.0
 11
218.69706169456529
 21
117.0830073963906
 31
0.0
  0
ARC
  5
195B8
  8
KI2
 10
219.44706169456529
 20
117.0830073963906
 30
0.0
 40
0.3
 50
0.0
 51
90.0
  0
ARC
  5
195B9
  8
KI2
 10
219.44706169456529
 20
117.0830073963906
 30
0.0
 40
0.3
 50
90.0
 51
180.0
  0
LINE
  5
195BA
  8
KI2
 10
217.34706169456541
 20
124.6844656521782
 30
0.0
 11
217.34706169456541
 21
123.0830073963907
 31
0.0
  0
LINE
  5
195BB
  8
KI2
 10
219.74706169456519
 20
117.0830073963906
 30
0.0
 11
220.19706169456521
 21
117.0830073963906
 31
0.0
  0
LINE
  5
195BC
  8
KI2
 10
221.09862725830271
 20
120.7830073963907
 30
0.0
 11
219.74706169456519
 21
120.7830073963907
 31
0.0
  0
LINE
  5
195BD
  8
KI1
 10
189.9970616945638
 20
126.88300739639089
 30
0.0
 11
212.89706169456491
 21
126.88300739639089
 31
0.0
  0
LINE
  5
195BE
  8
KI1
 10
191.19706169456359
 20
125.5830073963907
 30
0.0
 11
211.69706169456501
 21
125.5830073963907
 31
0.0
  0
LINE
  5
195BF
  8
KI1
 10
165.44706169456461
 20
125.18300739639059
 30
0.0
 11
169.44706169456501
 21
126.88300739639089
 31
0.0
  0
LINE
  5
195C0
  8
KI1
 10
169.71185086582679
 20
125.5830073963907
 30
0.0
 11
166.6530273364169
 21
124.2830073963906
 31
0.0
  0
LINE
  5
195C1
  8
KI1
 10
165.44706169456461
 20
124.2830073963906
 30
0.0
 11
165.44706169456461
 21
125.18300739639059
 31
0.0
  0
LINE
  5
195C2
  8
KI1
 10
165.44706169456461
 20
124.2830073963906
 30
0.0
 11
166.6530273364169
 21
124.2830073963906
 31
0.0
  0
LINE
  5
195C3
  8
KI1
 10
172.94706169456589
 20
125.5830073963907
 30
0.0
 11
175.69706169456501
 21
125.5830073963907
 31
0.0
  0
ARC
  5
195C4
  8
KI1
 10
172.44706169456589
 20
124.5830073963907
 30
0.0
 40
0.5000000000000142
 50
180.0
 51
0.0
  0
LINE
  5
195C5
  8
KI1
 10
171.94706169456589
 20
124.5830073963907
 30
0.0
 11
171.94706169456501
 21
125.5830073963907
 31
0.0
  0
LINE
  5
195C6
  8
KI1
 10
172.94706169456589
 20
125.5830073963907
 30
0.0
 11
172.94706169456589
 21
124.5830073963907
 31
0.0
  0
ARC
  5
195C7
  8
KI1
 10
177.94706169456501
 20
125.5830073963907
 30
0.0
 40
0.5000000000000142
 50
0.0
 51
90.0
  0
ARC
  5
195C8
  8
KI1
 10
176.19706169456501
 20
125.38300739639089
 30
0.0
 40
0.5000000000000142
 50
180.0
 51
270.0
  0
LINE
  5
195C9
  8
KI1
 10
175.69706169456501
 20
125.5830073963907
 30
0.0
 11
175.69706169456501
 21
125.38300739639089
 31
0.0
  0
LINE
  5
195CA
  8
KI1
 10
176.19706169456501
 20
124.8830073963905
 30
0.0
 11
177.24706169456471
 21
124.8830073963905
 31
0.0
  0
LINE
  5
195CB
  8
KI1
 10
176.8970616945648
 20
126.0830073963908
 30
0.0
 11
176.8970616945648
 21
126.88300739639089
 31
0.0
  0
LINE
  5
195CC
  8
KI1
 10
177.94706169456501
 20
126.0830073963908
 30
0.0
 11
176.8970616945648
 21
126.0830073963908
 31
0.0
  0
LINE
  5
195CD
  8
KI1
 10
169.44706169456501
 20
126.88300739639089
 30
0.0
 11
176.8970616945648
 21
126.88300739639089
 31
0.0
  0
LINE
  5
195CE
  8
KI1
 10
169.71185086582679
 20
125.5830073963907
 30
0.0
 11
171.94706169456501
 21
125.5830073963907
 31
0.0
  0
ARC
  5
195CF
  8
KI1
 10
188.94706169456501
 20
125.5830073963907
 30
0.0
 40
0.5000000000000993
 50
90.0
 51
180.0
  0
ARC
  5
195D0
  8
KI1
 10
190.6970616945641
 20
125.38300739639089
 30
0.0
 40
0.5000000000000993
 50
270.0
 51
0.0
  0
LINE
  5
195D1
  8
KI1
 10
189.6470616945648
 20
124.8830073963905
 30
0.0
 11
190.6970616945641
 21
124.8830073963905
 31
0.0
  0
LINE
  5
195D2
  8
KI1
 10
191.19706169456359
 20
125.38300739639089
 30
0.0
 11
191.19706169456359
 21
125.5830073963907
 31
0.0
  0
LINE
  5
195D3
  8
KI1
 10
189.9970616945638
 20
126.88300739639089
 30
0.0
 11
189.9970616945638
 21
126.0830073963908
 31
0.0
  0
LINE
  5
195D4
  8
KI1
 10
189.9970616945638
 20
126.0830073963908
 30
0.0
 11
188.94706169456501
 21
126.0830073963908
 31
0.0
  0
LINE
  5
195D5
  8
KI1
 10
233.18227252330189
 20
125.5830073963907
 30
0.0
 11
236.24109605271411
 21
124.2830073963906
 31
0.0
  0
ARC
  5
195D6
  8
KI1
 10
213.94706169456501
 20
125.5830073963907
 30
0.0
 40
0.5000000000000142
 50
0.0
 51
90.0
  0
ARC
  5
195D7
  8
KI1
 10
212.19706169456501
 20
125.38300739639089
 30
0.0
 40
0.5000000000000142
 50
180.0
 51
270.0
  0
LINE
  5
195D8
  8
KI1
 10
211.69706169456501
 20
125.5830073963907
 30
0.0
 11
211.69706169456501
 21
125.38300739639089
 31
0.0
  0
LINE
  5
195D9
  8
KI1
 10
212.19706169456501
 20
124.8830073963905
 30
0.0
 11
213.24706169456471
 21
124.8830073963905
 31
0.0
  0
LINE
  5
195DA
  8
KI1
 10
212.89706169456491
 20
126.0830073963908
 30
0.0
 11
212.89706169456491
 21
126.88300739639089
 31
0.0
  0
LINE
  5
195DB
  8
KI1
 10
213.94706169456501
 20
126.0830073963908
 30
0.0
 11
212.89706169456491
 21
126.0830073963908
 31
0.0
  0
LINE
  5
195DC
  8
KI1
 10
230.94706169456501
 20
125.5830073963907
 30
0.0
 11
233.18227252330189
 21
125.5830073963907
 31
0.0
  0
LINE
  5
195DD
  8
KI1
 10
230.94706169456501
 20
124.5830073963907
 30
0.0
 11
230.94706169456501
 21
125.5830073963907
 31
0.0
  0
LINE
  5
195DE
  8
KI1
 10
229.94706169456461
 20
125.5830073963907
 30
0.0
 11
229.94706169456461
 21
124.5830073963907
 31
0.0
  0
ARC
  5
195DF
  8
KI1
 10
230.44706169456501
 20
124.5830073963907
 30
0.0
 40
0.4999999999999716
 50
180.0
 51
0.0
  0
ARC
  5
195E1
  8
KI1
 10
224.94706169456501
 20
125.5830073963907
 30
0.0
 40
0.5000000000000993
 50
90.0
 51
180.0
  0
LINE
  5
195E2
  8
KI1
 10
225.6470616945648
 20
124.8830073963905
 30
0.0
 11
226.6970616945641
 21
124.8830073963905
 31
0.0
  0
ARC
  5
195E3
  8
KI1
 10
226.6970616945641
 20
125.38300739639089
 30
0.0
 40
0.5000000000000993
 50
270.0
 51
0.0
  0
LINE
  5
195E4
  8
KI1
 10
227.1970616945637
 20
125.38300739639089
 30
0.0
 11
227.1970616945637
 21
125.5830073963907
 31
0.0
  0
LINE
  5
195E5
  8
KI1
 10
225.99706169456391
 20
126.88300739639089
 30
0.0
 11
225.99706169456391
 21
126.0830073963908
 31
0.0
  0
LINE
  5
195E6
  8
KI1
 10
225.99706169456391
 20
126.0830073963908
 30
0.0
 11
224.94706169456501
 21
126.0830073963908
 31
0.0
  0
LINE
  5
195E7
  8
KI1
 10
225.99706169456391
 20
126.88300739639089
 30
0.0
 11
233.44706169456509
 21
126.88300739639089
 31
0.0
  0
LINE
  5
195E8
  8
KI1
 10
227.1970616945637
 20
125.5830073963907
 30
0.0
 11
229.94706169456461
 21
125.5830073963907
 31
0.0
  0
LINE
  5
195E9
  8
KI1
 10
224.44706169456501
 20
114.18300739639071
 30
0.0
 11
224.44706169456501
 21
119.98321446736151
 31
0.0
  0
LINE
  5
195EA
  8
KI1
 10
214.44706169456501
 20
114.18300739639071
 30
0.0
 11
214.44706169456501
 21
119.98321446736151
 31
0.0
  0
LINE
  5
195EB
  8
KI1
 10
213.24706169456471
 20
112.98300739639041
 30
0.0
 11
213.24706169456471
 21
124.8830073963905
 31
0.0
  0
LINE
  5
195ED
  8
KI1
 10
225.6470616945648
 20
112.98300739639041
 30
0.0
 11
225.6470616945648
 21
124.8830073963905
 31
0.0
  0
LINE
  5
195EE
  8
KI1
 10
219.90531926406081
 20
114.18300739639071
 30
0.0
 11
224.44706169456501
 21
114.18300739639071
 31
0.0
  0
LINE
  5
195EF
  8
KI1
 10
214.0470616945654
 20
112.98300739639041
 30
0.0
 11
224.84706169456601
 21
112.98300739639041
 31
0.0
  0
ARC
  5
195F0
  8
KI1
 10
219.44706169456461
 20
114.3830073963905
 30
0.0
 40
0.4999999999992742
 50
203.57817847820709
 51
336.42182152183892
  0
ARC
  5
195F1
  8
KI1
 10
213.6470616945648
 20
112.98300739639041
 30
0.0
 40
0.3999999999998492
 50
180.0
 51
0.0
  0
LINE
  5
195F2
  8
KI1
 10
214.44706169456501
 20
114.18300739639071
 30
0.0
 11
218.98880412506969
 21
114.18300739639071
 31
0.0
  0
ARC
  5
195F3
  8
KI1
 10
225.24706169456479
 20
112.98300739639041
 30
0.0
 40
0.39999999999921
 50
180.0
 51
0.0
  0
ARC
  5
195F4
  8
KI1
 10
214.34706170251681
 20
120.4731124175419
 30
0.0
 40
0.5000000000002347
 50
281.53695810277611
 51
0.0102186204097569
  0
LINE
  5
195F5
  8
KI1
 10
214.44706169456501
 20
121.1730073963909
 30
0.0
 11
214.8470616945647
 21
120.47320159182669
 31
0.0
  0
LINE
  5
195F6
  8
KI1
 10
214.44706169456501
 20
121.1730073963909
 30
0.0
 11
214.44706169456501
 21
125.5830073963907
 31
0.0
  0
ARC
  5
195F7
  8
KI1
 10
224.5470616866119
 20
120.4731124175419
 30
0.0
 40
0.5000000000001135
 50
179.9897813795902
 51
258.46304189731683
  0
LINE
  5
195F8
  8
KI1
 10
224.04706169456401
 20
120.47320159182669
 30
0.0
 11
224.44706169456501
 21
121.1730073963909
 31
0.0
  0
LINE
  5
195F9
  8
KI1
 10
224.44706169456501
 20
121.1730073963909
 30
0.0
 11
224.44706169456501
 21
125.5830073963907
 31
0.0
  0
LINE
  5
195FA
  8
KI1
 10
178.04706169456489
 20
112.98300739639041
 30
0.0
 11
188.84706169456601
 21
112.98300739639041
 31
0.0
  0
LINE
  5
195FB
  8
KI1
 10
178.44706169456501
 20
114.18300739639071
 30
0.0
 11
182.98880412506969
 21
114.18300739639071
 31
0.0
  0
LINE
  5
195FC
  8
KI1
 10
178.44706169456501
 20
114.18300739639071
 30
0.0
 11
178.4470616945637
 21
119.98321446736151
 31
0.0
  0
LINE
  5
195FE
  8
KI1
 10
177.24706169456471
 20
112.98300739639041
 30
0.0
 11
177.24706169456471
 21
124.8830073963905
 31
0.0
  0
ARC
  5
195FF
  8
KI1
 10
177.6470616945648
 20
112.98300739639041
 30
0.0
 40
0.3999999999998492
 50
180.0
 51
0.0
  0
ARC
  5
19600
  8
KI1
 10
178.34706170251681
 20
120.4731124175419
 30
0.0
 40
0.500000000000056
 50
281.53695810268317
 51
0.0102186204097569
  0
LINE
  5
19601
  8
KI1
 10
178.4470616945637
 20
121.1730073963909
 30
0.0
 11
178.84706169456459
 21
120.47320159182669
 31
0.0
  0
LINE
  5
19602
  8
KI1
 10
178.4470616945637
 20
121.1730073963909
 30
0.0
 11
178.44706169456501
 21
125.5830073963907
 31
0.0
  0
LINE
  5
19603
  8
KI1
 10
188.44706169456501
 20
114.18300739639071
 30
0.0
 11
188.44706169456501
 21
119.98321446736151
 31
0.0
  0
LINE
  5
19604
  8
KI1
 10
189.6470616945648
 20
112.98300739639041
 30
0.0
 11
189.6470616945648
 21
124.8830073963905
 31
0.0
  0
LINE
  5
19605
  8
KI1
 10
183.90531926406081
 20
114.18300739639071
 30
0.0
 11
188.44706169456501
 21
114.18300739639071
 31
0.0
  0
ARC
  5
19606
  8
KI1
 10
183.44706169456461
 20
114.3830073963905
 30
0.0
 40
0.4999999999992742
 50
203.57817847820709
 51
336.42182152183892
  0
ARC
  5
19607
  8
KI1
 10
189.24706169456471
 20
112.98300739639041
 30
0.0
 40
0.39999999999921
 50
180.0
 51
0.0
  0
ARC
  5
19608
  8
KI1
 10
188.5470616866119
 20
120.4731124175419
 30
0.0
 40
0.5000000000001135
 50
179.9897813795902
 51
258.46304189731683
  0
LINE
  5
19609
  8
KI1
 10
188.04706169456401
 20
120.47320159182669
 30
0.0
 11
188.44706169456501
 21
121.1730073963909
 31
0.0
  0
LINE
  5
1960A
  8
KI1
 10
188.44706169456501
 20
121.1730073963909
 30
0.0
 11
188.44706169456501
 21
125.5830073963907
 31
0.0
  0
LINE
  5
1960C
  8
KI1
 10
236.24109605271411
 20
124.2830073963906
 30
0.0
 11
237.44706169456461
 21
124.2830073963906
 31
0.0
  0
LINE
  5
1960D
  8
KI1
 10
233.44706169456509
 20
126.88300739639089
 30
0.0
 11
237.44706169456461
 21
125.18300739639059
 31
0.0
  0
LINE
  5
1960E
  8
KI1
 10
272.44704169463921
 20
131.28300748772091
 30
0.0
 11
239.4470416947083
 21
131.28300748772091
 31
0.0
  0
LINE
  5
1960F
  8
KI1
 10
272.44704169470828
 20
244.28300748772091
 30
0.0
 11
272.44704169470828
 21
131.28300748772091
 31
0.0
  0
LINE
  5
19610
  8
KI1
 10
239.4470416947083
 20
244.28300748772091
 30
0.0
 11
239.4470416947083
 21
131.28300748772091
 31
0.0
  0
LINE
  5
19611
  8
KI1
 10
308.44704169463921
 20
131.28300748772091
 30
0.0
 11
275.44704169470828
 21
131.28300748772091
 31
0.0
  0
LINE
  5
19612
  8
KI1
 10
308.44704169470839
 20
244.28300748772091
 30
0.0
 11
308.44704169470839
 21
131.28300748772091
 31
0.0
  0
LINE
  5
19613
  8
KI1
 10
275.44704169470828
 20
244.28300748772091
 30
0.0
 11
275.44704169470828
 21
131.28300748772091
 31
0.0
  0
LINE
  5
19616
  8
KI2
 10
258.94704169464012
 20
126.0711938844105
 30
0.0
 11
256.44704169464012
 21
124.5711938844105
 31
0.0
  0
LINE
  5
19617
  8
KI2
 10
258.94704169464012
 20
129.78300748772091
 30
0.0
 11
258.94704169464012
 21
126.0711938844105
 31
0.0
  0
LINE
  5
19618
  8
KI2
 10
254.44704169464009
 20
123.0711938844105
 30
0.0
 11
255.44704169464009
 21
123.0711938844105
 31
0.0
  0
LINE
  5
19619
  8
KI2
 10
256.44704169464012
 20
123.0711938844105
 30
0.0
 11
255.44704169464009
 21
123.0711938844105
 31
0.0
  0
LINE
  5
1961A
  8
KI2
 10
251.94704169464009
 20
126.0711938844105
 30
0.0
 11
254.44704169464009
 21
124.5711938844105
 31
0.0
  0
LINE
  5
1961B
  8
KI2
 10
251.94704169464009
 20
129.78300748772091
 30
0.0
 11
251.94704169464009
 21
126.0711938844105
 31
0.0
  0
LINE
  5
1961C
  8
KI2
 10
254.44704169464009
 20
129.78300748772091
 30
0.0
 11
254.44704169464009
 21
123.0711938844105
 31
0.0
  0
LINE
  5
1961D
  8
KI2
 10
256.44704169464012
 20
129.78300748772091
 30
0.0
 11
256.44704169464012
 21
123.0711938844105
 31
0.0
  0
LINE
  5
1961E
  8
KI2
 10
270.94704169463921
 20
129.78300748772091
 30
0.0
 11
240.94704169463921
 21
129.78300748772099
 31
0.0
  0
ARC
  5
19620
  8
KI2
 10
270.94704169463921
 20
131.28300748772091
 30
0.0
 40
1.5
 50
270.0
 51
0.000000000000007
  0
ARC
  5
19621
  8
KI2
 10
240.94704169463921
 20
131.28300748772091
 30
0.0
 40
1.5
 50
180.0
 51
270.0
  0
LINE
  5
19622
  8
KI2
 10
294.94704169464012
 20
126.0711938844105
 30
0.0
 11
292.44704169464012
 21
124.5711938844105
 31
0.0
  0
LINE
  5
19623
  8
KI2
 10
294.94704169464012
 20
129.78300748772091
 30
0.0
 11
294.94704169464012
 21
126.0711938844105
 31
0.0
  0
LINE
  5
19624
  8
KI2
 10
290.44704169464012
 20
123.0711938844105
 30
0.0
 11
291.44704169464012
 21
123.0711938844105
 31
0.0
  0
LINE
  5
19625
  8
KI2
 10
292.44704169464012
 20
123.0711938844105
 30
0.0
 11
291.44704169464012
 21
123.0711938844105
 31
0.0
  0
LINE
  5
19626
  8
KI2
 10
287.94704169464012
 20
126.0711938844105
 30
0.0
 11
290.44704169464012
 21
124.5711938844105
 31
0.0
  0
LINE
  5
19627
  8
KI2
 10
287.94704169464012
 20
129.78300748772091
 30
0.0
 11
287.94704169464012
 21
126.0711938844105
 31
0.0
  0
LINE
  5
19628
  8
KI2
 10
290.44704169464012
 20
129.78300748772091
 30
0.0
 11
290.44704169464012
 21
123.0711938844105
 31
0.0
  0
LINE
  5
19629
  8
KI2
 10
292.44704169464012
 20
129.78300748772091
 30
0.0
 11
292.44704169464012
 21
123.0711938844105
 31
0.0
  0
LINE
  5
1962A
  8
KI2
 10
306.94704169463921
 20
129.78300748772091
 30
0.0
 11
276.94704169463921
 21
129.78300748772099
 31
0.0
  0
ARC
  5
1962C
  8
KI2
 10
306.94704169463921
 20
131.28300748772091
 30
0.0
 40
1.5
 50
270.0
 51
0.000000000000007
  0
ARC
  5
1962D
  8
KI2
 10
276.94704169463921
 20
131.28300748772091
 30
0.0
 40
1.5
 50
180.0
 51
270.0
  0
LINE
  5
1962E
  8
KI2
 10
296.04702169470988
 20
126.0830073963906
 30
0.0
 11
295.04702169470988
 21
126.0830073963906
 31
0.0
  0
LINE
  5
1962F
  8
KI2
 10
294.94702169470997
 20
118.9830073963907
 30
0.0
 11
296.04702169470988
 21
122.0230073963907
 31
0.0
  0
LINE
  5
19630
  8
KI2
 10
295.64702169471002
 20
116.0830073963906
 30
0.0
 11
294.94702169470997
 21
116.0830073963906
 31
0.0
  0
LINE
  5
19631
  8
KI2
 10
294.94702169470997
 20
117.5830073963906
 30
0.0
 11
295.54702169470988
 21
116.8830073963906
 31
0.0
  0
ARC
  5
19632
  8
KI2
 10
296.04702169470988
 20
125.7830073963907
 30
0.0
 40
0.3
 50
0.000000000000007
 51
90.0
  0
LINE
  5
19633
  8
KI2
 10
296.34702169470989
 20
122.3830073963906
 30
0.0
 11
296.04702169470988
 21
122.0230073963907
 31
0.0
  0
LINE
  5
19634
  8
KI2
 10
296.14702169471002
 20
116.8830073963906
 30
0.0
 11
296.14702169471002
 21
116.5830073963906
 31
0.0
  0
ARC
  5
19635
  8
KI2
 10
295.64702169471002
 20
116.5830073963906
 30
0.0
 40
0.5
 50
270.0
 51
0.000000000000007
  0
LINE
  5
19636
  8
KI2
 10
296.14702169471002
 20
116.8830073963906
 30
0.0
 11
295.54702169470988
 21
116.8830073963906
 31
0.0
  0
LINE
  5
19637
  8
KI2
 10
296.34702169470989
 20
125.7830073963907
 30
0.0
 11
296.34702169470989
 21
122.3830073963906
 31
0.0
  0
ARC
  5
19638
  8
KI2
 10
286.84702169470978
 20
125.7830073963907
 30
0.0
 40
0.3
 50
90.0
 51
180.0
  0
ARC
  5
19639
  8
KI2
 10
289.04702169470988
 20
124.6844656521782
 30
0.0
 40
0.3
 50
0.000000000000007
 51
49.99999999999666
  0
LINE
  5
1963A
  8
KI2
 10
289.23985797761588
 20
124.9142789851139
 30
0.0
 11
287.84702169470978
 21
126.0830073963906
 31
0.0
  0
LINE
  5
1963B
  8
KI2
 10
286.84702169470978
 20
126.0830073963906
 30
0.0
 11
287.84702169470978
 21
126.0830073963906
 31
0.0
  0
LINE
  5
1963C
  8
KI2
 10
286.54702169470988
 20
122.3830073963906
 30
0.0
 11
286.84702169470978
 21
122.0230073963907
 31
0.0
  0
ARC
  5
1963D
  8
KI2
 10
289.24702169470987
 20
122.3330073963907
 30
0.0
 40
0.75
 50
90.0
 51
270.0
  0
LINE
  5
1963E
  8
KI2
 10
289.29545613097252
 20
121.2830073963907
 30
0.0
 11
289.29545613097252
 21
121.5830073963907
 31
0.0
  0
LINE
  5
1963F
  8
KI2
 10
289.29545613097252
 20
121.5830073963907
 30
0.0
 11
289.24702169470987
 21
121.5830073963907
 31
0.0
  0
LINE
  5
19640
  8
KI2
 10
289.24702169470987
 20
123.0830073963907
 30
0.0
 11
289.34702169470978
 21
123.0830073963907
 31
0.0
  0
LINE
  5
19641
  8
KI2
 10
287.94702169470997
 20
118.9830073963907
 30
0.0
 11
287.94702169470997
 21
117.5830073963906
 31
0.0
  0
POINT
  5
19642
  8
KI2
 10
287.94702169470997
 20
118.46891912357501
 30
0.0
 50
180.0
  0
LINE
  5
19643
  8
KI2
 10
287.94702169470997
 20
118.9830073963907
 30
0.0
 11
286.84702169470978
 21
122.0230073963907
 31
0.0
  0
ARC
  5
19644
  8
KI2
 10
289.79545613097252
 20
121.2830073963907
 30
0.0
 40
0.5
 50
180.0
 51
270.0
  0
LINE
  5
19645
  8
KI2
 10
286.74702169470987
 20
116.8830073963906
 30
0.0
 11
286.74702169470987
 21
116.5830073963906
 31
0.0
  0
LINE
  5
19646
  8
KI2
 10
287.24702169470987
 20
116.0830073963906
 30
0.0
 11
287.94702169470997
 21
116.0830073963906
 31
0.0
  0
LINE
  5
19647
  8
KI2
 10
288.24702169470987
 20
116.3830073963906
 30
0.0
 11
287.94702169470997
 21
116.0830073963906
 31
0.0
  0
LINE
  5
19648
  8
KI2
 10
290.69702169470997
 20
117.0830073963906
 30
0.0
 11
290.19702169470997
 21
116.3830073963906
 31
0.0
  0
LINE
  5
19649
  8
KI2
 10
288.24702169470987
 20
116.3830073963906
 30
0.0
 11
290.19702169470997
 21
116.3830073963906
 31
0.0
  0
ARC
  5
1964A
  8
KI2
 10
287.24702169470987
 20
116.5830073963906
 30
0.0
 40
0.5
 50
180.0
 51
270.0
  0
LINE
  5
1964B
  8
KI2
 10
286.74702169470987
 20
116.8830073963906
 30
0.0
 11
287.34702169470978
 21
116.8830073963906
 31
0.0
  0
LINE
  5
1964C
  8
KI2
 10
287.94702169470997
 20
117.5830073963906
 30
0.0
 11
287.34702169470978
 21
116.8830073963906
 31
0.0
  0
LINE
  5
1964D
  8
KI2
 10
286.54702169470988
 20
125.7830073963907
 30
0.0
 11
286.54702169470988
 21
122.3830073963906
 31
0.0
  0
LINE
  5
1964E
  8
KI2
 10
289.34702169470978
 20
124.6844656521782
 30
0.0
 11
289.34702169470978
 21
123.0830073963907
 31
0.0
  0
ARC
  5
1964F
  8
KI2
 10
293.84702169470989
 20
124.6844656521782
 30
0.0
 40
0.3
 50
130.0000000000033
 51
180.0
  0
LINE
  5
19650
  8
KI2
 10
293.65418541180412
 20
124.9142789851139
 30
0.0
 11
295.04702169471011
 21
126.0830073963906
 31
0.0
  0
ARC
  5
19651
  8
KI2
 10
293.64702169471002
 20
122.3330073963907
 30
0.0
 40
0.75
 50
270.0
 51
90.0
  0
LINE
  5
19652
  8
KI2
 10
293.5985872584472
 20
121.2830073963907
 30
0.0
 11
293.5985872584472
 21
121.5830073963907
 31
0.0
  0
LINE
  5
19653
  8
KI2
 10
293.5985872584472
 20
121.5830073963907
 30
0.0
 11
293.64702169471002
 21
121.5830073963907
 31
0.0
  0
LINE
  5
19654
  8
KI2
 10
293.64702169471002
 20
123.0830073963907
 30
0.0
 11
293.54702169470988
 21
123.0830073963907
 31
0.0
  0
ARC
  5
19655
  8
KI2
 10
291.44702169470997
 20
120.7830073963907
 30
0.0
 40
0.3
 50
180.0
 51
270.0
  0
LINE
  5
19656
  8
KI2
 10
294.94702169470997
 20
118.9830073963907
 30
0.0
 11
294.94702169470997
 21
117.5830073963906
 31
0.0
  0
LINE
  5
19657
  8
KI2
 10
293.0985872584472
 20
120.7830073963907
 30
0.0
 11
291.74702169470987
 21
120.7830073963907
 31
0.0
  0
POINT
  5
19658
  8
KI2
 10
294.94702169470997
 20
118.46891912357501
 30
0.0
 50
180.0
  0
ARC
  5
19659
  8
KI2
 10
291.44702169470997
 20
120.7830073963907
 30
0.0
 40
0.3
 50
270.0
 51
0.000000000000007
  0
ARC
  5
1965A
  8
KI2
 10
293.0985872584472
 20
121.2830073963907
 30
0.0
 40
0.5
 50
270.0
 51
0.000000000000007
  0
LINE
  5
1965B
  8
KI2
 10
294.64702169471002
 20
116.3830073963906
 30
0.0
 11
292.69702169470997
 21
116.3830073963906
 31
0.0
  0
LINE
  5
1965C
  8
KI2
 10
294.64702169471002
 20
116.3830073963906
 30
0.0
 11
294.94702169470997
 21
116.0830073963906
 31
0.0
  0
LINE
  5
1965D
  8
KI2
 10
292.19702169470997
 20
117.0830073963906
 30
0.0
 11
292.69702169470997
 21
116.3830073963906
 31
0.0
  0
LINE
  5
1965E
  8
KI2
 10
291.74702169470987
 20
117.0830073963906
 30
0.0
 11
292.19702169470997
 21
117.0830073963906
 31
0.0
  0
ARC
  5
1965F
  8
KI2
 10
291.44702169470997
 20
117.0830073963906
 30
0.0
 40
0.3
 50
90.0
 51
180.0
  0
ARC
  5
19660
  8
KI2
 10
291.44702169470997
 20
117.0830073963906
 30
0.0
 40
0.3
 50
0.000000000000007
 51
90.0
  0
LINE
  5
19661
  8
KI2
 10
293.54702169470988
 20
124.6844656521782
 30
0.0
 11
293.54702169470988
 21
123.0830073963907
 31
0.0
  0
LINE
  5
19662
  8
KI2
 10
291.14702169471002
 20
117.0830073963906
 30
0.0
 11
290.69702169470997
 21
117.0830073963906
 31
0.0
  0
LINE
  5
19663
  8
KI2
 10
289.79545613097252
 20
120.7830073963907
 30
0.0
 11
291.14702169471002
 21
120.7830073963907
 31
0.0
  0
LINE
  5
19664
  8
KI2
 10
260.04702169470988
 20
126.0830073963906
 30
0.0
 11
259.04702169470988
 21
126.0830073963906
 31
0.0
  0
LINE
  5
19665
  8
KI2
 10
258.94702169470997
 20
118.9830073963907
 30
0.0
 11
260.04702169470988
 21
122.0230073963907
 31
0.0
  0
LINE
  5
19666
  8
KI2
 10
259.64702169471002
 20
116.0830073963906
 30
0.0
 11
258.94702169470997
 21
116.0830073963906
 31
0.0
  0
LINE
  5
19667
  8
KI2
 10
258.94702169470997
 20
117.5830073963906
 30
0.0
 11
259.54702169470988
 21
116.8830073963906
 31
0.0
  0
ARC
  5
19668
  8
KI2
 10
260.04702169470988
 20
125.7830073963907
 30
0.0
 40
0.3
 50
0.000000000000007
 51
90.0
  0
LINE
  5
19669
  8
KI2
 10
260.34702169470978
 20
122.3830073963906
 30
0.0
 11
260.04702169470988
 21
122.0230073963907
 31
0.0
  0
LINE
  5
1966A
  8
KI2
 10
260.14702169471002
 20
116.8830073963906
 30
0.0
 11
260.14702169471002
 21
116.5830073963906
 31
0.0
  0
ARC
  5
1966B
  8
KI2
 10
259.64702169471002
 20
116.5830073963906
 30
0.0
 40
0.5
 50
270.0
 51
0.000000000000007
  0
LINE
  5
1966C
  8
KI2
 10
260.14702169471002
 20
116.8830073963906
 30
0.0
 11
259.54702169470988
 21
116.8830073963906
 31
0.0
  0
LINE
  5
1966D
  8
KI2
 10
260.34702169470978
 20
125.7830073963907
 30
0.0
 11
260.34702169470978
 21
122.3830073963906
 31
0.0
  0
ARC
  5
1966E
  8
KI2
 10
250.84702169470981
 20
125.7830073963907
 30
0.0
 40
0.3
 50
90.0
 51
180.0
  0
ARC
  5
1966F
  8
KI2
 10
253.04702169470991
 20
124.6844656521782
 30
0.0
 40
0.3
 50
0.000000000000007
 51
49.99999999999666
  0
LINE
  5
19670
  8
KI2
 10
253.23985797761591
 20
124.9142789851139
 30
0.0
 11
251.84702169470981
 21
126.0830073963906
 31
0.0
  0
LINE
  5
19671
  8
KI2
 10
250.84702169470981
 20
126.0830073963906
 30
0.0
 11
251.84702169470981
 21
126.0830073963906
 31
0.0
  0
LINE
  5
19672
  8
KI2
 10
250.54702169470991
 20
122.3830073963906
 30
0.0
 11
250.84702169470981
 21
122.0230073963907
 31
0.0
  0
ARC
  5
19673
  8
KI2
 10
253.2470216947099
 20
122.3330073963907
 30
0.0
 40
0.75
 50
90.0
 51
270.0
  0
LINE
  5
19674
  8
KI2
 10
253.2954561309725
 20
121.2830073963907
 30
0.0
 11
253.2954561309725
 21
121.5830073963907
 31
0.0
  0
LINE
  5
19675
  8
KI2
 10
253.2954561309725
 20
121.5830073963907
 30
0.0
 11
253.2470216947099
 21
121.5830073963907
 31
0.0
  0
LINE
  5
19676
  8
KI2
 10
253.2470216947099
 20
123.0830073963907
 30
0.0
 11
253.34702169470981
 21
123.0830073963907
 31
0.0
  0
LINE
  5
19677
  8
KI2
 10
251.94702169471
 20
118.9830073963907
 30
0.0
 11
251.94702169471
 21
117.5830073963906
 31
0.0
  0
POINT
  5
19678
  8
KI2
 10
251.94702169471
 20
118.46891912357501
 30
0.0
 50
180.0
  0
LINE
  5
19679
  8
KI2
 10
251.94702169471
 20
118.9830073963907
 30
0.0
 11
250.84702169470981
 21
122.0230073963907
 31
0.0
  0
ARC
  5
1967A
  8
KI2
 10
253.7954561309725
 20
121.2830073963907
 30
0.0
 40
0.5
 50
180.0
 51
270.0
  0
LINE
  5
1967B
  8
KI2
 10
250.7470216947099
 20
116.8830073963906
 30
0.0
 11
250.7470216947099
 21
116.5830073963906
 31
0.0
  0
LINE
  5
1967C
  8
KI2
 10
251.2470216947099
 20
116.0830073963906
 30
0.0
 11
251.94702169471
 21
116.0830073963906
 31
0.0
  0
LINE
  5
1967D
  8
KI2
 10
252.2470216947099
 20
116.3830073963906
 30
0.0
 11
251.94702169471
 21
116.0830073963906
 31
0.0
  0
LINE
  5
1967E
  8
KI2
 10
254.69702169471
 20
117.0830073963906
 30
0.0
 11
254.19702169471
 21
116.3830073963906
 31
0.0
  0
LINE
  5
1967F
  8
KI2
 10
252.2470216947099
 20
116.3830073963906
 30
0.0
 11
254.19702169471
 21
116.3830073963906
 31
0.0
  0
ARC
  5
19680
  8
KI2
 10
251.2470216947099
 20
116.5830073963906
 30
0.0
 40
0.5
 50
180.0
 51
270.0
  0
LINE
  5
19681
  8
KI2
 10
250.7470216947099
 20
116.8830073963906
 30
0.0
 11
251.34702169470981
 21
116.8830073963906
 31
0.0
  0
LINE
  5
19682
  8
KI2
 10
251.94702169471
 20
117.5830073963906
 30
0.0
 11
251.34702169470981
 21
116.8830073963906
 31
0.0
  0
LINE
  5
19683
  8
KI2
 10
250.54702169470991
 20
125.7830073963907
 30
0.0
 11
250.54702169470991
 21
122.3830073963906
 31
0.0
  0
LINE
  5
19684
  8
KI2
 10
253.34702169470981
 20
124.6844656521782
 30
0.0
 11
253.34702169470981
 21
123.0830073963907
 31
0.0
  0
ARC
  5
19685
  8
KI2
 10
257.84702169470978
 20
124.6844656521782
 30
0.0
 40
0.3
 50
130.0000000000033
 51
180.0
  0
LINE
  5
19686
  8
KI2
 10
257.65418541180401
 20
124.9142789851139
 30
0.0
 11
259.04702169471011
 21
126.0830073963906
 31
0.0
  0
ARC
  5
19687
  8
KI2
 10
257.64702169471002
 20
122.3330073963907
 30
0.0
 40
0.75
 50
270.0
 51
90.0
  0
LINE
  5
19688
  8
KI2
 10
257.5985872584472
 20
121.2830073963907
 30
0.0
 11
257.5985872584472
 21
121.5830073963907
 31
0.0
  0
LINE
  5
19689
  8
KI2
 10
257.5985872584472
 20
121.5830073963907
 30
0.0
 11
257.64702169471002
 21
121.5830073963907
 31
0.0
  0
LINE
  5
1968A
  8
KI2
 10
257.64702169471002
 20
123.0830073963907
 30
0.0
 11
257.54702169470988
 21
123.0830073963907
 31
0.0
  0
ARC
  5
1968B
  8
KI2
 10
255.44702169471
 20
120.7830073963907
 30
0.0
 40
0.3
 50
180.0
 51
270.0
  0
LINE
  5
1968C
  8
KI2
 10
258.94702169470997
 20
118.9830073963907
 30
0.0
 11
258.94702169470997
 21
117.5830073963906
 31
0.0
  0
LINE
  5
1968D
  8
KI2
 10
257.0985872584472
 20
120.7830073963907
 30
0.0
 11
255.7470216947099
 21
120.7830073963907
 31
0.0
  0
POINT
  5
1968E
  8
KI2
 10
258.94702169470997
 20
118.46891912357501
 30
0.0
 50
180.0
  0
ARC
  5
1968F
  8
KI2
 10
255.44702169471
 20
120.7830073963907
 30
0.0
 40
0.3
 50
270.0
 51
0.000000000000007
  0
ARC
  5
19690
  8
KI2
 10
257.0985872584472
 20
121.2830073963907
 30
0.0
 40
0.5
 50
270.0
 51
0.000000000000007
  0
LINE
  5
19691
  8
KI2
 10
258.64702169471002
 20
116.3830073963906
 30
0.0
 11
256.69702169470997
 21
116.3830073963906
 31
0.0
  0
LINE
  5
19692
  8
KI2
 10
258.64702169471002
 20
116.3830073963906
 30
0.0
 11
258.94702169470997
 21
116.0830073963906
 31
0.0
  0
LINE
  5
19693
  8
KI2
 10
256.19702169470997
 20
117.0830073963906
 30
0.0
 11
256.69702169470997
 21
116.3830073963906
 31
0.0
  0
LINE
  5
19694
  8
KI2
 10
255.7470216947099
 20
117.0830073963906
 30
0.0
 11
256.19702169470997
 21
117.0830073963906
 31
0.0
  0
ARC
  5
19695
  8
KI2
 10
255.44702169471
 20
117.0830073963906
 30
0.0
 40
0.3
 50
90.0
 51
180.0
  0
ARC
  5
19696
  8
KI2
 10
255.44702169471
 20
117.0830073963906
 30
0.0
 40
0.3
 50
0.000000000000007
 51
90.0
  0
LINE
  5
19697
  8
KI2
 10
257.54702169470988
 20
124.6844656521782
 30
0.0
 11
257.54702169470988
 21
123.0830073963907
 31
0.0
  0
LINE
  5
19698
  8
KI2
 10
255.14702169470999
 20
117.0830073963906
 30
0.0
 11
254.69702169471
 21
117.0830073963906
 31
0.0
  0
LINE
  5
19699
  8
KI2
 10
253.7954561309725
 20
120.7830073963907
 30
0.0
 11
255.14702169470999
 21
120.7830073963907
 31
0.0
  0
LINE
  5
1969A
  8
KI1
 10
284.89702169471138
 20
126.88300739639089
 30
0.0
 11
261.99702169471038
 21
126.88300739639089
 31
0.0
  0
LINE
  5
1969B
  8
KI1
 10
283.69702169471162
 20
125.5830073963907
 30
0.0
 11
263.1970216947102
 21
125.5830073963907
 31
0.0
  0
LINE
  5
1969C
  8
KI1
 10
309.44702169471071
 20
125.18300739639059
 30
0.0
 11
305.4470216947102
 21
126.88300739639089
 31
0.0
  0
LINE
  5
1969D
  8
KI1
 10
305.18223252344842
 20
125.5830073963907
 30
0.0
 11
308.24105605285831
 21
124.2830073963906
 31
0.0
  0
LINE
  5
1969E
  8
KI1
 10
309.44702169471071
 20
124.2830073963906
 30
0.0
 11
309.44702169471071
 21
125.18300739639059
 31
0.0
  0
LINE
  5
1969F
  8
KI1
 10
309.44702169471071
 20
124.2830073963906
 30
0.0
 11
308.24105605285831
 21
124.2830073963906
 31
0.0
  0
LINE
  5
196A0
  8
KI1
 10
301.94702169470929
 20
125.5830073963907
 30
0.0
 11
299.1970216947102
 21
125.5830073963907
 31
0.0
  0
ARC
  5
196A1
  8
KI1
 10
302.44702169470929
 20
124.5830073963907
 30
0.0
 40
0.5000000000000142
 50
180.0
 51
0.000000000000007
  0
LINE
  5
196A2
  8
KI1
 10
302.94702169470929
 20
124.5830073963907
 30
0.0
 11
302.9470216947102
 21
125.5830073963907
 31
0.0
  0
LINE
  5
196A3
  8
KI1
 10
301.94702169470929
 20
125.5830073963907
 30
0.0
 11
301.94702169470929
 21
124.5830073963907
 31
0.0
  0
ARC
  5
196A4
  8
KI1
 10
296.9470216947102
 20
125.5830073963907
 30
0.0
 40
0.5000000000000142
 50
90.0
 51
180.0
  0
ARC
  5
196A5
  8
KI1
 10
298.6970216947102
 20
125.38300739639089
 30
0.0
 40
0.5000000000000142
 50
270.0
 51
0.000000000000007
  0
LINE
  5
196A6
  8
KI1
 10
299.1970216947102
 20
125.5830073963907
 30
0.0
 11
299.1970216947102
 21
125.38300739639089
 31
0.0
  0
LINE
  5
196A7
  8
KI1
 10
298.6970216947102
 20
124.8830073963905
 30
0.0
 11
297.64702169471047
 21
124.8830073963905
 31
0.0
  0
LINE
  5
196A8
  8
KI1
 10
297.99702169471038
 20
126.0830073963908
 30
0.0
 11
297.99702169471038
 21
126.88300739639089
 31
0.0
  0
LINE
  5
196A9
  8
KI1
 10
296.9470216947102
 20
126.0830073963908
 30
0.0
 11
297.99702169471038
 21
126.0830073963908
 31
0.0
  0
LINE
  5
196AA
  8
KI1
 10
305.4470216947102
 20
126.88300739639089
 30
0.0
 11
297.99702169471038
 21
126.88300739639089
 31
0.0
  0
LINE
  5
196AB
  8
KI1
 10
305.18223252344842
 20
125.5830073963907
 30
0.0
 11
302.9470216947102
 21
125.5830073963907
 31
0.0
  0
ARC
  5
196AC
  8
KI1
 10
285.9470216947102
 20
125.5830073963907
 30
0.0
 40
0.5000000000000993
 50
0.000000000000007
 51
90.0
  0
ARC
  5
196AD
  8
KI1
 10
284.19702169471111
 20
125.38300739639089
 30
0.0
 40
0.5000000000000993
 50
180.0
 51
270.0
  0
LINE
  5
196AE
  8
KI1
 10
285.24702169471038
 20
124.8830073963905
 30
0.0
 11
284.19702169471111
 21
124.8830073963905
 31
0.0
  0
LINE
  5
196AF
  8
KI1
 10
283.69702169471162
 20
125.38300739639089
 30
0.0
 11
283.69702169471162
 21
125.5830073963907
 31
0.0
  0
LINE
  5
196B0
  8
KI1
 10
284.89702169471138
 20
126.88300739639089
 30
0.0
 11
284.89702169471138
 21
126.0830073963908
 31
0.0
  0
LINE
  5
196B1
  8
KI1
 10
284.89702169471138
 20
126.0830073963908
 30
0.0
 11
285.9470216947102
 21
126.0830073963908
 31
0.0
  0
LINE
  5
196B2
  8
KI1
 10
241.71181086597329
 20
125.5830073963907
 30
0.0
 11
238.65298733656121
 21
124.2830073963906
 31
0.0
  0
ARC
  5
196B3
  8
KI1
 10
260.9470216947102
 20
125.5830073963907
 30
0.0
 40
0.5000000000000142
 50
90.0
 51
180.0
  0
ARC
  5
196B4
  8
KI1
 10
262.6970216947102
 20
125.38300739639089
 30
0.0
 40
0.5000000000000142
 50
270.0
 51
0.000000000000007
  0
LINE
  5
196B5
  8
KI1
 10
263.1970216947102
 20
125.5830073963907
 30
0.0
 11
263.1970216947102
 21
125.38300739639089
 31
0.0
  0
LINE
  5
196B6
  8
KI1
 10
262.6970216947102
 20
124.8830073963905
 30
0.0
 11
261.64702169471047
 21
124.8830073963905
 31
0.0
  0
LINE
  5
196B7
  8
KI1
 10
261.99702169471038
 20
126.0830073963908
 30
0.0
 11
261.99702169471038
 21
126.88300739639089
 31
0.0
  0
LINE
  5
196B8
  8
KI1
 10
260.9470216947102
 20
126.0830073963908
 30
0.0
 11
261.99702169471038
 21
126.0830073963908
 31
0.0
  0
LINE
  5
196B9
  8
KI1
 10
243.9470216947102
 20
125.5830073963907
 30
0.0
 11
241.71181086597329
 21
125.5830073963907
 31
0.0
  0
LINE
  5
196BA
  8
KI1
 10
243.9470216947102
 20
124.5830073963907
 30
0.0
 11
243.9470216947102
 21
125.5830073963907
 31
0.0
  0
LINE
  5
196BB
  8
KI1
 10
244.94702169471071
 20
125.5830073963907
 30
0.0
 11
244.94702169471071
 21
124.5830073963907
 31
0.0
  0
ARC
  5
196BC
  8
KI1
 10
244.4470216947102
 20
124.5830073963907
 30
0.0
 40
0.4999999999999716
 50
180.0
 51
0.000000000000007
  0
LINE
  5
196BD
  8
KI1
 10
248.89702169471141
 20
126.88300739639089
 30
0.0
 11
241.4470216947102
 21
126.88300739639089
 31
0.0
  0
ARC
  5
196BE
  8
KI1
 10
249.9470216947102
 20
125.5830073963907
 30
0.0
 40
0.5000000000000993
 50
0.000000000000007
 51
90.0
  0
LINE
  5
196BF
  8
KI1
 10
249.24702169471041
 20
124.8830073963905
 30
0.0
 11
248.19702169471111
 21
124.8830073963905
 31
0.0
  0
ARC
  5
196C0
  8
KI1
 10
248.19702169471111
 20
125.38300739639089
 30
0.0
 40
0.5000000000000993
 50
180.0
 51
270.0
  0
LINE
  5
196C1
  8
KI1
 10
247.69702169471151
 20
125.38300739639089
 30
0.0
 11
247.69702169471151
 21
125.5830073963907
 31
0.0
  0
LINE
  5
196C2
  8
KI1
 10
248.89702169471141
 20
126.88300739639089
 30
0.0
 11
248.89702169471141
 21
126.0830073963908
 31
0.0
  0
LINE
  5
196C3
  8
KI1
 10
248.89702169471141
 20
126.0830073963908
 30
0.0
 11
249.9470216947102
 21
126.0830073963908
 31
0.0
  0
LINE
  5
196C5
  8
KI1
 10
247.69702169471151
 20
125.5830073963907
 30
0.0
 11
244.94702169471071
 21
125.5830073963907
 31
0.0
  0
LINE
  5
196C6
  8
KI1
 10
250.4470216947102
 20
114.18300739639071
 30
0.0
 11
250.4470216947102
 21
119.98321446736151
 31
0.0
  0
LINE
  5
196C7
  8
KI1
 10
260.4470216947102
 20
114.18300739639071
 30
0.0
 11
260.4470216947102
 21
119.98321446736151
 31
0.0
  0
LINE
  5
196C8
  8
KI1
 10
261.64702169471047
 20
112.98300739639041
 30
0.0
 11
261.64702169471047
 21
124.8830073963905
 31
0.0
  0
LINE
  5
196CA
  8
KI1
 10
249.24702169471041
 20
112.98300739639041
 30
0.0
 11
249.24702169471041
 21
124.8830073963905
 31
0.0
  0
LINE
  5
196CB
  8
KI1
 10
254.9887641252144
 20
114.18300739639071
 30
0.0
 11
250.4470216947102
 21
114.18300739639071
 31
0.0
  0
LINE
  5
196CC
  8
KI1
 10
260.84702169470989
 20
112.98300739639041
 30
0.0
 11
250.0470216947092
 21
112.98300739639041
 31
0.0
  0
ARC
  5
196CD
  8
KI1
 10
255.44702169471071
 20
114.3830073963905
 30
0.0
 40
0.4999999999992742
 50
203.5781784781617
 51
336.42182152179322
  0
ARC
  5
196CE
  8
KI1
 10
261.24702169471038
 20
112.98300739639041
 30
0.0
 40
0.3999999999998492
 50
180.0
 51
0.000000000000007
  0
LINE
  5
196CF
  8
KI1
 10
260.4470216947102
 20
114.18300739639071
 30
0.0
 11
255.90527926420549
 21
114.18300739639071
 31
0.0
  0
ARC
  5
196D0
  8
KI1
 10
249.6470216947105
 20
112.98300739639041
 30
0.0
 40
0.39999999999921
 50
180.0
 51
0.000000000000007
  0
ARC
  5
196D1
  8
KI1
 10
260.5470216867584
 20
120.4731124175419
 30
0.0
 40
0.5000000000002347
 50
179.9897813795902
 51
258.46304189722372
  0
LINE
  5
196D2
  8
KI1
 10
260.4470216947102
 20
121.1730073963909
 30
0.0
 11
260.04702169471062
 21
120.47320159182669
 31
0.0
  0
LINE
  5
196D3
  8
KI1
 10
260.4470216947102
 20
121.1730073963909
 30
0.0
 11
260.4470216947102
 21
125.5830073963907
 31
0.0
  0
ARC
  5
196D4
  8
KI1
 10
250.3470217026634
 20
120.4731124175419
 30
0.0
 40
0.5000000000001135
 50
281.53695810268317
 51
0.0102186204097624
  0
LINE
  5
196D5
  8
KI1
 10
250.8470216947112
 20
120.47320159182669
 30
0.0
 11
250.4470216947102
 21
121.1730073963909
 31
0.0
  0
LINE
  5
196D6
  8
KI1
 10
250.4470216947102
 20
121.1730073963909
 30
0.0
 11
250.4470216947102
 21
125.5830073963907
 31
0.0
  0
LINE
  5
196D7
  8
KI1
 10
296.84702169471029
 20
112.98300739639041
 30
0.0
 11
286.0470216947092
 21
112.98300739639041
 31
0.0
  0
LINE
  5
196D8
  8
KI1
 10
296.4470216947102
 20
114.18300739639071
 30
0.0
 11
291.90527926420549
 21
114.18300739639071
 31
0.0
  0
LINE
  5
196D9
  8
KI1
 10
296.4470216947102
 20
114.18300739639071
 30
0.0
 11
296.44702169471162
 21
119.98321446736151
 31
0.0
  0
LINE
  5
196DB
  8
KI1
 10
297.64702169471047
 20
112.98300739639041
 30
0.0
 11
297.64702169471047
 21
124.8830073963905
 31
0.0
  0
ARC
  5
196DC
  8
KI1
 10
297.24702169471038
 20
112.98300739639041
 30
0.0
 40
0.3999999999998492
 50
180.0
 51
0.000000000000007
  0
ARC
  5
196DD
  8
KI1
 10
296.5470216867584
 20
120.4731124175419
 30
0.0
 40
0.500000000000056
 50
179.9897813795902
 51
258.46304189731683
  0
LINE
  5
196DE
  8
KI1
 10
296.44702169471162
 20
121.1730073963909
 30
0.0
 11
296.04702169471062
 21
120.47320159182669
 31
0.0
  0
LINE
  5
196DF
  8
KI1
 10
296.44702169471162
 20
121.1730073963909
 30
0.0
 11
296.4470216947102
 21
125.5830073963907
 31
0.0
  0
LINE
  5
196E0
  8
KI1
 10
286.4470216947102
 20
114.18300739639071
 30
0.0
 11
286.4470216947102
 21
119.98321446736151
 31
0.0
  0
LINE
  5
196E1
  8
KI1
 10
285.24702169471038
 20
112.98300739639041
 30
0.0
 11
285.24702169471038
 21
124.8830073963905
 31
0.0
  0
LINE
  5
196E2
  8
KI1
 10
290.9887641252144
 20
114.18300739639071
 30
0.0
 11
286.4470216947102
 21
114.18300739639071
 31
0.0
  0
ARC
  5
196E3
  8
KI1
 10
291.44702169471071
 20
114.3830073963905
 30
0.0
 40
0.4999999999992742
 50
203.5781784781617
 51
336.42182152179322
  0
ARC
  5
196E4
  8
KI1
 10
285.64702169471047
 20
112.98300739639041
 30
0.0
 40
0.39999999999921
 50
180.0
 51
0.000000000000007
  0
ARC
  5
196E5
  8
KI1
 10
286.34702170266343
 20
120.4731124175419
 30
0.0
 40
0.5000000000001135
 50
281.53695810268317
 51
0.0102186204097624
  0
LINE
  5
196E6
  8
KI1
 10
286.8470216947112
 20
120.47320159182669
 30
0.0
 11
286.4470216947102
 21
121.1730073963909
 31
0.0
  0
LINE
  5
196E7
  8
KI1
 10
286.4470216947102
 20
121.1730073963909
 30
0.0
 11
286.4470216947102
 21
125.5830073963907
 31
0.0
  0
LINE
  5
196E8
  8
KI1
 10
237.44702169471071
 20
125.18300739639059
 30
0.0
 11
237.44702169471071
 21
124.2830073963906
 31
0.0
  0
LINE
  5
196E9
  8
KI1
 10
238.65298733656121
 20
124.2830073963906
 30
0.0
 11
237.44702169471071
 21
124.2830073963906
 31
0.0
  0
LINE
  5
196EA
  8
KI1
 10
241.4470216947102
 20
126.88300739639089
 30
0.0
 11
237.44702169471071
 21
125.18300739639059
 31
0.0
  0
LINE
  5
19719
  8
OS
 10
275.4470416947097
 20
184.28300748772091
 30
0.0
 11
272.4470416947097
 21
184.28300748772091
 31
0.0
  0
LINE
  5
19752
  8
PH
 10
555.56596780949189
 20
403.48474779943621
 30
0.0
 11
705.56596780949121
 21
403.48474779943717
 31
0.0
  0
LINE
  5
19753
  8
PH
 10
705.56596780949121
 20
370.48474779943717
 30
0.0
 11
555.56596780949189
 21
370.48474779943632
 31
0.0
  0
LINE
  5
19754
  8
PH
 10
555.56596780949189
 20
403.4847477994366
 30
0.0
 11
555.56596780949189
 21
370.48474779943672
 31
0.0
  0
LINE
  5
19755
  8
KI2
 10
552.56596780949178
 20
384.88474875116412
 30
0.0
 11
670.56596780949144
 21
384.88474875116412
 31
0.0
  0
LINE
  5
19756
  8
KI2
 10
792.19096780949155
 20
384.88474875116418
 30
0.0
 11
1055.065971806895
 21
384.88474875116441
 31
0.0
  0
LINE
  5
19757
  8
KI2
 10
552.56596780949178
 20
389.08474875116389
 30
0.0
 11
670.56596780949144
 21
389.08474875116389
 31
0.0
  0
LINE
  5
19758
  8
KI2
 10
792.19096780949155
 20
389.08474875116389
 30
0.0
 11
1055.065971806895
 21
389.08474875116389
 31
0.0
  0
LINE
  5
19759
  8
PH
 10
705.56596780949099
 20
403.48474779943717
 30
0.0
 11
705.56596780949121
 21
370.48474779943717
 31
0.0
  0
LINE
  5
1975A
  8
KI1
 10
670.56596780949144
 20
403.484747799437
 30
0.0
 11
792.19096780949155
 21
403.484747799437
 31
0.0
  0
LINE
  5
1975B
  8
KI1
 10
792.19096780949155
 20
403.484747799437
 30
0.0
 11
792.19096780949155
 21
370.48474875116239
 31
0.0
  0
LINE
  5
1975C
  8
KI1
 10
792.19096780949155
 20
370.48474875116239
 30
0.0
 11
670.56596780949144
 21
370.48474875116239
 31
0.0
  0
LINE
  5
1975D
  8
KI1
 10
670.56596780949144
 20
370.48474875116239
 30
0.0
 11
670.56596780949144
 21
403.484747799437
 31
0.0
  0
LINE
  5
19783
  8
KI2
 10
552.56596780949212
 20
324.48474755020243
 30
0.0
 11
843.81596780949155
 21
324.48474755020231
 31
0.0
  0
LINE
  5
19784
  8
KI2
 10
552.56596780949212
 20
396.98474755020231
 30
0.0
 11
670.56596780949144
 21
396.98474755020243
 31
0.0
  0
LINE
  5
19785
  8
KI2
 10
552.56596780949212
 20
340.98474900039707
 30
0.0
 11
757.19096780949155
 21
340.98474900039707
 31
0.0
  0
LINE
  5
19787
  8
KI2
 10
792.19096780949155
 20
396.98474755020231
 30
0.0
 11
1055.065971806895
 21
396.98474755020231
 31
0.0
  0
LINE
  5
19788
  8
KI2
 10
965.44096780949155
 20
324.48474755020243
 30
0.0
 11
1055.065971806895
 21
324.48474755020243
 31
0.0
  0
LINE
  5
197C2
  8
KI2
 10
878.81596780949155
 20
340.98474900039707
 30
0.0
 11
1055.065971806895
 21
340.98474900039707
 31
0.0
  0
LINE
  5
19AD5
  8
OS
 10
307.94704264629632
 20
748.60574394563082
 30
0.0
 11
307.94704264629632
 21
673.60574394563082
 31
0.0
  0
LINE
  5
19AD6
  8
OS
 10
202.9470426462963
 20
748.60574394563082
 30
0.0
 11
202.9470426462963
 21
673.60574394563082
 31
0.0
  0
LINE
  5
19AD7
  8
OS
 10
157.94715840269461
 20
718.60574394563082
 30
0.0
 11
157.94715840269461
 21
673.60574394563082
 31
0.0
  0
LINE
  5
19AD8
  8
OS
 10
157.94715840269461
 20
718.60574394563082
 30
0.0
 11
202.9470426462963
 21
718.60574394563082
 31
0.0
  0
LINE
  5
19AD9
  8
OS
 10
157.94715840269461
 20
673.60574394563082
 30
0.0
 11
202.9470426462963
 21
718.60574394563082
 31
0.0
  0
LINE
  5
19ADA
  8
OS
 10
352.94544140354952
 20
718.60821967767367
 30
0.0
 11
352.94658406117742
 21
673.60821969218114
 31
0.0
  0
LINE
  5
19ADB
  8
OS
 10
352.94544140354952
 20
718.60821967767367
 30
0.0
 11
307.94555717445468
 21
718.6070770229851
 31
0.0
  0
LINE
  5
19ADC
  8
OS
 10
307.94704264629632
 20
673.60574394563082
 30
0.0
 11
352.94544140354952
 21
718.60821967767367
 31
0.0
  0
LINE
  5
19ADD
  8
OS
 10
277.94676382429537
 20
748.60574394563082
 30
0.0
 11
202.9470426462963
 21
673.60574394563082
 31
0.0
  0
LINE
  5
19B09
  8
OS
 10
1073.565971806895
 20
367.48474779943427
 30
0.0
 11
1119.565974255424
 21
321.48467815573667
 31
0.0
  0
LINE
  5
19B0A
  8
OS
 10
1119.565974255424
 20
308.48492125943523
 30
0.0
 11
1073.565971806895
 21
262.48474779943427
 31
0.0
  0
LINE
  5
19B0B
  8
OS
 10
1119.565974255424
 20
262.48474779943427
 30
0.0
 11
1073.565971806895
 21
262.48474779943427
 31
0.0
  0
LINE
  5
19B0C
  8
OS
 10
1119.565974255424
 20
367.48474779943427
 30
0.0
 11
1073.565971806895
 21
367.48474779943427
 31
0.0
  0
LINE
  5
19B0D
  8
OS
 10
534.06596780949189
 20
367.48474779943422
 30
0.0
 11
488.06596536096299
 21
321.48467815573667
 31
0.0
  0
LINE
  5
19B0E
  8
OS
 10
488.06596536096299
 20
308.48492125943523
 30
0.0
 11
534.06596780949189
 21
262.48474779943422
 31
0.0
  0
LINE
  5
19B0F
  8
OS
 10
488.06596536096299
 20
262.48474779943422
 30
0.0
 11
534.06596780950008
 21
262.48474779943422
 31
0.0
  0
LINE
  5
19B10
  8
OS
 10
488.06596536096299
 20
367.48474779943422
 30
0.0
 11
534.06596780949189
 21
367.48474779943422
 31
0.0
  0
LINE
  5
19CEE
  8
OS
 10
247.19704169463759
 20
124.2830073963927
 30
0.0
 11
228.19704169464029
 21
112.28302139638861
 31
0.0
  0
LINE
  5
19CEF
  8
OS
 10
247.19704169464029
 20
112.2830213963929
 30
0.0
 11
247.19704169463759
 21
124.2830073963927
 31
0.0
  0
LINE
  5
19CF0
  8
OS
 10
228.19704169463759
 20
124.2830073963884
 30
0.0
 11
247.19704169463759
 21
124.2830073963927
 31
0.0
  0
LINE
  5
19CF1
  8
OS
 10
228.19704169464029
 20
112.28302139638861
 30
0.0
 11
228.19704169463759
 21
124.2830073963884
 31
0.0
  0
LINE
  5
19D6E
  8
KI2
 10
1052.065975771731
 20
286.68474996488959
 30
0.0
 11
1052.065975771731
 21
285.9847499648896
 31
0.0
  0
LINE
  5
19D6F
  8
KI2
 10
1058.065971806895
 20
286.68474996488959
 30
0.0
 11
1052.065975771731
 21
286.68474996488959
 31
0.0
  0
LINE
  5
19D70
  8
KI2
 10
1058.065971806895
 20
285.9847499648896
 30
0.0
 11
1052.065975771731
 21
285.9847499648896
 31
0.0
  0
LINE
  5
19D71
  8
KI2
 10
1052.0659704530581
 20
270.98474996488937
 30
0.0
 11
1052.065970283827
 21
270.28474996488961
 31
0.0
  0
LINE
  5
19D72
  8
KI2
 10
1052.065970283827
 20
270.28474996488961
 30
0.0
 11
1058.065971081621
 21
270.28474851433992
 31
0.0
  0
LINE
  5
19D73
  8
KI2
 10
1052.0659704530581
 20
270.98474996488937
 30
0.0
 11
1058.0659712508509
 21
270.98474851433991
 31
0.0
  0
LINE
  5
19D74
  8
KI2
 10
1061.065971806895
 20
273.28474851433992
 30
0.0
 11
1061.065971806895
 21
283.6847499648897
 31
0.0
  0
LINE
  5
19D75
  8
KI2
 10
1060.365971806895
 20
273.28474851433992
 30
0.0
 11
1060.365971806895
 21
283.6847499648897
 31
0.0
  0
ARC
  5
19D76
  8
KI2
 10
1058.065971806895
 20
283.6847499648897
 30
0.0
 40
3.0
 50
0.0
 51
90.0
1001
GENIUS_GENODEF_13
1002
{
1000
HIER
1070
     0
1002
}
1002
{
1000
MANEDIT
1070
     0
1002
}
1002
{
1000
NOSEL
1070
     0
1002
}
1002
{
1000
BEHIND
1070
     0
1002
}
1002
{
1000
OTHER
1070
     0
1002
}
1002
{
1000
REACTOR
1002
}
1001
GENIUS_GENOBJ-N-FIL_13
1002
{
1000
OWNER
1000
GEN
1002
}
  0
ARC
  5
19D77
  8
KI2
 10
1058.065971806895
 20
283.6847499648897
 30
0.0
 40
2.2999999999999989
 50
0.0
 51
90.0
1001
GENIUS_GENODEF_13
1002
{
1000
HIER
1070
     0
1002
}
1002
{
1000
MANEDIT
1070
     0
1002
}
1002
{
1000
NOSEL
1070
     0
1002
}
1002
{
1000
BEHIND
1070
     0
1002
}
1002
{
1000
OTHER
1070
     0
1002
}
1002
{
1000
REACTOR
1002
}
1001
GENIUS_GENOBJ-N-FIL_13
1002
{
1000
OWNER
1000
GEN
1002
}
  0
ARC
  5
19D78
  8
KI2
 10
1058.065971806895
 20
273.28474851433992
 30
0.0
 40
3.0
 50
269.99998614827302
 51
0.0
1001
GENIUS_GENODEF_13
1002
{
1000
HIER
1070
     0
1002
}
1002
{
1000
MANEDIT
1070
     0
1002
}
1002
{
1000
NOSEL
1070
     0
1002
}
1002
{
1000
BEHIND
1070
     0
1002
}
1002
{
1000
OTHER
1070
     0
1002
}
1002
{
1000
REACTOR
1002
}
1001
GENIUS_GENOBJ-N-FIL_13
1002
{
1000
OWNER
1000
GEN
1002
}
  0
ARC
  5
19D79
  8
KI2
 10
1058.065971806895
 20
273.28474851433992
 30
0.0
 40
2.2999999999999989
 50
269.99998614827302
 51
0.0
1001
GENIUS_GENODEF_13
1002
{
1000
HIER
1070
     0
1002
}
1002
{
1000
MANEDIT
1070
     0
1002
}
1002
{
1000
NOSEL
1070
     0
1002
}
1002
{
1000
BEHIND
1070
     0
1002
}
1002
{
1000
OTHER
1070
     0
1002
}
1002
{
1000
REACTOR
1002
}
1001
GENIUS_GENOBJ-N-FIL_13
1002
{
1000
OWNER
1000
GEN
1002
}
  0
LINE
  5
19DAA
  8
PH
 10
711.56596384465547
 20
286.6847490005747
 30
0.0
 11
705.56596780949121
 21
286.6847490005747
 31
0.0
  0
LINE
  5
19DAB
  8
PH
 10
711.56596384465547
 20
285.9847490005746
 30
0.0
 11
705.56596780949121
 21
285.9847490005746
 31
0.0
  0
LINE
  5
19DAC
  8
PH
 10
705.56596249081804
 20
270.98474900057442
 30
0.0
 11
705.56596232158745
 21
270.28474900057449
 31
0.0
  0
LINE
  5
19DAD
  8
PH
 10
705.56596232158745
 20
270.28474900057449
 30
0.0
 11
711.56596311938074
 21
270.28474755002492
 31
0.0
  0
LINE
  5
19DAE
  8
PH
 10
705.56596249081804
 20
270.98474900057442
 30
0.0
 11
711.56596328861133
 21
270.98474755002491
 31
0.0
  0
LINE
  5
19DAF
  8
PH
 10
714.56596384465536
 20
273.2847475500248
 30
0.0
 11
714.56596384465536
 21
283.68474900057458
 31
0.0
  0
LINE
  5
19DB0
  8
PH
 10
713.86596384465565
 20
273.2847475500248
 30
0.0
 11
713.86596384465565
 21
283.68474900057458
 31
0.0
  0
ARC
  5
19DB1
  8
PH
 10
711.56596384465547
 20
283.68474900057458
 30
0.0
 40
3.0
 50
0.0
 51
90.0
1001
GENIUS_GENODEF_13
1002
{
1000
HIER
1070
     0
1002
}
1002
{
1000
MANEDIT
1070
     0
1002
}
1002
{
1000
NOSEL
1070
     0
1002
}
1002
{
1000
BEHIND
1070
     0
1002
}
1002
{
1000
OTHER
1070
     0
1002
}
1002
{
1000
REACTOR
1002
}
1001
GENIUS_GENOBJ-N-FIL_13
1002
{
1000
OWNER
1000
GEN
1002
}
  0
ARC
  5
19DB2
  8
PH
 10
711.56596384465547
 20
283.68474900057458
 30
0.0
 40
2.2999999999999989
 50
0.0
 51
90.0
1001
GENIUS_GENODEF_13
1002
{
1000
HIER
1070
     0
1002
}
1002
{
1000
MANEDIT
1070
     0
1002
}
1002
{
1000
NOSEL
1070
     0
1002
}
1002
{
1000
BEHIND
1070
     0
1002
}
1002
{
1000
OTHER
1070
     0
1002
}
1002
{
1000
REACTOR
1002
}
1001
GENIUS_GENOBJ-N-FIL_13
1002
{
1000
OWNER
1000
GEN
1002
}
  0
ARC
  5
19DB3
  8
PH
 10
711.56596384465547
 20
273.2847475500248
 30
0.0
 40
3.0
 50
269.99998614827302
 51
0.0
1001
GENIUS_GENODEF_13
1002
{
1000
HIER
1070
     0
1002
}
1002
{
1000
MANEDIT
1070
     0
1002
}
1002
{
1000
NOSEL
1070
     0
1002
}
1002
{
1000
BEHIND
1070
     0
1002
}
1002
{
1000
OTHER
1070
     0
1002
}
1002
{
1000
REACTOR
1002
}
1001
GENIUS_GENOBJ-N-FIL_13
1002
{
1000
OWNER
1000
GEN
1002
}
  0
ARC
  5
19DB4
  8
PH
 10
711.56596384465547
 20
273.2847475500248
 30
0.0
 40
2.2999999999999989
 50
269.99998614827302
 51
0.0
1001
GENIUS_GENODEF_13
1002
{
1000
HIER
1070
     0
1002
}
1002
{
1000
MANEDIT
1070
     0
1002
}
1002
{
1000
NOSEL
1070
     0
1002
}
1002
{
1000
BEHIND
1070
     0
1002
}
1002
{
1000
OTHER
1070
     0
1002
}
1002
{
1000
REACTOR
1002
}
1001
GENIUS_GENOBJ-N-FIL_13
1002
{
1000
OWNER
1000
GEN
1002
}
  0
LINE
  5
19E53
  8
OS
 10
59.947107195745048
 20
316.10574394672591
 30
0.0
 11
359.94710719574499
 21
316.10574394672591
 31
0.0
  0
LINE
  5
19E54
  8
OS
 10
59.947107195745048
 20
318.10574394672591
 30
0.0
 11
359.94710719574499
 21
318.10574394672591
 31
0.0
  0
LINE
  5
19E55
  8
OS
 10
59.947107195745048
 20
322.10574394672591
 30
0.0
 11
359.94710719574499
 21
322.10574394672591
 31
0.0
  0
LINE
  5
19E56
  8
OS
 10
59.947107195745048
 20
326.10574394672591
 30
0.0
 11
359.94710719574499
 21
326.10574394672591
 31
0.0
  0
LINE
  5
19E57
  8
OS
 10
59.947107195745048
 20
320.10574394672591
 30
0.0
 11
359.94710719574499
 21
320.1057439467254
 31
0.0
  0
LINE
  5
19E58
  8
OS
 10
59.947107195745048
 20
324.10574394672591
 30
0.0
 11
359.94710719574499
 21
324.10574394672591
 31
0.0
  0
LINE
  5
19E59
  8
OS
 10
59.947107195745048
 20
328.10574394672591
 30
0.0
 11
359.94710719574499
 21
328.10574394672591
 31
0.0
  0
LINE
  5
19E5B
  8
KI1
 10
74.447107195745716
 20
335.89997258078489
 30
0.0
 11
69.94710719574573
 21
328.10574394672477
 31
0.0
  0
LINE
  5
19E5C
  8
KI1
 10
65.44710719574573
 20
335.89997258078489
 30
0.0
 11
74.447107195745716
 21
335.89997258078489
 31
0.0
  0
LINE
  5
19E5D
  8
KI1
 10
69.94710719574573
 20
328.10574394672477
 30
0.0
 11
65.44710719574573
 21
335.89997258078489
 31
0.0
  0
TEXT
  5
19E5E
  8
OS
 10
64.314964338602877
 20
340.13204394142292
 30
0.0
 40
7.5
  1
FL
 41
0.8299999999999999
 72
     1
 11
69.94710719574573
 21
340.13204394142292
 31
0.0
 73
     1
  0
LINE
  5
19F2D
  8
KI1
 10
74.447107195745716
 20
132.07723612177989
 30
0.0
 11
69.94710719574573
 21
124.2830074877197
 31
0.0
  0
LINE
  5
19F2E
  8
KI1
 10
65.44710719574573
 20
132.07723612177989
 30
0.0
 11
74.447107195745716
 21
132.07723612177989
 31
0.0
  0
LINE
  5
19F2F
  8
KI1
 10
69.94710719574573
 20
124.2830074877197
 30
0.0
 11
65.44710719574573
 21
132.07723612177989
 31
0.0
  0
TEXT
  5
19F30
  8
OS
 10
64.314964338602877
 20
136.30930748241781
 30
0.0
 40
7.5
  1
FL
 41
0.8299999999999999
 72
     1
 11
69.94710719574573
 21
136.30930748241781
 31
0.0
 73
     1
  0
LINE
  5
19F98
  8
OS
 10
168.19703412796159
 20
673.60574394563082
 30
0.0
 11
307.19703412796162
 21
673.60574394563082
 31
0.0
1001
GENIUS_GENREC_14
1002
{
1000
PYDIR
1011
168.19703412796159
1021
0.0
1031
0.0
1021
664.10574394563082
1031
0.0
1002
}
1002
{
1000
PXDIR
1011
307.19703412796162
1021
0.0
1031
0.0
1021
673.60574394563082
1031
0.0
1002
}
1002
{
1000
PORI
1011
168.19703412796159
1021
0.0
1031
0.0
1021
673.60574394563082
1031
0.0
1002
}
1002
{
1000
PINS
1011
168.19703412796159
1021
0.0
1031
0.0
1021
673.60574394563082
1031
0.0
1002
}
1002
{
1000
PINS2
1011
307.19703412796162
1021
0.0
1031
0.0
1021
664.10574394563082
1031
0.0
1002
}
1002
{
1000
C
1070
     1
1002
}
1001
GENIUS_GENODEF_13
1002
{
1000
HIER
1070
     0
1002
}
1002
{
1000
MANEDIT
1070
     0
1002
}
1002
{
1000
NOSEL
1070
     0
1002
}
1002
{
1000
BEHIND
1070
     0
1002
}
1002
{
1000
OTHER
1070
     0
1002
}
1002
{
1000
REACTOR
1002
}
1001
GENIUS_GENOBJ-N-REC_13
1002
{
1000
OWNER
1000
GEN
1002
}
  0
LINE
  5
19F99
  8
OS
 10
307.19703412796162
 20
673.60574394563082
 30
0.0
 11
307.19703412796162
 21
664.10574394563082
 31
0.0
1001
GENIUS_GENREC_14
1002
{
1000
PYDIR
1011
168.19703412796159
1021
0.0
1031
0.0
1021
664.10574394563082
1031
0.0
1002
}
1002
{
1000
PXDIR
1011
307.19703412796162
1021
0.0
1031
0.0
1021
673.60574394563082
1031
0.0
1002
}
1002
{
1000
PORI
1011
168.19703412796159
1021
0.0
1031
0.0
1021
673.60574394563082
1031
0.0
1002
}
1002
{
1000
PINS
1011
168.19703412796159
1021
0.0
1031
0.0
1021
673.60574394563082
1031
0.0
1002
}
1002
{
1000
PINS2
1011
307.19703412796162
1021
0.0
1031
0.0
1021
664.10574394563082
1031
0.0
1002
}
1002
{
1000
C
1070
     1
1002
}
1001
GENIUS_GENODEF_13
1002
{
1000
HIER
1070
     0
1002
}
1002
{
1000
MANEDIT
1070
     0
1002
}
1002
{
1000
NOSEL
1070
     0
1002
}
1002
{
1000
BEHIND
1070
     0
1002
}
1002
{
1000
OTHER
1070
     0
1002
}
1002
{
1000
REACTOR
1002
}
1001
GENIUS_GENOBJ-N-REC_13
1002
{
1000
OWNER
1000
GEN
1002
}
  0
LINE
  5
19F9A
  8
OS
 10
307.19703412796162
 20
664.10574394563082
 30
0.0
 11
168.19703412796159
 21
664.10574394563082
 31
0.0
1001
GENIUS_GENREC_14
1002
{
1000
PYDIR
1011
168.19703412796159
1021
0.0
1031
0.0
1021
664.10574394563082
1031
0.0
1002
}
1002
{
1000
PXDIR
1011
307.19703412796162
1021
0.0
1031
0.0
1021
673.60574394563082
1031
0.0
1002
}
1002
{
1000
PORI
1011
168.19703412796159
1021
0.0
1031
0.0
1021
673.60574394563082
1031
0.0
1002
}
1002
{
1000
PINS
1011
168.19703412796159
1021
0.0
1031
0.0
1021
673.60574394563082
1031
0.0
1002
}
1002
{
1000
PINS2
1011
307.19703412796162
1021
0.0
1031
0.0
1021
664.10574394563082
1031
0.0
1002
}
1002
{
1000
C
1070
     1
1002
}
1001
GENIUS_GENODEF_13
1002
{
1000
HIER
1070
     0
1002
}
1002
{
1000
MANEDIT
1070
     0
1002
}
1002
{
1000
NOSEL
1070
     0
1002
}
1002
{
1000
BEHIND
1070
     0
1002
}
1002
{
1000
OTHER
1070
     0
1002
}
1002
{
1000
REACTOR
1002
}
1001
GENIUS_GENOBJ-N-REC_13
1002
{
1000
OWNER
1000
GEN
1002
}
  0
LINE
  5
19F9B
  8
OS
 10
168.19703412796159
 20
664.10574394563082
 30
0.0
 11
168.19703412796159
 21
673.60574394563082
 31
0.0
1001
GENIUS_GENREC_14
1002
{
1000
PYDIR
1011
168.19703412796159
1021
0.0
1031
0.0
1021
664.10574394563082
1031
0.0
1002
}
1002
{
1000
PXDIR
1011
307.19703412796162
1021
0.0
1031
0.0
1021
673.60574394563082
1031
0.0
1002
}
1002
{
1000
PORI
1011
168.19703412796159
1021
0.0
1031
0.0
1021
673.60574394563082
1031
0.0
1002
}
1002
{
1000
PINS
1011
168.19703412796159
1021
0.0
1031
0.0
1021
673.60574394563082
1031
0.0
1002
}
1002
{
1000
PINS2
1011
307.19703412796162
1021
0.0
1031
0.0
1021
664.10574394563082
1031
0.0
1002
}
1002
{
1000
C
1070
     1
1002
}
1001
GENIUS_GENODEF_13
1002
{
1000
HIER
1070
     0
1002
}
1002
{
1000
MANEDIT
1070
     0
1002
}
1002
{
1000
NOSEL
1070
     0
1002
}
1002
{
1000
BEHIND
1070
     0
1002
}
1002
{
1000
OTHER
1070
     0
1002
}
1002
{
1000
REACTOR
1002
}
1001
GENIUS_GENOBJ-N-REC_13
1002
{
1000
OWNER
1000
GEN
1002
}
  0
LINE
  5
1A3DD
  8
SU
 10
705.56596780949144
 20
468.48474779943427
 30
0.0
 11
705.56596780949144
 21
518.48474779943444
 31
0.0
  0
LINE
  5
1A3DE
  8
SU
 10
705.56596780949144
 20
515.48474779943444
 30
0.0
 11
714.56596384465536
 21
515.48474779943444
 31
0.0
  0
LINE
  5
1A3E1
  8
SU
 10
1055.065971806895
 20
474.48474779943427
 30
0.0
 11
1055.065971806895
 21
518.48474779943444
 31
0.0
  0
LINE
  5
1A3E2
  8
SU
 10
714.56596384465536
 20
284.68474900057458
 30
0.0
 11
714.56596384465536
 21
518.48474779943444
 31
0.0
  0
LINE
  5
1A3E3
  8
SU
 10
1055.065971806895
 20
515.48474779943444
 30
0.0
 11
714.56596384465536
 21
515.48474779943444
 31
0.0
  0
LINE
  5
1A3E7
  8
SU
 10
738.69096780949144
 20
370.48474875116239
 30
0.0
 11
738.69096780949144
 21
367.484747799437
 31
0.0
  0
LINE
  5
1A3E9
  8
SU
 10
756.19096780949167
 20
367.484747799437
 30
0.0
 11
735.69096780949144
 21
367.484747799437
 31
0.0
  0
LINE
  5
1A3EA
  8
SU
 10
756.19096780949167
 20
334.48474875116239
 30
0.0
 11
735.69096780949144
 21
334.48474875116239
 31
0.0
  0
LINE
  5
1A3EB
  8
SU
 10
738.69096780949144
 20
367.484747799437
 30
0.0
 11
738.69096780949144
 21
334.48474875116239
 31
0.0
  0
LINE
  5
1A3EF
  8
SU
 10
757.19096780949155
 20
333.48474875116239
 30
0.0
 11
757.19096780949155
 21
207.98474779943791
 31
0.0
  0
LINE
  5
1A3F0
  8
SU
 10
792.19096780949155
 20
369.4847487511625
 30
0.0
 11
792.19096780949155
 21
207.98474779943791
 31
0.0
  0
LINE
  5
1A3F1
  8
SU
 10
757.19096780949155
 20
210.9847477994378
 30
0.0
 11
792.19096780949155
 21
210.9847477994378
 31
0.0
  0
LINE
  5
1A3F5
  8
SU
 10
755.27722163204135
 20
370.48474875116239
 30
0.0
 11
735.69096780949144
 21
370.48474875116239
 31
0.0
  0
LINE
  5
1A3F6
  8
SU
 10
738.69096780949144
 20
403.484747799437
 30
0.0
 11
738.69096780949144
 21
370.48474875116239
 31
0.0
  0
LINE
  5
1A3F9
  8
SU
 10
239.44703412796159
 20
577.60574394563082
 30
0.0
 11
272.44703412796179
 21
577.60574394563082
 31
0.0
  0
LINE
  5
1A3FB
  8
SU
 10
235.9470416945683
 20
594.17309281060989
 30
0.0
 11
235.9470416945683
 21
574.60574394563082
 31
0.0
  0
LINE
  5
1A3FC
  8
SU
 10
239.4470416945683
 20
594.17309281060989
 30
0.0
 11
239.4470416945683
 21
574.60574394563082
 31
0.0
  0
LINE
  5
1A3FD
  8
SU
 10
235.9470416945683
 20
577.60574394563082
 30
0.0
 11
239.4470416945683
 21
577.60574394563082
 31
0.0
  0
LINE
  5
1A402
  8
SU
 10
301.94704169463603
 20
327.1057439467296
 30
0.0
 11
301.94704169463603
 21
292.1057439467296
 31
0.0
  0
LINE
  5
1A403
  8
SU
 10
245.94704169463759
 20
295.1057439467296
 30
0.0
 11
301.94704169463603
 21
295.1057439467296
 31
0.0
  0
LINE
  5
1A408
  8
SU
 10
245.94704169463759
 20
327.10574394672608
 30
0.0
 11
245.94704169463759
 21
292.1057439467296
 31
0.0
  0
LINE
  5
1A409
  8
SU
 10
229.44704169463759
 20
295.1057439467296
 30
0.0
 11
245.94704169463759
 21
295.1057439467296
 31
0.0
  0
LINE
  5
1A40D
  8
SU
 10
275.4470416945681
 20
577.60574394563082
 30
0.0
 11
308.44704169456833
 21
577.60574394563082
 31
0.0
  0
LINE
  5
1A40F
  8
SU
 10
202.94703412796159
 20
577.60574394563082
 30
0.0
 11
235.94703412796181
 21
577.60574394563082
 31
0.0
  0
LINE
  5
1A411
  8
SU
 10
166.94703412796159
 20
577.60574394563082
 30
0.0
 11
199.94703412796181
 21
577.60574394563082
 31
0.0
  0
LINE
  5
1A413
  8
SU
 10
1051.065971806895
 20
164.98474779943911
 30
0.0
 11
1061.065971806895
 21
170.98474779943911
 31
0.0
  0
LINE
  5
1A414
  8
SU
 10
1051.065971806895
 20
176.98474779943911
 30
0.0
 11
1061.065971806895
 21
170.98474779943911
 31
0.0
  0
LINE
  5
1A415
  8
SU
 10
1051.065971806895
 20
164.98474779943911
 30
0.0
 11
1051.065971806895
 21
176.98474779943911
 31
0.0
  0
LINE
  5
1A416
  8
SU
 10
1060.9982438623281
 20
170.94411103269849
 30
0.0
 11
1060.9982438623281
 21
171.02538456617941
 31
0.0
  0
LINE
  5
1A417
  8
SU
 10
1060.798243862328
 20
170.8241110326986
 30
0.0
 11
1060.798243862328
 21
171.1453845661793
 31
0.0
  0
LINE
  5
1A418
  8
SU
 10
1060.598243862328
 20
170.70411103269851
 30
0.0
 11
1060.598243862328
 21
171.26538456617951
 31
0.0
  0
LINE
  5
1A419
  8
SU
 10
1060.3982438623279
 20
170.58411103269859
 30
0.0
 11
1060.3982438623279
 21
171.3853845661796
 31
0.0
  0
LINE
  5
1A41A
  8
SU
 10
1060.1982438623279
 20
170.4641110326987
 30
0.0
 11
1060.1982438623279
 21
171.50538456617949
 31
0.0
  0
LINE
  5
1A41B
  8
SU
 10
1059.9982438623281
 20
170.34411103269861
 30
0.0
 11
1059.9982438623281
 21
171.62538456617929
 31
0.0
  0
LINE
  5
1A41C
  8
SU
 10
1059.798243862328
 20
170.22411103269849
 30
0.0
 11
1059.798243862328
 21
171.7453845661795
 31
0.0
  0
LINE
  5
1A41D
  8
SU
 10
1059.598243862328
 20
170.1041110326986
 30
0.0
 11
1059.598243862328
 21
171.86538456617961
 31
0.0
  0
LINE
  5
1A41E
  8
SU
 10
1059.3982438623279
 20
169.98411103269871
 30
0.0
 11
1059.3982438623279
 21
171.9853845661795
 31
0.0
  0
LINE
  5
1A41F
  8
SU
 10
1059.1982438623279
 20
169.86411103269879
 30
0.0
 11
1059.1982438623279
 21
172.1053845661794
 31
0.0
  0
LINE
  5
1A420
  8
SU
 10
1058.9982438623281
 20
169.74411103269841
 30
0.0
 11
1058.9982438623281
 21
172.22538456617951
 31
0.0
  0
LINE
  5
1A421
  8
SU
 10
1058.798243862328
 20
169.62411103269861
 30
0.0
 11
1058.798243862328
 21
172.3453845661796
 31
0.0
  0
LINE
  5
1A422
  8
SU
 10
1058.598243862328
 20
169.50411103269869
 30
0.0
 11
1058.598243862328
 21
172.46538456617949
 31
0.0
  0
LINE
  5
1A423
  8
SU
 10
1058.3982438623279
 20
169.38411103269851
 30
0.0
 11
1058.3982438623279
 21
172.58538456617941
 31
0.0
  0
LINE
  5
1A424
  8
SU
 10
1058.1982438623279
 20
169.26411103269859
 30
0.0
 11
1058.1982438623279
 21
172.7053845661795
 31
0.0
  0
LINE
  5
1A425
  8
SU
 10
1057.9982438623281
 20
169.1441110326985
 30
0.0
 11
1057.9982438623281
 21
172.82538456617939
 31
0.0
  0
LINE
  5
1A426
  8
SU
 10
1057.798243862328
 20
169.02411103269861
 30
0.0
 11
1057.798243862328
 21
172.94538456617951
 31
0.0
  0
LINE
  5
1A427
  8
SU
 10
1057.598243862328
 20
168.90411103269849
 30
0.0
 11
1057.598243862328
 21
173.0653845661794
 31
0.0
  0
LINE
  5
1A428
  8
SU
 10
1057.3982438623279
 20
168.7841110326986
 30
0.0
 11
1057.3982438623279
 21
173.18538456617949
 31
0.0
  0
LINE
  5
1A429
  8
SU
 10
1057.1982438623279
 20
168.66411103269849
 30
0.0
 11
1057.1982438623279
 21
173.30538456617941
 31
0.0
  0
LINE
  5
1A42A
  8
SU
 10
1056.9982438623281
 20
168.54411103269859
 30
0.0
 11
1056.9982438623281
 21
173.4253845661795
 31
0.0
  0
LINE
  5
1A42B
  8
SU
 10
1056.798243862328
 20
168.4241110326987
 30
0.0
 11
1056.798243862328
 21
173.54538456617939
 31
0.0
  0
LINE
  5
1A42C
  8
SU
 10
1056.598243862328
 20
168.30411103269859
 30
0.0
 11
1056.598243862328
 21
173.66538456617951
 31
0.0
  0
LINE
  5
1A42D
  8
SU
 10
1056.3982438623279
 20
168.1841110326985
 30
0.0
 11
1056.3982438623279
 21
173.7853845661794
 31
0.0
  0
LINE
  5
1A42E
  8
SU
 10
1056.1982438623279
 20
168.06411103269861
 30
0.0
 11
1056.1982438623279
 21
173.90538456617961
 31
0.0
  0
LINE
  5
1A42F
  8
SU
 10
1055.9982438623281
 20
167.94411103269849
 30
0.0
 11
1055.9982438623281
 21
174.02538456617941
 31
0.0
  0
LINE
  5
1A430
  8
SU
 10
1055.798243862328
 20
167.8241110326986
 30
0.0
 11
1055.798243862328
 21
174.1453845661793
 31
0.0
  0
LINE
  5
1A431
  8
SU
 10
1055.598243862328
 20
167.70411103269851
 30
0.0
 11
1055.598243862328
 21
174.26538456617951
 31
0.0
  0
LINE
  5
1A432
  8
SU
 10
1055.3982438623279
 20
167.58411103269859
 30
0.0
 11
1055.3982438623279
 21
174.3853845661796
 31
0.0
  0
LINE
  5
1A433
  8
SU
 10
1055.1982438623279
 20
167.4641110326987
 30
0.0
 11
1055.1982438623279
 21
174.50538456617949
 31
0.0
  0
LINE
  5
1A434
  8
SU
 10
1054.9982438623281
 20
167.34411103269861
 30
0.0
 11
1054.9982438623281
 21
174.62538456617941
 31
0.0
  0
LINE
  5
1A435
  8
SU
 10
1054.798243862328
 20
167.22411103269849
 30
0.0
 11
1054.798243862328
 21
174.7453845661795
 31
0.0
  0
LINE
  5
1A436
  8
SU
 10
1054.598243862328
 20
167.1041110326986
 30
0.0
 11
1054.598243862328
 21
174.86538456617961
 31
0.0
  0
LINE
  5
1A437
  8
SU
 10
1054.3982438623279
 20
166.98411103269871
 30
0.0
 11
1054.3982438623279
 21
174.9853845661795
 31
0.0
  0
LINE
  5
1A438
  8
SU
 10
1054.1982438623279
 20
166.86411103269879
 30
0.0
 11
1054.1982438623279
 21
175.1053845661794
 31
0.0
  0
LINE
  5
1A439
  8
SU
 10
1053.9982438623281
 20
166.7441110326985
 30
0.0
 11
1053.9982438623281
 21
175.22538456617951
 31
0.0
  0
LINE
  5
1A43A
  8
SU
 10
1053.798243862328
 20
166.62411103269861
 30
0.0
 11
1053.798243862328
 21
175.3453845661796
 31
0.0
  0
LINE
  5
1A43B
  8
SU
 10
1053.598243862328
 20
166.50411103269869
 30
0.0
 11
1053.598243862328
 21
175.46538456617949
 31
0.0
  0
LINE
  5
1A43C
  8
SU
 10
1053.3982438623279
 20
166.38411103269851
 30
0.0
 11
1053.3982438623279
 21
175.58538456617941
 31
0.0
  0
LINE
  5
1A43D
  8
SU
 10
1053.1982438623279
 20
166.26411103269871
 30
0.0
 11
1053.1982438623279
 21
175.7053845661795
 31
0.0
  0
LINE
  5
1A43E
  8
SU
 10
1052.9982438623281
 20
166.1441110326985
 30
0.0
 11
1052.9982438623281
 21
175.82538456617939
 31
0.0
  0
LINE
  5
1A43F
  8
SU
 10
1052.798243862328
 20
166.02411103269861
 30
0.0
 11
1052.798243862328
 21
175.94538456617951
 31
0.0
  0
LINE
  5
1A440
  8
SU
 10
1052.598243862328
 20
165.90411103269849
 30
0.0
 11
1052.598243862328
 21
176.0653845661794
 31
0.0
  0
LINE
  5
1A441
  8
SU
 10
1052.3982438623279
 20
165.7841110326986
 30
0.0
 11
1052.3982438623279
 21
176.18538456617949
 31
0.0
  0
LINE
  5
1A442
  8
SU
 10
1052.1982438623279
 20
165.66411103269849
 30
0.0
 11
1052.1982438623279
 21
176.30538456617941
 31
0.0
  0
LINE
  5
1A443
  8
SU
 10
1051.9982438623281
 20
165.54411103269859
 30
0.0
 11
1051.9982438623281
 21
176.4253845661795
 31
0.0
  0
LINE
  5
1A444
  8
SU
 10
1051.798243862328
 20
165.4241110326987
 30
0.0
 11
1051.798243862328
 21
176.54538456617939
 31
0.0
  0
LINE
  5
1A445
  8
SU
 10
1051.598243862328
 20
165.30411103269859
 30
0.0
 11
1051.598243862328
 21
176.66538456617951
 31
0.0
  0
LINE
  5
1A446
  8
SU
 10
1051.3982438623279
 20
165.1841110326985
 30
0.0
 11
1051.3982438623279
 21
176.7853845661794
 31
0.0
  0
LINE
  5
1A447
  8
SU
 10
1051.1982438623279
 20
165.06411103269861
 30
0.0
 11
1051.1982438623279
 21
176.90538456617961
 31
0.0
  0
LINE
  5
1A448
  8
SU
 10
556.56596780949235
 20
164.98474779943911
 30
0.0
 11
546.56596780949235
 21
170.98474779943911
 31
0.0
  0
LINE
  5
1A449
  8
SU
 10
556.56596780949235
 20
176.98474779943911
 30
0.0
 11
546.56596780949235
 21
170.98474779943911
 31
0.0
  0
LINE
  5
1A44A
  8
SU
 10
556.56596780949235
 20
164.98474779943911
 30
0.0
 11
556.56596780949235
 21
176.98474779943911
 31
0.0
  0
LINE
  5
1A44B
  8
SU
 10
546.63369575405954
 20
170.94411103269849
 30
0.0
 11
546.63369575405954
 21
171.02538456617941
 31
0.0
  0
LINE
  5
1A44C
  8
SU
 10
546.83369575405925
 20
170.8241110326986
 30
0.0
 11
546.83369575405925
 21
171.1453845661793
 31
0.0
  0
LINE
  5
1A44D
  8
SU
 10
547.03369575405964
 20
170.70411103269851
 30
0.0
 11
547.03369575405964
 21
171.26538456617951
 31
0.0
  0
LINE
  5
1A44E
  8
SU
 10
547.23369575405945
 20
170.58411103269859
 30
0.0
 11
547.23369575405945
 21
171.3853845661796
 31
0.0
  0
LINE
  5
1A44F
  8
SU
 10
547.43369575405973
 20
170.4641110326987
 30
0.0
 11
547.43369575405973
 21
171.50538456617949
 31
0.0
  0
LINE
  5
1A450
  8
SU
 10
547.63369575405954
 20
170.34411103269861
 30
0.0
 11
547.63369575405954
 21
171.62538456617929
 31
0.0
  0
LINE
  5
1A451
  8
SU
 10
547.83369575405936
 20
170.22411103269849
 30
0.0
 11
547.83369575405936
 21
171.7453845661795
 31
0.0
  0
LINE
  5
1A452
  8
SU
 10
548.03369575405964
 20
170.1041110326986
 30
0.0
 11
548.03369575405964
 21
171.86538456617961
 31
0.0
  0
LINE
  5
1A453
  8
SU
 10
548.23369575405945
 20
169.98411103269871
 30
0.0
 11
548.23369575405945
 21
171.9853845661795
 31
0.0
  0
LINE
  5
1A454
  8
SU
 10
548.43369575405973
 20
169.86411103269879
 30
0.0
 11
548.43369575405973
 21
172.1053845661794
 31
0.0
  0
LINE
  5
1A455
  8
SU
 10
548.63369575405954
 20
169.74411103269841
 30
0.0
 11
548.63369575405954
 21
172.22538456617951
 31
0.0
  0
LINE
  5
1A456
  8
SU
 10
548.83369575405925
 20
169.62411103269861
 30
0.0
 11
548.83369575405925
 21
172.3453845661796
 31
0.0
  0
LINE
  5
1A457
  8
SU
 10
549.03369575405964
 20
169.50411103269869
 30
0.0
 11
549.03369575405964
 21
172.46538456617949
 31
0.0
  0
LINE
  5
1A458
  8
SU
 10
549.23369575405945
 20
169.38411103269851
 30
0.0
 11
549.23369575405945
 21
172.58538456617941
 31
0.0
  0
LINE
  5
1A459
  8
SU
 10
549.43369575405973
 20
169.26411103269859
 30
0.0
 11
549.43369575405973
 21
172.7053845661795
 31
0.0
  0
LINE
  5
1A45A
  8
SU
 10
549.63369575405954
 20
169.1441110326985
 30
0.0
 11
549.63369575405954
 21
172.82538456617939
 31
0.0
  0
LINE
  5
1A45B
  8
SU
 10
549.83369575405925
 20
169.02411103269861
 30
0.0
 11
549.83369575405925
 21
172.94538456617951
 31
0.0
  0
LINE
  5
1A45C
  8
SU
 10
550.03369575405964
 20
168.90411103269849
 30
0.0
 11
550.03369575405964
 21
173.0653845661794
 31
0.0
  0
LINE
  5
1A45D
  8
SU
 10
550.23369575405945
 20
168.7841110326986
 30
0.0
 11
550.23369575405945
 21
173.18538456617949
 31
0.0
  0
LINE
  5
1A45E
  8
SU
 10
550.43369575405973
 20
168.66411103269849
 30
0.0
 11
550.43369575405973
 21
173.30538456617941
 31
0.0
  0
LINE
  5
1A45F
  8
SU
 10
550.63369575405954
 20
168.54411103269859
 30
0.0
 11
550.63369575405954
 21
173.4253845661795
 31
0.0
  0
LINE
  5
1A460
  8
SU
 10
550.83369575405925
 20
168.4241110326987
 30
0.0
 11
550.83369575405925
 21
173.54538456617939
 31
0.0
  0
LINE
  5
1A461
  8
SU
 10
551.03369575405964
 20
168.30411103269859
 30
0.0
 11
551.03369575405964
 21
173.66538456617951
 31
0.0
  0
LINE
  5
1A462
  8
SU
 10
551.23369575405945
 20
168.1841110326985
 30
0.0
 11
551.23369575405945
 21
173.7853845661794
 31
0.0
  0
LINE
  5
1A463
  8
SU
 10
551.43369575405973
 20
168.06411103269861
 30
0.0
 11
551.43369575405973
 21
173.90538456617961
 31
0.0
  0
LINE
  5
1A464
  8
SU
 10
551.63369575405954
 20
167.94411103269849
 30
0.0
 11
551.63369575405954
 21
174.02538456617941
 31
0.0
  0
LINE
  5
1A465
  8
SU
 10
551.83369575405936
 20
167.8241110326986
 30
0.0
 11
551.83369575405936
 21
174.1453845661793
 31
0.0
  0
LINE
  5
1A466
  8
SU
 10
552.03369575405964
 20
167.70411103269851
 30
0.0
 11
552.03369575405964
 21
174.26538456617951
 31
0.0
  0
LINE
  5
1A467
  8
SU
 10
552.23369575405945
 20
167.58411103269859
 30
0.0
 11
552.23369575405945
 21
174.3853845661796
 31
0.0
  0
LINE
  5
1A468
  8
SU
 10
552.43369575405961
 20
167.4641110326987
 30
0.0
 11
552.43369575405961
 21
174.50538456617949
 31
0.0
  0
LINE
  5
1A469
  8
SU
 10
552.63369575405954
 20
167.34411103269861
 30
0.0
 11
552.63369575405954
 21
174.62538456617941
 31
0.0
  0
LINE
  5
1A46A
  8
SU
 10
552.83369575405925
 20
167.22411103269849
 30
0.0
 11
552.83369575405925
 21
174.7453845661795
 31
0.0
  0
LINE
  5
1A46B
  8
SU
 10
553.03369575405964
 20
167.1041110326986
 30
0.0
 11
553.03369575405964
 21
174.86538456617961
 31
0.0
  0
LINE
  5
1A46C
  8
SU
 10
553.23369575405945
 20
166.98411103269871
 30
0.0
 11
553.23369575405945
 21
174.9853845661795
 31
0.0
  0
LINE
  5
1A46D
  8
SU
 10
553.43369575405973
 20
166.86411103269879
 30
0.0
 11
553.43369575405973
 21
175.1053845661794
 31
0.0
  0
LINE
  5
1A46E
  8
SU
 10
553.63369575405954
 20
166.7441110326985
 30
0.0
 11
553.63369575405954
 21
175.22538456617951
 31
0.0
  0
LINE
  5
1A46F
  8
SU
 10
553.83369575405925
 20
166.62411103269861
 30
0.0
 11
553.83369575405925
 21
175.3453845661796
 31
0.0
  0
LINE
  5
1A470
  8
SU
 10
554.03369575405964
 20
166.50411103269869
 30
0.0
 11
554.03369575405964
 21
175.46538456617949
 31
0.0
  0
LINE
  5
1A471
  8
SU
 10
554.23369575405945
 20
166.38411103269851
 30
0.0
 11
554.23369575405945
 21
175.58538456617941
 31
0.0
  0
LINE
  5
1A472
  8
SU
 10
554.43369575405973
 20
166.26411103269871
 30
0.0
 11
554.43369575405973
 21
175.7053845661795
 31
0.0
  0
LINE
  5
1A473
  8
SU
 10
554.63369575405954
 20
166.1441110326985
 30
0.0
 11
554.63369575405954
 21
175.82538456617939
 31
0.0
  0
LINE
  5
1A474
  8
SU
 10
554.83369575405925
 20
166.02411103269861
 30
0.0
 11
554.83369575405925
 21
175.94538456617951
 31
0.0
  0
LINE
  5
1A475
  8
SU
 10
555.03369575405964
 20
165.90411103269849
 30
0.0
 11
555.03369575405964
 21
176.0653845661794
 31
0.0
  0
LINE
  5
1A476
  8
SU
 10
555.23369575405945
 20
165.7841110326986
 30
0.0
 11
555.23369575405945
 21
176.18538456617949
 31
0.0
  0
LINE
  5
1A477
  8
SU
 10
555.43369575405973
 20
165.66411103269849
 30
0.0
 11
555.43369575405973
 21
176.30538456617941
 31
0.0
  0
LINE
  5
1A478
  8
SU
 10
555.63369575405954
 20
165.54411103269859
 30
0.0
 11
555.63369575405954
 21
176.4253845661795
 31
0.0
  0
LINE
  5
1A479
  8
SU
 10
555.83369575405936
 20
165.4241110326987
 30
0.0
 11
555.83369575405936
 21
176.54538456617939
 31
0.0
  0
LINE
  5
1A47A
  8
SU
 10
556.03369575405964
 20
165.30411103269859
 30
0.0
 11
556.03369575405964
 21
176.66538456617951
 31
0.0
  0
LINE
  5
1A47B
  8
SU
 10
556.23369575405945
 20
165.1841110326985
 30
0.0
 11
556.23369575405945
 21
176.7853845661794
 31
0.0
  0
LINE
  5
1A47C
  8
SU
 10
556.43369575405961
 20
165.06411103269861
 30
0.0
 11
556.43369575405961
 21
176.90538456617961
 31
0.0
  0
LINE
  5
1A47D
  8
SU
 10
425.94710719574391
 20
134.28300748772079
 30
0.0
 11
419.94710719574391
 21
124.28300748772079
 31
0.0
  0
LINE
  5
1A47E
  8
SU
 10
413.94710719574391
 20
134.28300748772079
 30
0.0
 11
419.94710719574391
 21
124.28300748772079
 31
0.0
  0
LINE
  5
1A47F
  8
SU
 10
425.94710719574391
 20
134.28300748772079
 30
0.0
 11
413.94710719574391
 21
134.28300748772079
 31
0.0
  0
LINE
  5
1A480
  8
SU
 10
419.98774396248439
 20
124.350735432288
 30
0.0
 11
419.90647042900349
 21
124.350735432288
 31
0.0
  0
LINE
  5
1A481
  8
SU
 10
420.10774396248428
 20
124.55073543228779
 30
0.0
 11
419.7864704290036
 21
124.55073543228779
 31
0.0
  0
LINE
  5
1A482
  8
SU
 10
420.22774396248451
 20
124.7507354322881
 30
0.0
 11
419.66647042900348
 21
124.7507354322881
 31
0.0
  0
LINE
  5
1A483
  8
SU
 10
420.3477439624844
 20
124.9507354322879
 30
0.0
 11
419.54647042900342
 21
124.9507354322879
 31
0.0
  0
LINE
  5
1A484
  8
SU
 10
420.46774396248429
 20
125.1507354322882
 30
0.0
 11
419.42647042900347
 21
125.1507354322882
 31
0.0
  0
LINE
  5
1A485
  8
SU
 10
420.58774396248441
 20
125.350735432288
 30
0.0
 11
419.30647042900358
 21
125.350735432288
 31
0.0
  0
LINE
  5
1A486
  8
SU
 10
420.70774396248441
 20
125.55073543228779
 30
0.0
 11
419.18647042900341
 21
125.55073543228779
 31
0.0
  0
LINE
  5
1A487
  8
SU
 10
420.82774396248431
 20
125.7507354322881
 30
0.0
 11
419.0664704290034
 21
125.7507354322881
 31
0.0
  0
LINE
  5
1A488
  8
SU
 10
420.9477439624842
 20
125.9507354322879
 30
0.0
 11
418.94647042900351
 21
125.9507354322879
 31
0.0
  0
LINE
  5
1A489
  8
SU
 10
421.06774396248409
 20
126.1507354322882
 30
0.0
 11
418.82647042900362
 21
126.1507354322882
 31
0.0
  0
LINE
  5
1A48A
  8
SU
 10
421.18774396248449
 20
126.350735432288
 30
0.0
 11
418.7064704290035
 21
126.350735432288
 31
0.0
  0
LINE
  5
1A48B
  8
SU
 10
421.30774396248438
 20
126.55073543228779
 30
0.0
 11
418.58647042900333
 21
126.55073543228779
 31
0.0
  0
LINE
  5
1A48C
  8
SU
 10
421.42774396248433
 20
126.7507354322881
 30
0.0
 11
418.46647042900338
 21
126.7507354322881
 31
0.0
  0
LINE
  5
1A48D
  8
SU
 10
421.54774396248439
 20
126.9507354322879
 30
0.0
 11
418.34647042900349
 21
126.9507354322879
 31
0.0
  0
LINE
  5
1A48E
  8
SU
 10
421.66774396248428
 20
127.1507354322882
 30
0.0
 11
418.22647042900348
 21
127.1507354322882
 31
0.0
  0
LINE
  5
1A48F
  8
SU
 10
421.7877439624844
 20
127.350735432288
 30
0.0
 11
418.10647042900359
 21
127.350735432288
 31
0.0
  0
LINE
  5
1A490
  8
SU
 10
421.90774396248429
 20
127.55073543228779
 30
0.0
 11
417.98647042900342
 21
127.55073543228779
 31
0.0
  0
LINE
  5
1A491
  8
SU
 10
422.02774396248441
 20
127.7507354322881
 30
0.0
 11
417.86647042900353
 21
127.7507354322881
 31
0.0
  0
LINE
  5
1A492
  8
SU
 10
422.1477439624843
 20
127.9507354322879
 30
0.0
 11
417.74647042900341
 21
127.9507354322879
 31
0.0
  0
LINE
  5
1A493
  8
SU
 10
422.26774396248442
 20
128.15073543228809
 30
0.0
 11
417.62647042900352
 21
128.1507354322882
 31
0.0
  0
LINE
  5
1A494
  8
SU
 10
422.38774396248431
 20
128.35073543228799
 30
0.0
 11
417.50647042900351
 21
128.35073543228799
 31
0.0
  0
LINE
  5
1A495
  8
SU
 10
422.5077439624842
 20
128.55073543228781
 30
0.0
 11
417.38647042900362
 21
128.55073543228781
 31
0.0
  0
LINE
  5
1A496
  8
SU
 10
422.62774396248432
 20
128.750735432288
 30
0.0
 11
417.26647042900339
 21
128.750735432288
 31
0.0
  0
LINE
  5
1A497
  8
SU
 10
422.74774396248449
 20
128.9507354322879
 30
0.0
 11
417.1464704290035
 21
128.9507354322879
 31
0.0
  0
LINE
  5
1A498
  8
SU
 10
422.86774396248438
 20
129.15073543228809
 30
0.0
 11
417.02647042900338
 21
129.15073543228809
 31
0.0
  0
LINE
  5
1A499
  8
SU
 10
422.9877439624845
 20
129.35073543228799
 30
0.0
 11
416.90647042900349
 21
129.35073543228799
 31
0.0
  0
LINE
  5
1A49A
  8
SU
 10
423.10774396248439
 20
129.55073543228781
 30
0.0
 11
416.7864704290036
 21
129.55073543228781
 31
0.0
  0
LINE
  5
1A49B
  8
SU
 10
423.2277439624844
 20
129.750735432288
 30
0.0
 11
416.66647042900348
 21
129.750735432288
 31
0.0
  0
LINE
  5
1A49C
  8
SU
 10
423.34774396248429
 20
129.9507354322879
 30
0.0
 11
416.54647042900342
 21
129.9507354322879
 31
0.0
  0
LINE
  5
1A49D
  8
SU
 10
423.46774396248418
 20
130.15073543228809
 30
0.0
 11
416.42647042900347
 21
130.15073543228809
 31
0.0
  0
LINE
  5
1A49E
  8
SU
 10
423.58774396248441
 20
130.35073543228799
 30
0.0
 11
416.30647042900358
 21
130.35073543228799
 31
0.0
  0
LINE
  5
1A49F
  8
SU
 10
423.70774396248453
 20
130.55073543228781
 30
0.0
 11
416.18647042900352
 21
130.55073543228781
 31
0.0
  0
LINE
  5
1A4A0
  8
SU
 10
423.82774396248442
 20
130.75073543228811
 30
0.0
 11
416.06647042900329
 21
130.75073543228811
 31
0.0
  0
LINE
  5
1A4A1
  8
SU
 10
423.94774396248431
 20
130.9507354322879
 30
0.0
 11
415.94647042900351
 21
130.9507354322879
 31
0.0
  0
LINE
  5
1A4A2
  8
SU
 10
424.0677439624842
 20
131.15073543228809
 30
0.0
 11
415.82647042900362
 21
131.1507354322882
 31
0.0
  0
LINE
  5
1A4A3
  8
SU
 10
424.18774396248449
 20
131.35073543228799
 30
0.0
 11
415.7064704290035
 21
131.35073543228799
 31
0.0
  0
LINE
  5
1A4A4
  8
SU
 10
424.30774396248438
 20
131.55073543228781
 30
0.0
 11
415.58647042900333
 21
131.55073543228781
 31
0.0
  0
LINE
  5
1A4A5
  8
SU
 10
424.42774396248433
 20
131.75073543228811
 30
0.0
 11
415.46647042900338
 21
131.75073543228811
 31
0.0
  0
LINE
  5
1A4A6
  8
SU
 10
424.54774396248439
 20
131.9507354322879
 30
0.0
 11
415.34647042900349
 21
131.9507354322879
 31
0.0
  0
LINE
  5
1A4A7
  8
SU
 10
424.66774396248428
 20
132.15073543228809
 30
0.0
 11
415.22647042900343
 21
132.1507354322882
 31
0.0
  0
LINE
  5
1A4A8
  8
SU
 10
424.7877439624844
 20
132.35073543228799
 30
0.0
 11
415.10647042900348
 21
132.35073543228799
 31
0.0
  0
LINE
  5
1A4A9
  8
SU
 10
424.90774396248429
 20
132.55073543228781
 30
0.0
 11
414.98647042900348
 21
132.55073543228781
 31
0.0
  0
LINE
  5
1A4AA
  8
SU
 10
425.02774396248441
 20
132.75073543228811
 30
0.0
 11
414.86647042900358
 21
132.75073543228811
 31
0.0
  0
LINE
  5
1A4AB
  8
SU
 10
425.1477439624843
 20
132.9507354322879
 30
0.0
 11
414.74647042900341
 21
132.9507354322879
 31
0.0
  0
LINE
  5
1A4AC
  8
SU
 10
425.26774396248447
 20
133.15073543228809
 30
0.0
 11
414.62647042900352
 21
133.15073543228809
 31
0.0
  0
LINE
  5
1A4AD
  8
SU
 10
425.38774396248431
 20
133.35073543228799
 30
0.0
 11
414.5064704290034
 21
133.35073543228799
 31
0.0
  0
LINE
  5
1A4AE
  8
SU
 10
425.5077439624842
 20
133.55073543228781
 30
0.0
 11
414.38647042900351
 21
133.55073543228781
 31
0.0
  0
LINE
  5
1A4AF
  8
SU
 10
425.62774396248432
 20
133.75073543228811
 30
0.0
 11
414.26647042900339
 21
133.75073543228811
 31
0.0
  0
LINE
  5
1A4B0
  8
SU
 10
425.74774396248438
 20
133.9507354322879
 30
0.0
 11
414.1464704290035
 21
133.9507354322879
 31
0.0
  0
LINE
  5
1A4B1
  8
SU
 10
425.86774396248433
 20
134.15073543228809
 30
0.0
 11
414.02647042900338
 21
134.15073543228809
 31
0.0
  0
LINE
  5
1A4B2
  8
SU
 10
426.1480513835329
 20
654.10574394563082
 30
0.0
 11
420.1480513835329
 21
664.10574394563082
 31
0.0
  0
LINE
  5
1A4B3
  8
SU
 10
414.1480513835329
 20
654.10574394563082
 30
0.0
 11
420.1480513835329
 21
664.10574394563082
 31
0.0
  0
LINE
  5
1A4B4
  8
SU
 10
426.1480513835329
 20
654.10574394563082
 30
0.0
 11
414.1480513835329
 21
654.10574394563082
 31
0.0
  0
LINE
  5
1A4B5
  8
SU
 10
420.18868815027349
 20
664.03801600106362
 30
0.0
 11
420.10741461679248
 21
664.03801600106362
 31
0.0
  0
LINE
  5
1A4B6
  8
SU
 10
420.30868815027338
 20
663.83801600106381
 30
0.0
 11
419.98741461679259
 21
663.83801600106381
 31
0.0
  0
LINE
  5
1A4B7
  8
SU
 10
420.4286881502735
 20
663.63801600106353
 30
0.0
 11
419.86741461679259
 21
663.63801600106353
 31
0.0
  0
LINE
  5
1A4B8
  8
SU
 10
420.54868815027339
 20
663.4380160010636
 30
0.0
 11
419.74741461679241
 21
663.4380160010636
 31
0.0
  0
LINE
  5
1A4B9
  8
SU
 10
420.66868815027328
 20
663.23801600106344
 30
0.0
 11
419.62741461679252
 21
663.23801600106344
 31
0.0
  0
LINE
  5
1A4BA
  8
SU
 10
420.78868815027352
 20
663.03801600106362
 30
0.0
 11
419.50741461679257
 21
663.03801600106362
 31
0.0
  0
LINE
  5
1A4BB
  8
SU
 10
420.90868815027352
 20
662.83801600106381
 30
0.0
 11
419.38741461679251
 21
662.83801600106381
 31
0.0
  0
LINE
  5
1A4BC
  8
SU
 10
421.02868815027341
 20
662.63801600106353
 30
0.0
 11
419.26741461679239
 21
662.63801600106353
 31
0.0
  0
LINE
  5
1A4BD
  8
SU
 10
421.1486881502733
 20
662.43801600106372
 30
0.0
 11
419.1474146167925
 21
662.43801600106372
 31
0.0
  0
LINE
  5
1A4BE
  8
SU
 10
421.26868815027319
 20
662.23801600106344
 30
0.0
 11
419.02741461679273
 21
662.23801600106344
 31
0.0
  0
LINE
  5
1A4BF
  8
SU
 10
421.38868815027359
 20
662.03801600106362
 30
0.0
 11
418.90741461679249
 21
662.03801600106362
 31
0.0
  0
LINE
  5
1A4C0
  8
SU
 10
421.50868815027349
 20
661.83801600106369
 30
0.0
 11
418.78741461679238
 21
661.83801600106369
 31
0.0
  0
LINE
  5
1A4C1
  8
SU
 10
421.62868815027338
 20
661.63801600106353
 30
0.0
 11
418.66741461679248
 21
661.63801600106353
 31
0.0
  0
LINE
  5
1A4C2
  8
SU
 10
421.74868815027338
 20
661.43801600106372
 30
0.0
 11
418.54741461679259
 21
661.43801600106372
 31
0.0
  0
LINE
  5
1A4C3
  8
SU
 10
421.86868815027327
 20
661.23801600106344
 30
0.0
 11
418.42741461679248
 21
661.23801600106344
 31
0.0
  0
LINE
  5
1A4C4
  8
SU
 10
421.9886881502735
 20
661.03801600106351
 30
0.0
 11
418.30741461679258
 21
661.03801600106351
 31
0.0
  0
LINE
  5
1A4C5
  8
SU
 10
422.10868815027328
 20
660.83801600106369
 30
0.0
 11
418.18741461679252
 21
660.83801600106369
 31
0.0
  0
LINE
  5
1A4C6
  8
SU
 10
422.22868815027351
 20
660.63801600106353
 30
0.0
 11
418.06741461679258
 21
660.63801600106353
 31
0.0
  0
LINE
  5
1A4C7
  8
SU
 10
422.3486881502734
 20
660.43801600106372
 30
0.0
 11
417.9474146167924
 21
660.43801600106372
 31
0.0
  0
LINE
  5
1A4C8
  8
SU
 10
422.46868815027341
 20
660.23801600106344
 30
0.0
 11
417.82741461679262
 21
660.23801600106344
 31
0.0
  0
LINE
  5
1A4C9
  8
SU
 10
422.5886881502733
 20
660.03801600106362
 30
0.0
 11
417.70741461679251
 21
660.03801600106362
 31
0.0
  0
LINE
  5
1A4CA
  8
SU
 10
422.70868815027319
 20
659.83801600106381
 30
0.0
 11
417.58741461679261
 21
659.83801600106381
 31
0.0
  0
LINE
  5
1A4CB
  8
SU
 10
422.82868815027342
 20
659.63801600106353
 30
0.0
 11
417.4674146167925
 21
659.63801600106353
 31
0.0
  0
LINE
  5
1A4CC
  8
SU
 10
422.94868815027348
 20
659.4380160010636
 30
0.0
 11
417.34741461679261
 21
659.4380160010636
 31
0.0
  0
LINE
  5
1A4CD
  8
SU
 10
423.06868815027337
 20
659.23801600106344
 30
0.0
 11
417.22741461679237
 21
659.23801600106344
 31
0.0
  0
LINE
  5
1A4CE
  8
SU
 10
423.18868815027349
 20
659.03801600106362
 30
0.0
 11
417.10741461679248
 21
659.03801600106362
 31
0.0
  0
LINE
  5
1A4CF
  8
SU
 10
423.30868815027338
 20
658.83801600106381
 30
0.0
 11
416.98741461679259
 21
658.83801600106381
 31
0.0
  0
LINE
  5
1A4D0
  8
SU
 10
423.4286881502735
 20
658.63801600106353
 30
0.0
 11
416.86741461679247
 21
658.63801600106353
 31
0.0
  0
LINE
  5
1A4D1
  8
SU
 10
423.54868815027339
 20
658.43801600106372
 30
0.0
 11
416.74741461679241
 21
658.43801600106372
 31
0.0
  0
LINE
  5
1A4D2
  8
SU
 10
423.66868815027328
 20
658.23801600106344
 30
0.0
 11
416.62741461679258
 21
658.23801600106344
 31
0.0
  0
LINE
  5
1A4D3
  8
SU
 10
423.7886881502734
 20
658.03801600106362
 30
0.0
 11
416.50741461679269
 21
658.03801600106362
 31
0.0
  0
LINE
  5
1A4D4
  8
SU
 10
423.90868815027358
 20
657.83801600106381
 30
0.0
 11
416.38741461679251
 21
657.83801600106381
 31
0.0
  0
LINE
  5
1A4D5
  8
SU
 10
424.02868815027352
 20
657.63801600106353
 30
0.0
 11
416.26741461679239
 21
657.63801600106353
 31
0.0
  0
LINE
  5
1A4D6
  8
SU
 10
424.14868815027341
 20
657.43801600106372
 30
0.0
 11
416.1474146167925
 21
657.43801600106372
 31
0.0
  0
LINE
  5
1A4D7
  8
SU
 10
424.26868815027319
 20
657.23801600106344
 30
0.0
 11
416.02741461679261
 21
657.23801600106344
 31
0.0
  0
LINE
  5
1A4D8
  8
SU
 10
424.38868815027359
 20
657.03801600106351
 30
0.0
 11
415.90741461679249
 21
657.03801600106351
 31
0.0
  0
LINE
  5
1A4D9
  8
SU
 10
424.50868815027337
 20
656.83801600106369
 30
0.0
 11
415.78741461679238
 21
656.83801600106369
 31
0.0
  0
LINE
  5
1A4DA
  8
SU
 10
424.62868815027332
 20
656.63801600106353
 30
0.0
 11
415.66741461679248
 21
656.63801600106353
 31
0.0
  0
LINE
  5
1A4DB
  8
SU
 10
424.74868815027349
 20
656.43801600106372
 30
0.0
 11
415.54741461679259
 21
656.43801600106372
 31
0.0
  0
LINE
  5
1A4DC
  8
SU
 10
424.86868815027339
 20
656.23801600106344
 30
0.0
 11
415.42741461679248
 21
656.23801600106344
 31
0.0
  0
LINE
  5
1A4DD
  8
SU
 10
424.98868815027339
 20
656.03801600106362
 30
0.0
 11
415.30741461679258
 21
656.03801600106362
 31
0.0
  0
LINE
  5
1A4DE
  8
SU
 10
425.10868815027328
 20
655.83801600106381
 30
0.0
 11
415.18741461679252
 21
655.83801600106381
 31
0.0
  0
LINE
  5
1A4DF
  8
SU
 10
425.22868815027351
 20
655.63801600106353
 30
0.0
 11
415.06741461679258
 21
655.63801600106353
 31
0.0
  0
LINE
  5
1A4E0
  8
SU
 10
425.3486881502734
 20
655.43801600106372
 30
0.0
 11
414.94741461679251
 21
655.43801600106372
 31
0.0
  0
LINE
  5
1A4E1
  8
SU
 10
425.46868815027352
 20
655.23801600106344
 30
0.0
 11
414.82741461679262
 21
655.23801600106344
 31
0.0
  0
LINE
  5
1A4E2
  8
SU
 10
425.58868815027341
 20
655.03801600106362
 30
0.0
 11
414.70741461679239
 21
655.03801600106362
 31
0.0
  0
LINE
  5
1A4E3
  8
SU
 10
425.7086881502733
 20
654.83801600106381
 30
0.0
 11
414.5874146167925
 21
654.83801600106381
 31
0.0
  0
LINE
  5
1A4E4
  8
SU
 10
425.82868815027331
 20
654.63801600106353
 30
0.0
 11
414.4674146167925
 21
654.63801600106353
 31
0.0
  0
LINE
  5
1A4E5
  8
SU
 10
425.94868815027348
 20
654.43801600106372
 30
0.0
 11
414.34741461679261
 21
654.43801600106372
 31
0.0
  0
LINE
  5
1A4E6
  8
SU
 10
426.06868815027337
 20
654.23801600106344
 30
0.0
 11
414.22741461679249
 21
654.23801600106344
 31
0.0
  0
LINE
  5
1A4E7
  8
SU
 10
425.94710719574368
 20
338.1057439467258
 30
0.0
 11
419.9471071957438
 21
328.1057439467258
 31
0.0
  0
LINE
  5
1A4E8
  8
SU
 10
413.94710719574368
 20
338.1057439467258
 30
0.0
 11
419.9471071957438
 21
328.1057439467258
 31
0.0
  0
LINE
  5
1A4E9
  8
SU
 10
425.94710719574368
 20
338.1057439467258
 30
0.0
 11
413.94710719574368
 21
338.1057439467258
 31
0.0
  0
LINE
  5
1A4EA
  8
SU
 10
419.98774396248427
 20
328.17347189129299
 30
0.0
 11
419.90647042900338
 21
328.17347189129299
 31
0.0
  0
LINE
  5
1A4EB
  8
SU
 10
420.10774396248422
 20
328.37347189129281
 30
0.0
 11
419.78647042900349
 21
328.37347189129281
 31
0.0
  0
LINE
  5
1A4EC
  8
SU
 10
420.22774396248428
 20
328.57347189129308
 30
0.0
 11
419.66647042900343
 21
328.57347189129308
 31
0.0
  0
LINE
  5
1A4ED
  8
SU
 10
420.34774396248417
 20
328.7734718912929
 30
0.0
 11
419.54647042900319
 21
328.7734718912929
 31
0.0
  0
LINE
  5
1A4EE
  8
SU
 10
420.46774396248412
 20
328.97347189129317
 30
0.0
 11
419.4264704290033
 21
328.97347189129317
 31
0.0
  0
LINE
  5
1A4EF
  8
SU
 10
420.5877439624843
 20
329.17347189129299
 30
0.0
 11
419.30647042900353
 21
329.17347189129299
 31
0.0
  0
LINE
  5
1A4F0
  8
SU
 10
420.70774396248441
 20
329.37347189129281
 30
0.0
 11
419.18647042900341
 21
329.37347189129281
 31
0.0
  0
LINE
  5
1A4F1
  8
SU
 10
420.82774396248431
 20
329.57347189129308
 30
0.0
 11
419.06647042900329
 21
329.57347189129308
 31
0.0
  0
LINE
  5
1A4F2
  8
SU
 10
420.94774396248408
 20
329.7734718912929
 30
0.0
 11
418.9464704290034
 21
329.7734718912929
 31
0.0
  0
LINE
  5
1A4F3
  8
SU
 10
421.06774396248397
 20
329.97347189129317
 30
0.0
 11
418.82647042900351
 21
329.97347189129317
 31
0.0
  0
LINE
  5
1A4F4
  8
SU
 10
421.18774396248438
 20
330.17347189129299
 30
0.0
 11
418.70647042900328
 21
330.17347189129299
 31
0.0
  0
LINE
  5
1A4F5
  8
SU
 10
421.30774396248432
 20
330.37347189129281
 30
0.0
 11
418.58647042900321
 21
330.37347189129281
 31
0.0
  0
LINE
  5
1A4F6
  8
SU
 10
421.42774396248421
 20
330.57347189129308
 30
0.0
 11
418.46647042900338
 21
330.57347189129308
 31
0.0
  0
LINE
  5
1A4F7
  8
SU
 10
421.54774396248428
 20
330.7734718912929
 30
0.0
 11
418.34647042900349
 21
330.7734718912929
 31
0.0
  0
LINE
  5
1A4F8
  8
SU
 10
421.66774396248422
 20
330.97347189129317
 30
0.0
 11
418.22647042900331
 21
330.97347189129317
 31
0.0
  0
LINE
  5
1A4F9
  8
SU
 10
421.78774396248429
 20
331.17347189129299
 30
0.0
 11
418.10647042900348
 21
331.17347189129299
 31
0.0
  0
LINE
  5
1A4FA
  8
SU
 10
421.90774396248418
 20
331.37347189129281
 30
0.0
 11
417.9864704290033
 21
331.37347189129281
 31
0.0
  0
LINE
  5
1A4FB
  8
SU
 10
422.02774396248429
 20
331.57347189129308
 30
0.0
 11
417.86647042900341
 21
331.57347189129308
 31
0.0
  0
LINE
  5
1A4FC
  8
SU
 10
422.14774396248418
 20
331.7734718912929
 30
0.0
 11
417.7464704290033
 21
331.7734718912929
 31
0.0
  0
LINE
  5
1A4FD
  8
SU
 10
422.26774396248442
 20
331.97347189129317
 30
0.0
 11
417.6264704290034
 21
331.97347189129317
 31
0.0
  0
LINE
  5
1A4FE
  8
SU
 10
422.38774396248419
 20
332.17347189129299
 30
0.0
 11
417.50647042900329
 21
332.17347189129299
 31
0.0
  0
LINE
  5
1A4FF
  8
SU
 10
422.50774396248408
 20
332.37347189129281
 30
0.0
 11
417.3864704290034
 21
332.37347189129281
 31
0.0
  0
LINE
  5
1A500
  8
SU
 10
422.6277439624842
 20
332.57347189129308
 30
0.0
 11
417.26647042900328
 21
332.57347189129308
 31
0.0
  0
LINE
  5
1A501
  8
SU
 10
422.74774396248432
 20
332.7734718912929
 30
0.0
 11
417.14647042900339
 21
332.7734718912929
 31
0.0
  0
LINE
  5
1A502
  8
SU
 10
422.86774396248421
 20
332.97347189129317
 30
0.0
 11
417.02647042900321
 21
332.97347189129317
 31
0.0
  0
LINE
  5
1A503
  8
SU
 10
422.98774396248439
 20
333.17347189129299
 30
0.0
 11
416.90647042900338
 21
333.17347189129299
 31
0.0
  0
LINE
  5
1A504
  8
SU
 10
423.10774396248428
 20
333.37347189129281
 30
0.0
 11
416.78647042900349
 21
333.37347189129281
 31
0.0
  0
LINE
  5
1A505
  8
SU
 10
423.22774396248428
 20
333.57347189129308
 30
0.0
 11
416.66647042900343
 21
333.57347189129308
 31
0.0
  0
LINE
  5
1A506
  8
SU
 10
423.34774396248417
 20
333.7734718912929
 30
0.0
 11
416.54647042900331
 21
333.7734718912929
 31
0.0
  0
LINE
  5
1A507
  8
SU
 10
423.46774396248412
 20
333.97347189129317
 30
0.0
 11
416.42647042900342
 21
333.97347189129317
 31
0.0
  0
LINE
  5
1A508
  8
SU
 10
423.58774396248418
 20
334.17347189129299
 30
0.0
 11
416.30647042900353
 21
334.17347189129299
 31
0.0
  0
LINE
  5
1A509
  8
SU
 10
423.70774396248441
 20
334.37347189129281
 30
0.0
 11
416.18647042900329
 21
334.37347189129281
 31
0.0
  0
LINE
  5
1A50A
  8
SU
 10
423.82774396248431
 20
334.57347189129308
 30
0.0
 11
416.06647042900329
 21
334.57347189129308
 31
0.0
  0
LINE
  5
1A50B
  8
SU
 10
423.9477439624842
 20
334.7734718912929
 30
0.0
 11
415.9464704290034
 21
334.7734718912929
 31
0.0
  0
LINE
  5
1A50C
  8
SU
 10
424.06774396248409
 20
334.97347189129317
 30
0.0
 11
415.82647042900351
 21
334.97347189129317
 31
0.0
  0
LINE
  5
1A50D
  8
SU
 10
424.18774396248438
 20
335.17347189129299
 30
0.0
 11
415.70647042900339
 21
335.17347189129299
 31
0.0
  0
LINE
  5
1A50E
  8
SU
 10
424.30774396248432
 20
335.37347189129281
 30
0.0
 11
415.58647042900321
 21
335.37347189129281
 31
0.0
  0
LINE
  5
1A50F
  8
SU
 10
424.42774396248421
 20
335.57347189129308
 30
0.0
 11
415.46647042900332
 21
335.57347189129308
 31
0.0
  0
LINE
  5
1A510
  8
SU
 10
424.54774396248428
 20
335.7734718912929
 30
0.0
 11
415.34647042900338
 21
335.7734718912929
 31
0.0
  0
LINE
  5
1A511
  8
SU
 10
424.66774396248422
 20
335.97347189129317
 30
0.0
 11
415.22647042900343
 21
335.97347189129317
 31
0.0
  0
LINE
  5
1A512
  8
SU
 10
424.78774396248429
 20
336.17347189129299
 30
0.0
 11
415.10647042900348
 21
336.17347189129299
 31
0.0
  0
LINE
  5
1A513
  8
SU
 10
424.90774396248418
 20
336.37347189129281
 30
0.0
 11
414.9864704290033
 21
336.37347189129281
 31
0.0
  0
LINE
  5
1A514
  8
SU
 10
425.02774396248429
 20
336.57347189129308
 30
0.0
 11
414.86647042900341
 21
336.57347189129308
 31
0.0
  0
LINE
  5
1A515
  8
SU
 10
425.14774396248418
 20
336.7734718912929
 30
0.0
 11
414.7464704290033
 21
336.7734718912929
 31
0.0
  0
LINE
  5
1A516
  8
SU
 10
425.2677439624843
 20
336.97347189129317
 30
0.0
 11
414.6264704290034
 21
336.97347189129317
 31
0.0
  0
LINE
  5
1A517
  8
SU
 10
425.38774396248419
 20
337.17347189129299
 30
0.0
 11
414.50647042900329
 21
337.17347189129299
 31
0.0
  0
LINE
  5
1A518
  8
SU
 10
425.50774396248408
 20
337.37347189129281
 30
0.0
 11
414.3864704290034
 21
337.37347189129281
 31
0.0
  0
LINE
  5
1A519
  8
SU
 10
425.62774396248432
 20
337.57347189129308
 30
0.0
 11
414.26647042900328
 21
337.57347189129308
 31
0.0
  0
LINE
  5
1A51A
  8
SU
 10
425.74774396248432
 20
337.7734718912929
 30
0.0
 11
414.14647042900339
 21
337.7734718912929
 31
0.0
  0
LINE
  5
1A51B
  8
SU
 10
425.86774396248421
 20
337.97347189129317
 30
0.0
 11
414.02647042900333
 21
337.97347189129317
 31
0.0
  0
LINE
  5
1A51C
  8
SU
 10
307.19703412796162
 20
674.60574394563082
 30
0.0
 11
307.19703412796162
 21
706.60574100736153
 31
0.0
  0
LINE
  5
1A51D
  8
SU
 10
312.79704169472552
 20
638.10574394563071
 30
0.0
 11
312.79704169472552
 21
706.60574100736153
 31
0.0
  0
LINE
  5
1A51E
  8
SU
 10
307.19703412796162
 20
703.60574100736153
 30
0.0
 11
312.79704169472552
 21
703.60574100736153
 31
0.0
  0
LINE
  5
1A51F
  8
SU
 10
312.79704169472552
 20
703.60574100736153
 30
0.0
 11
337.1703750280588
 21
703.60574100736153
 31
0.0
  0
LINE
  5
1A523
  8
SU
 10
157.9470426462949
 20
125.28300748772089
 30
0.0
 11
157.9470426462949
 21
161.17861459537539
 31
0.0
  0
LINE
  5
1A524
  8
SU
 10
165.4470816945668
 20
158.17861459537539
 30
0.0
 11
157.9470426462949
 21
158.17861459537539
 31
0.0
  0
LINE
  5
1A525
  8
SU
 10
157.9470426462949
 20
158.17861459537539
 30
0.0
 11
133.57370931296151
 21
158.17861459537539
 31
0.0
  0
LINE
  5
1A528
  8
SU
 10
738.69096780949144
 20
334.48474875116239
 30
0.0
 11
738.69096780949144
 21
330.98474779943712
 31
0.0
  0
LINE
  5
1A52A
  8
SU
 10
929.44096780949167
 20
294.98474779943712
 30
0.0
 11
735.69096780949144
 21
294.98474779943712
 31
0.0
  0
LINE
  5
1A52B
  8
SU
 10
929.44096780949167
 20
261.98474875116239
 30
0.0
 11
735.69096780949144
 21
261.9847487511625
 31
0.0
  0
LINE
  5
1A52C
  8
SU
 10
738.69096780949144
 20
294.98474779943712
 30
0.0
 11
738.69096780949144
 21
261.9847487511625
 31
0.0
  0
LINE
  5
1A530
  8
SU
 10
738.69096780949144
 20
297.98474875116239
 30
0.0
 11
738.69096780949144
 21
294.98474779943712
 31
0.0
  0
LINE
  5
1A532
  8
SU
 10
842.81596780949155
 20
330.98474779943672
 30
0.0
 11
735.69096780949144
 21
330.98474779943672
 31
0.0
  0
LINE
  5
1A533
  8
SU
 10
842.81596780949155
 20
297.98474779943717
 30
0.0
 11
735.69096780949144
 21
297.98474779943717
 31
0.0
  0
LINE
  5
1A534
  8
SU
 10
738.69096780949144
 20
330.98474779943672
 30
0.0
 11
738.69096780949144
 21
297.98474779943717
 31
0.0
  0
LINE
  5
1A538
  8
SU
 10
157.9470426462949
 20
123.28300748772089
 30
0.0
 11
157.9470426462949
 21
68.283007487869952
 31
0.0
  0
LINE
  5
1A539
  8
SU
 10
174.94704169456691
 20
71.283007487869952
 30
0.0
 11
157.9470426462949
 21
71.283007487869952
 31
0.0
  0
LINE
  5
1A53C
  8
SU
 10
174.94704169456691
 20
111.28300748772089
 30
0.0
 11
174.94704169456691
 21
68.283007487720909
 31
0.0
  0
LINE
  5
1A53D
  8
SU
 10
299.94704169470828
 20
111.28300748772089
 30
0.0
 11
299.94704169470828
 21
68.283007487720909
 31
0.0
  0
LINE
  5
1A53E
  8
SU
 10
174.94704169456691
 20
71.283007487720894
 30
0.0
 11
299.94704169470828
 21
71.283007487720894
 31
0.0
  0
LINE
  5
1A542
  8
SU
 10
157.94704264629621
 20
327.10574394672608
 30
0.0
 11
157.94704264629621
 21
292.1057439467258
 31
0.0
  0
LINE
  5
1A543
  8
SU
 10
173.4470416945683
 20
295.10574394672591
 30
0.0
 11
157.94704264629621
 21
295.10574394672591
 31
0.0
  0
LINE
  5
1A544
  8
SU
 10
157.94704264629621
 20
295.10574394672591
 30
0.0
 11
128.87037597962961
 21
295.10574394672591
 31
0.0
  0
LINE
  5
1A547
  8
SU
 10
168.19703412796159
 20
674.60574394563082
 30
0.0
 11
168.19703412796159
 21
706.60574100736153
 31
0.0
  0
LINE
  5
1A548
  8
SU
 10
157.94704264629621
 20
665.10574394563048
 30
0.0
 11
157.94704264629621
 21
706.60574100736153
 31
0.0
  0
LINE
  5
1A549
  8
SU
 10
168.19703412796159
 20
703.60574100736153
 30
0.0
 11
157.94704264629621
 21
703.60574100736153
 31
0.0
  0
LINE
  5
1A54A
  8
SU
 10
157.94704264629621
 20
703.60574100736153
 30
0.0
 11
128.87037597962961
 21
703.60574100736153
 31
0.0
  0
LINE
  5
1A54E
  8
SU
 10
162.59703412796171
 20
623.10574394563082
 30
0.0
 11
162.59703412796171
 21
594.60574394562991
 31
0.0
  0
LINE
  5
1A54F
  8
SU
 10
162.59703412796171
 20
597.6057439456298
 30
0.0
 11
157.94704264629621
 21
597.6057439456298
 31
0.0
  0
LINE
  5
1A550
  8
SU
 10
157.94704264629621
 20
597.6057439456298
 30
0.0
 11
133.5737093129629
 21
597.6057439456298
 31
0.0
  0
LINE
  5
1A554
  8
SU
 10
162.59703412796171
 20
597.60574394563082
 30
0.0
 11
312.79704169472552
 21
597.60574394563082
 31
0.0
  0
LINE
  5
1A557
  8
SU
 10
308.44704169456833
 20
626.10574473009865
 30
0.0
 11
308.44704169456833
 21
574.60574394563082
 31
0.0
  0
LINE
  5
1A558
  8
SU
 10
312.79704290964361
 20
623.10574394563082
 30
0.0
 11
312.79704290964361
 21
574.60574394563082
 31
0.0
  0
LINE
  5
1A559
  8
SU
 10
308.44704169456833
 20
577.60574394563082
 30
0.0
 11
312.79704290964361
 21
577.60574394563082
 31
0.0
  0
LINE
  5
1A55A
  8
SU
 10
312.79704290964361
 20
577.60574394563082
 30
0.0
 11
337.44704290964359
 21
577.60574394563082
 31
0.0
  0
LINE
  5
1A55E
  8
SU
 10
755.27722163204135
 20
403.484747799437
 30
0.0
 11
735.69096780949144
 21
403.484747799437
 31
0.0
  0
LINE
  5
1A55F
  8
SU
 10
706.56596780949144
 20
412.4847477994341
 30
0.0
 11
741.69096780949144
 21
412.4847477994341
 31
0.0
  0
LINE
  5
1A560
  8
SU
 10
738.69096780949144
 20
403.484747799437
 30
0.0
 11
738.69096780949144
 21
412.4847477994341
 31
0.0
  0
LINE
  5
1A564
  8
SU
 10
166.94704169456821
 20
626.10574473009865
 30
0.0
 11
166.94704169456821
 21
574.60574394562991
 31
0.0
  0
LINE
  5
1A565
  8
SU
 10
157.94704264629621
 20
626.10574473009865
 30
0.0
 11
157.94704264629621
 21
574.60574394562991
 31
0.0
  0
LINE
  5
1A566
  8
SU
 10
166.94704169456821
 20
577.60574394562991
 30
0.0
 11
157.94704264629621
 21
577.60574394562991
 31
0.0
  0
LINE
  5
1A56A
  8
SU
 10
307.19703412796162
 20
703.60574100736153
 30
0.0
 11
168.19703412796159
 21
703.60574100736153
 31
0.0
  0
LINE
  5
1A56C
  8
SU
 10
670.56596780949144
 20
369.48474779943689
 30
0.0
 11
670.56596780949144
 21
207.984747799438
 31
0.0
  0
LINE
  5
1A56D
  8
SU
 10
705.5659678094911
 20
411.48474779943422
 30
0.0
 11
705.5659678094911
 21
207.984747799438
 31
0.0
  0
LINE
  5
1A56E
  8
SU
 10
670.56596780949144
 20
210.984747799438
 30
0.0
 11
705.5659678094911
 21
210.984747799438
 31
0.0
  0
LINE
  5
1A572
  8
SU
 10
843.81596780949155
 20
296.9847487511625
 30
0.0
 11
843.81596780949155
 21
207.98474779943791
 31
0.0
  0
LINE
  5
1A573
  8
SU
 10
878.81596780949167
 20
333.48474875116239
 30
0.0
 11
878.81596780949167
 21
207.98474779943791
 31
0.0
  0
LINE
  5
1A574
  8
SU
 10
843.81596780949155
 20
210.9847477994378
 30
0.0
 11
878.81596780949167
 21
210.9847477994378
 31
0.0
  0
LINE
  5
1A578
  8
SU
 10
1052.065971806895
 20
190.98474779943751
 30
0.0
 11
1061.065971806895
 21
190.98474779943751
 31
0.0
  0
LINE
  5
1A57B
  8
SU
 10
965.44096780949155
 20
296.9847487511625
 30
0.0
 11
965.44096780949155
 21
207.98474779943771
 31
0.0
  0
LINE
  5
1A57C
  8
SU
 10
930.44096780949155
 20
210.9847477994378
 30
0.0
 11
965.44096780949155
 21
210.9847477994378
 31
0.0
  0
LINE
  5
1A580
  8
SU
 10
1052.065971806895
 20
260.9847487511625
 30
0.0
 11
1052.065971806895
 21
187.98474779943771
 31
0.0
  0
LINE
  5
1A581
  8
SU
 10
930.44096780949155
 20
260.9847487511625
 30
0.0
 11
930.44096780949155
 21
187.98474779943771
 31
0.0
  0
LINE
  5
1A582
  8
SU
 10
1052.065971806895
 20
190.98474779943771
 30
0.0
 11
930.44096780949155
 21
190.98474779943771
 31
0.0
  0
LINE
  5
1A586
  8
SU
 10
546.56596780949235
 20
236.98474779943419
 30
0.0
 11
546.56596780949235
 21
167.98474779943771
 31
0.0
  0
LINE
  5
1A587
  8
SU
 10
1061.065971806895
 20
236.98474779943419
 30
0.0
 11
1061.065971806895
 21
167.98474779943771
 31
0.0
  0
LINE
  5
1A588
  8
SU
 10
546.56596780949235
 20
170.98474779943771
 30
0.0
 11
1061.065971806895
 21
170.98474779943771
 31
0.0
  0
LINE
  5
1A58A
  8
SU
 10
165.4470816945668
 20
126.183031098744
 30
0.0
 11
165.4470816945668
 21
161.17861459537539
 31
0.0
  0
LINE
  5
1A58B
  8
SU
 10
309.44702169471071
 20
126.18300739639071
 30
0.0
 11
309.44702169471071
 21
161.17861459537539
 31
0.0
  0
LINE
  5
1A58C
  8
SU
 10
165.4470816945668
 20
158.17861459537539
 30
0.0
 11
309.44702169471071
 21
158.17861459537539
 31
0.0
  0
LINE
  5
1A590
  8
SU
 10
360.9471071957451
 20
112.28300748772089
 30
0.0
 11
422.94710719574391
 21
112.28300748772089
 31
0.0
  0
LINE
  5
1A591
  8
SU
 10
419.94710719574391
 20
124.28300748772089
 30
0.0
 11
419.94710719574391
 21
112.28300748772089
 31
0.0
  0
LINE
  5
1A594
  8
SU
 10
177.24708169456699
 20
112.1354458223509
 30
0.0
 11
177.24708169456699
 21
88.283007487720909
 31
0.0
  0
LINE
  5
1A595
  8
SU
 10
297.64702169471047
 20
111.98303109874369
 30
0.0
 11
297.64702169471047
 21
88.283007487720909
 31
0.0
  0
LINE
  5
1A596
  8
SU
 10
177.24708169456699
 20
91.283007487720894
 30
0.0
 11
297.64702169471047
 21
91.283007487720894
 31
0.0
  0
LINE
  5
1A59A
  8
SU
 10
306.94708169456771
 20
126.8830310987443
 30
0.0
 11
382.9471071957451
 21
126.8830310987443
 31
0.0
  0
LINE
  5
1A59B
  8
SU
 10
379.9471071957451
 20
124.28300748772089
 30
0.0
 11
379.9471071957451
 21
126.8830310987443
 31
0.0
  0
LINE
  5
1A59C
  8
SU
 10
379.9471071957451
 20
126.8830310987443
 30
0.0
 11
379.9471071957451
 21
151.25636443207759
 31
0.0
  0
LINE
  5
1A5A0
  8
SU
 10
399.94710719574402
 20
131.28300748772091
 30
0.0
 11
399.94710719574391
 21
124.28300748772089
 31
0.0
  0
LINE
  5
1A5A3
  8
SU
 10
360.9471071957451
 20
124.28300748772089
 30
0.0
 11
422.94710719574391
 21
124.28300748772089
 31
0.0
  0
LINE
  5
1A5A4
  8
SU
 10
419.94710719574391
 20
244.28300748772091
 30
0.0
 11
419.94710719574391
 21
124.28300748772089
 31
0.0
  0
LINE
  5
1A5A6
  8
SU
 10
309.44704169456691
 20
131.28300748772091
 30
0.0
 11
402.94710719574402
 21
131.28300748772091
 31
0.0
  0
LINE
  5
1A5A7
  8
SU
 10
399.94710719574402
 20
131.28300748772091
 30
0.0
 11
399.94710719574402
 21
244.28300748772091
 31
0.0
  0
LINE
  5
1A5AA
  8
SU
 10
272.44704169456833
 20
594.17309281060989
 30
0.0
 11
272.44704169456833
 21
574.60574394563082
 31
0.0
  0
LINE
  5
1A5AB
  8
SU
 10
275.44704169456833
 20
594.17309281060989
 30
0.0
 11
275.44704169456833
 21
574.60574394563082
 31
0.0
  0
LINE
  5
1A5AC
  8
SU
 10
272.44704169456833
 20
577.60574394563082
 30
0.0
 11
275.44704169456833
 21
577.60574394563082
 31
0.0
  0
LINE
  5
1A5B0
  8
SU
 10
199.94703412796181
 20
594.17309281060989
 30
0.0
 11
199.94703412796181
 21
574.60574394563082
 31
0.0
  0
LINE
  5
1A5B1
  8
SU
 10
202.9470416945683
 20
594.17309281060989
 30
0.0
 11
202.9470416945683
 21
574.60574394563082
 31
0.0
  0
LINE
  5
1A5B2
  8
SU
 10
199.94703412796181
 20
577.60574394563082
 30
0.0
 11
202.9470416945683
 21
577.60574394563082
 31
0.0
  0
LINE
  5
1A5B6
  8
SU
 10
313.2970328608717
 20
623.60574394563082
 30
0.0
 11
382.9471071957451
 21
623.60574394563082
 31
0.0
  0
LINE
  5
1A5B7
  8
SU
 10
379.9471071957451
 20
627.10574442541451
 30
0.0
 11
379.9471071957451
 21
623.60574394563082
 31
0.0
  0
LINE
  5
1A5B8
  8
SU
 10
379.9471071957451
 20
623.60574394563082
 30
0.0
 11
379.9471071957451
 21
599.23241061229749
 31
0.0
  0
LINE
  5
1A5BC
  8
SU
 10
312.49703412796168
 20
636.60574394563093
 30
0.0
 11
402.94710719574499
 21
636.60574394563093
 31
0.0
  0
LINE
  5
1A5BD
  8
SU
 10
399.9471071957451
 20
664.10574394563105
 30
0.0
 11
399.94710719574499
 21
636.60574394563093
 31
0.0
  0
LINE
  5
1A5C1
  8
SU
 10
399.94710719574499
 20
636.60574356431493
 30
0.0
 11
399.94710719574499
 21
627.10574473009865
 31
0.0
  0
LINE
  5
1A5C4
  8
SU
 10
173.44704169463921
 20
327.10574394672631
 30
0.0
 11
173.44704169463921
 21
292.1057439467258
 31
0.0
  0
LINE
  5
1A5C5
  8
SU
 10
229.44704169463759
 20
327.1057439467258
 30
0.0
 11
229.44704169463759
 21
292.1057439467258
 31
0.0
  0
LINE
  5
1A5C6
  8
SU
 10
173.44704169463921
 20
295.10574394672591
 30
0.0
 11
229.44704169463759
 21
295.10574394672591
 31
0.0
  0
LINE
  5
1A5CA
  8
SU
 10
298.24706429112661
 20
333.10573902738793
 30
0.0
 11
382.9471071957451
 21
333.10573902738793
 31
0.0
  0
LINE
  5
1A5CB
  8
SU
 10
379.9471071957451
 20
333.10573902738793
 30
0.0
 11
379.9471071957451
 21
328.10574394672591
 31
0.0
  0
LINE
  5
1A5CC
  8
SU
 10
379.9471071957451
 20
328.10574394672591
 30
0.0
 11
379.9471071957451
 21
312.03241061339253
 31
0.0
  0
LINE
  5
1A5D0
  8
SU
 10
399.94827602634541
 20
337.1057439467258
 30
0.0
 11
399.94827602634541
 21
328.1057439467258
 31
0.0
  0
LINE
  5
1A5D3
  8
SU
 10
360.9471071957451
 20
664.10574394563105
 30
0.0
 11
422.9459383651423
 21
664.10574394563105
 31
0.0
  0
LINE
  5
1A5D4
  8
SU
 10
360.9471071957451
 20
328.10574394672591
 30
0.0
 11
422.94593836514218
 21
328.1057439467258
 31
0.0
  0
LINE
  5
1A5D5
  8
SU
 10
419.94593836514241
 20
664.10574394563105
 30
0.0
 11
419.94593836514218
 21
328.1057439467258
 31
0.0
  0
LINE
  5
1A5D7
  8
SU
 10
309.44704169456833
 20
337.1057439467258
 30
0.0
 11
402.94827602634518
 21
337.1057439467258
 31
0.0
  0
LINE
  5
1A5D8
  8
SU
 10
309.44703291288653
 20
627.10574473009865
 30
0.0
 11
402.9482760263453
 21
627.10574473009865
 31
0.0
  0
LINE
  5
1A5D9
  8
SU
 10
399.9482760263453
 20
337.1057439467258
 30
0.0
 11
399.94827602634541
 21
627.10574473009865
 31
0.0
  0
TEXT
  5
1A5DD
  8
SU
 10
707.43763249374013
 20
516.78474779943451
 30
0.0
 40
7.0
  1
9
 41
0.8299999999999999
  0
TEXT
  5
1A5DF
  8
SU
 10
871.84030115910866
 20
516.78474779943429
 30
0.0
 40
7.0
  1
有効開口
 41
0.8299999999999999
  0
TEXT
  5
1A5E2
  8
SU
 10
737.39096780949137
 20
361.49491644281238
 30
0.0
 40
7.0
  1
3
 50
90.0
 41
0.8299999999999999
  0
TEXT
  5
1A5E3
  8
SU
 10
737.39096780949126
 20
345.45141494196662
 30
0.0
 40
7.0
  1
33
 50
90.0
 41
0.8299999999999999
  0
TEXT
  5
1A5E6
  8
SU
 10
765.28430114282503
 20
223.9514144661045
 30
0.0
 40
7.0
  1
(25)
 41
0.8299999999999999
  0
TEXT
  5
1A5E7
  8
SU
 10
769.15763447615825
 20
212.28474779943789
 30
0.0
 40
7.0
  1
35
 41
0.8299999999999999
  0
TEXT
  5
1A5EA
  8
SU
 10
737.39096780949126
 20
381.4514149419665
 30
0.0
 40
7.0
  1
33
 50
90.0
 41
0.8299999999999999
  0
TEXT
  5
1A5EC
  8
SU
 10
250.4137007946284
 20
578.90574394563066
 30
0.0
 40
7.0
  1
33
 41
0.8299999999999999
  0
TEXT
  5
1A5EF
  8
SU
 10
240.51518361856759
 20
569.10574394563082
 30
0.0
 40
7.0
  1
3.5
 41
0.8299999999999999
  0
TEXT
  5
1A5F0
  8
SU
 10
268.41370836130352
 20
296.40574394672961
 30
0.0
 40
7.0
  1
56
 41
0.8299999999999999
  0
TEXT
  5
1A5F5
  8
SU
 10
227.59870836130429
 20
284.6057439467296
 30
0.0
 40
7.0
  1
16.5
 41
0.8299999999999999
  0
TEXT
  5
1A5F6
  8
SU
 10
286.4137083612348
 20
578.90574394563066
 30
0.0
 40
7.0
  1
33
 41
0.8299999999999999
  0
TEXT
  5
1A5F7
  8
SU
 10
213.9137007946284
 20
578.90574394563066
 30
0.0
 40
7.0
  1
33
 41
0.8299999999999999
  0
TEXT
  5
1A5F8
  8
SU
 10
177.9137007946284
 20
578.90574394563066
 30
0.0
 40
7.0
  1
33
 41
0.8299999999999999
  0
TEXT
  5
1A5F9
  8
SU
 10
322.86704169472557
 20
704.90574100736148
 30
0.0
 40
7.0
  1
5.6
 41
0.8299999999999999
  0
TEXT
  5
1A5FC
  8
SU
 10
134.04370931296151
 20
159.4786145953754
 30
0.0
 40
7.0
  1
7.5
 41
0.8299999999999999
  0
TEXT
  5
1A5FE
  8
SU
 10
735.23840853164484
 20
325.7805879449628
 30
0.0
 40
7.0
  1
3.5
 50
90.0
 41
0.8299999999999999
  0
TEXT
  5
1A5FF
  8
SU
 10
737.39096780949126
 20
272.95141494196662
 30
0.0
 40
7.0
  1
33
 50
90.0
 41
0.8299999999999999
  0
TEXT
  5
1A602
  8
SU
 10
734.8029965861798
 20
293.50635937560583
 30
0.0
 40
7.0
  1
3
 50
90.0
 41
0.8299999999999999
  0
TEXT
  5
1A603
  8
SU
 10
737.39096780949126
 20
308.95141446610381
 30
0.0
 40
7.0
  1
33
 50
90.0
 41
0.8299999999999999
  0
TEXT
  5
1A606
  8
SU
 10
160.4987088370975
 20
72.583007487869949
 30
0.0
 40
7.0
  1
17
 41
0.8299999999999999
  0
TEXT
  5
1A608
  8
SU
 10
228.98204169463759
 20
72.583007487720906
 30
0.0
 40
7.0
  1
125
 41
0.8299999999999999
  0
TEXT
  5
1A60B
  8
SU
 10
128.5103759796296
 20
296.40574394672592
 30
0.0
 40
7.0
  1
15.5
 41
0.8299999999999999
  0
TEXT
  5
1A60D
  8
SU
 10
128.5103759796296
 20
704.90574100736148
 30
0.0
 40
7.0
  1
10.3
 41
0.8299999999999999
  0
TEXT
  5
1A610
  8
SU
 10
134.0437093129629
 20
598.90574394562975
 30
0.0
 40
7.0
  1
4.7
 41
0.8299999999999999
  0
TEXT
  5
1A613
  8
SU
 10
206.58203412796169
 20
598.90574394563066
 30
0.0
 40
7.0
  1
150.2
 41
0.8299999999999999
  0
TEXT
  5
1A615
  8
SU
 10
322.86704290964349
 20
578.90574394563066
 30
0.0
 40
7.0
  1
4.4
 41
0.8299999999999999
  0
TEXT
  5
1A618
  8
SU
 10
737.39096780949126
 20
405.35641446610242
 30
0.0
 40
7.0
  1
9
 50
90.0
 41
0.8299999999999999
  0
TEXT
  5
1A61B
  8
SU
 10
159.81870883709891
 20
578.90574394562975
 30
0.0
 40
7.0
  1
9
 41
0.8299999999999999
  0
TEXT
  5
1A61E
  8
SU
 10
243.28606118888379
 20
704.90574100736148
 30
0.0
 40
7.0
  1
139
 41
0.8299999999999999
  0
TEXT
  5
1A61F
  8
SU
 10
678.65930114282446
 20
223.95141446610461
 30
0.0
 40
7.0
  1
(25)
 41
0.8299999999999999
  0
TEXT
  5
1A620
  8
SU
 10
682.53263447615768
 20
212.28474779943801
 30
0.0
 40
7.0
  1
35
 41
0.8299999999999999
  0
TEXT
  5
1A623
  8
SU
 10
851.90930114282503
 20
223.9514144661045
 30
0.0
 40
7.0
  1
(25)
 41
0.8299999999999999
  0
TEXT
  5
1A624
  8
SU
 10
855.78263447615825
 20
212.28474779943789
 30
0.0
 40
7.0
  1
35
 41
0.8299999999999999
  0
TEXT
  5
1A627
  8
SU
 10
1053.9376384735619
 20
192.2847477994375
 30
0.0
 40
7.0
  1
9
 41
0.8299999999999999
  0
TEXT
  5
1A629
  8
SU
 10
938.53430114282514
 20
223.95141446610441
 30
0.0
 40
7.0
  1
(25)
 41
0.8299999999999999
  0
TEXT
  5
1A62A
  8
SU
 10
942.40763447615825
 20
212.28474779943781
 30
0.0
 40
7.0
  1
35
 41
0.8299999999999999
  0
TEXT
  5
1A62D
  8
SU
 10
984.75180314152692
 20
192.2847477994377
 30
0.0
 40
7.0
  1
DW
 41
0.8299999999999999
  0
TEXT
  5
1A630
  8
SU
 10
799.07311266533679
 20
172.2847477994377
 30
0.0
 40
10.0
  1
W
 41
0.8299999999999999
  0
TEXT
  5
1A633
  8
SU
 10
217.70192202179859
 20
159.50282681291719
 30
0.0
 40
7.0
  1
144
 41
0.8299999999999999
  0
TEXT
  5
1A634
  8
SU
 10
418.6471071957439
 20
112.3346741543876
 30
0.0
 40
7.0
  1
12
 50
90.0
 41
0.8299999999999999
  0
TEXT
  5
1A636
  8
SU
 10
224.6937183613054
 20
92.583007487720906
 30
0.0
 40
7.0
  1
120.4
 41
0.8299999999999999
  0
TEXT
  5
1A639
  8
SU
 10
378.64710719574498
 20
136.9530310987443
 30
0.0
 40
7.0
  1
2.6
 50
90.0
 41
0.8299999999999999
  0
TEXT
  5
1A63C
  8
SU
 10
398.6471071957439
 20
125.0163408210542
 30
0.0
 40
7.0
  1
7
 50
90.0
 41
0.8299999999999999
  0
TEXT
  5
1A63E
  8
SU
 10
418.6471071957439
 20
205.45567678127901
 30
0.0
 40
10.0
  1
H
 50
90.0
 41
0.8299999999999999
  0
TEXT
  5
1A63F
  8
SU
 10
398.6471071957439
 20
203.51384858560951
 30
0.0
 40
7.0
  1
DH
 50
90.0
 41
0.8299999999999999
  0
TEXT
  5
1A643
  8
SU
 10
277.91704169456813
 20
569.10574394563082
 30
0.0
 40
7.0
  1
3
 41
0.8299999999999999
  0
TEXT
  5
1A646
  8
SU
 10
205.41703412796161
 20
569.10574394563082
 30
0.0
 40
7.0
  1
3
 41
0.8299999999999999
  0
TEXT
  5
1A647
  8
SU
 10
378.64710719574498
 20
599.7024106122974
 30
0.0
 40
7.0
  1
3.5
 50
90.0
 41
0.8299999999999999
  0
TEXT
  5
1A64A
  8
SU
 10
398.64710719574498
 20
640.89239455454572
 30
0.0
 40
7.0
  1
27.5
 50
90.0
 41
0.8299999999999999
  0
TEXT
  5
1A64D
  8
SU
 10
398.64710719574498
 20
603.20241139676534
 30
0.0
 40
7.0
  1
9.5
 50
90.0
 41
0.8299999999999999
  0
TEXT
  5
1A64E
  8
SU
 10
195.91370836130511
 20
296.40574394672592
 30
0.0
 40
7.0
  1
56
 41
0.8299999999999999
  0
TEXT
  5
1A651
  8
SU
 10
378.64710719574498
 20
312.50241061339261
 30
0.0
 40
7.0
  1
5
 50
90.0
 41
0.8299999999999999
  0
TEXT
  5
1A654
  8
SU
 10
398.64827602634529
 20
329.97741061339252
 30
0.0
 40
7.0
  1
9
 50
90.0
 41
0.8299999999999999
  0
TEXT
  5
1A656
  8
SU
 10
418.64593836514217
 20
478.01217806836269
 30
0.0
 40
10.0
  1
H
 50
90.0
 41
0.8299999999999999
  0
TEXT
  5
1A657
  8
SU
 10
398.64827602634529
 20
476.15741100507898
 30
0.0
 40
7.0
  1
DH
 50
90.0
 41
0.8299999999999999
  0
ARC
  5
1A65A
  8
SU
 10
705.56596780949144
 20
515.48474779943444
 30
0.0
 40
0.6000000000000229
 50
0.0
 51
180.0
  0
ARC
  5
1A65B
  8
SU
 10
705.56596780949144
 20
515.48474779943444
 30
0.0
 40
0.6000000000000229
 50
180.0
 51
0.0
  0
ARC
  5
1A65C
  8
SU
 10
714.56596384465536
 20
515.48474779943444
 30
0.0
 40
0.6000000000000229
 50
0.0
 51
180.0
  0
ARC
  5
1A65D
  8
SU
 10
714.56596384465536
 20
515.48474779943444
 30
0.0
 40
0.6000000000000229
 50
180.0
 51
0.0
  0
ARC
  5
1A65E
  8
SU
 10
1055.065971806895
 20
515.48474779943444
 30
0.0
 40
0.5999999999999091
 50
180.0
 51
0.0
  0
ARC
  5
1A65F
  8
SU
 10
1055.065971806895
 20
515.48474779943444
 30
0.0
 40
0.5999999999999091
 50
0.0
 51
180.0
  0
ARC
  5
1A660
  8
SU
 10
738.69096780949144
 20
334.48474875116239
 30
0.0
 40
0.6000000000000229
 50
90.0
 51
270.0
  0
ARC
  5
1A661
  8
SU
 10
738.69096780949144
 20
334.48474875116239
 30
0.0
 40
0.6000000000000229
 50
270.0
 51
90.0
  0
ARC
  5
1A662
  8
SU
 10
738.69096780949144
 20
367.484747799437
 30
0.0
 40
0.6000000000000229
 50
270.0
 51
90.0
  0
ARC
  5
1A663
  8
SU
 10
738.69096780949144
 20
367.484747799437
 30
0.0
 40
0.6000000000000229
 50
90.0
 51
270.0
  0
ARC
  5
1A664
  8
SU
 10
792.19096780949155
 20
210.9847477994378
 30
0.0
 40
0.6000000000000229
 50
180.0
 51
0.0
  0
ARC
  5
1A665
  8
SU
 10
792.19096780949155
 20
210.9847477994378
 30
0.0
 40
0.6000000000000229
 50
0.0
 51
180.0
  0
ARC
  5
1A666
  8
SU
 10
757.19096780949155
 20
210.9847477994378
 30
0.0
 40
0.6000000000000229
 50
0.0
 51
180.0
  0
ARC
  5
1A667
  8
SU
 10
757.19096780949155
 20
210.9847477994378
 30
0.0
 40
0.6000000000000229
 50
180.0
 51
0.0
  0
ARC
  5
1A668
  8
SU
 10
738.69096780949144
 20
370.48474875116239
 30
0.0
 40
0.6000000000000229
 50
90.0
 51
270.0
  0
ARC
  5
1A669
  8
SU
 10
738.69096780949144
 20
370.48474875116239
 30
0.0
 40
0.6000000000000229
 50
270.0
 51
90.0
  0
ARC
  5
1A66A
  8
SU
 10
239.4470416945683
 20
577.60574394563082
 30
0.0
 40
0.5999999999999944
 50
180.0
 51
0.0
  0
ARC
  5
1A66B
  8
SU
 10
239.4470416945683
 20
577.60574394563082
 30
0.0
 40
0.5999999999999944
 50
0.0
 51
180.0
  0
ARC
  5
1A66C
  8
SU
 10
235.9470416945683
 20
577.60574394563082
 30
0.0
 40
0.5999999999999944
 50
0.0
 51
180.0
  0
ARC
  5
1A66D
  8
SU
 10
235.9470416945683
 20
577.60574394563082
 30
0.0
 40
0.5999999999999944
 50
180.0
 51
0.0
  0
ARC
  5
1A66E
  8
SU
 10
301.94704169463603
 20
295.1057439467296
 30
0.0
 40
0.6000000000000229
 50
180.0
 51
0.0
  0
ARC
  5
1A66F
  8
SU
 10
301.94704169463603
 20
295.1057439467296
 30
0.0
 40
0.6000000000000229
 50
0.0
 51
180.0
  0
ARC
  5
1A670
  8
SU
 10
245.94704169463759
 20
295.1057439467296
 30
0.0
 40
0.5999999999999944
 50
0.0
 51
180.0
  0
ARC
  5
1A671
  8
SU
 10
245.94704169463759
 20
295.1057439467296
 30
0.0
 40
0.5999999999999944
 50
180.0
 51
0.0
  0
ARC
  5
1A674
  8
SU
 10
229.44704169463759
 20
295.1057439467296
 30
0.0
 40
0.5999999999999944
 50
0.0
 51
180.0
  0
ARC
  5
1A675
  8
SU
 10
229.44704169463759
 20
295.1057439467296
 30
0.0
 40
0.5999999999999944
 50
180.0
 51
0.0
  0
ARC
  5
1A676
  8
SU
 10
312.79704169472552
 20
703.60574100736153
 30
0.0
 40
0.6000000000000229
 50
180.0
 51
0.0
  0
ARC
  5
1A677
  8
SU
 10
312.79704169472552
 20
703.60574100736153
 30
0.0
 40
0.6000000000000229
 50
0.0
 51
180.0
  0
ARC
  5
1A678
  8
SU
 10
307.19703412796162
 20
703.60574100736153
 30
0.0
 40
0.6000000000000229
 50
0.0
 51
180.0
  0
ARC
  5
1A679
  8
SU
 10
307.19703412796162
 20
703.60574100736153
 30
0.0
 40
0.6000000000000229
 50
180.0
 51
0.0
  0
ARC
  5
1A67A
  8
SU
 10
157.9470426462949
 20
158.17861459537539
 30
0.0
 40
0.5999999999999944
 50
0.0
 51
180.0
  0
ARC
  5
1A67B
  8
SU
 10
157.9470426462949
 20
158.17861459537539
 30
0.0
 40
0.5999999999999944
 50
180.0
 51
0.0
  0
ARC
  5
1A67C
  8
SU
 10
738.69096780949144
 20
261.9847487511625
 30
0.0
 40
0.6000000000000229
 50
90.0
 51
270.0
  0
ARC
  5
1A67D
  8
SU
 10
738.69096780949144
 20
261.9847487511625
 30
0.0
 40
0.6000000000000229
 50
270.0
 51
90.0
  0
ARC
  5
1A67E
  8
SU
 10
738.69096780949144
 20
294.98474779943712
 30
0.0
 40
0.6000000000000229
 50
270.0
 51
90.0
  0
ARC
  5
1A67F
  8
SU
 10
738.69096780949144
 20
294.98474779943712
 30
0.0
 40
0.6000000000000229
 50
90.0
 51
270.0
  0
ARC
  5
1A680
  8
SU
 10
738.69096780949144
 20
297.98474779943717
 30
0.0
 40
0.6000000000000229
 50
90.0
 51
270.0
  0
ARC
  5
1A681
  8
SU
 10
738.69096780949144
 20
297.98474779943717
 30
0.0
 40
0.6000000000000229
 50
270.0
 51
90.0
  0
ARC
  5
1A682
  8
SU
 10
738.69096780949144
 20
330.98474779943672
 30
0.0
 40
0.6000000000000229
 50
270.0
 51
90.0
  0
ARC
  5
1A683
  8
SU
 10
738.69096780949144
 20
330.98474779943672
 30
0.0
 40
0.6000000000000229
 50
90.0
 51
270.0
  0
ARC
  5
1A684
  8
SU
 10
157.9470426462949
 20
71.283007487869952
 30
0.0
 40
0.5999999999999944
 50
0.0
 51
180.0
  0
ARC
  5
1A685
  8
SU
 10
157.9470426462949
 20
71.283007487869952
 30
0.0
 40
0.5999999999999944
 50
180.0
 51
0.0
  0
ARC
  5
1A686
  8
SU
 10
299.94704169470828
 20
71.283007487720894
 30
0.0
 40
0.6000000000000229
 50
180.0
 51
0.0
  0
ARC
  5
1A687
  8
SU
 10
299.94704169470828
 20
71.283007487720894
 30
0.0
 40
0.6000000000000229
 50
0.0
 51
180.0
  0
ARC
  5
1A688
  8
SU
 10
174.94704169456691
 20
71.283007487720894
 30
0.0
 40
0.5999999999999944
 50
0.0
 51
180.0
  0
ARC
  5
1A689
  8
SU
 10
174.94704169456691
 20
71.283007487720894
 30
0.0
 40
0.5999999999999944
 50
180.0
 51
0.0
  0
ARC
  5
1A68A
  8
SU
 10
157.94704264629621
 20
295.10574394672591
 30
0.0
 40
0.5999999999999944
 50
0.0
 51
180.0
  0
ARC
  5
1A68B
  8
SU
 10
157.94704264629621
 20
295.10574394672591
 30
0.0
 40
0.5999999999999944
 50
180.0
 51
0.0
  0
ARC
  5
1A68C
  8
SU
 10
157.94704264629621
 20
703.60574100736153
 30
0.0
 40
0.5999999999999944
 50
0.0
 51
180.0
  0
ARC
  5
1A68D
  8
SU
 10
157.94704264629621
 20
703.60574100736153
 30
0.0
 40
0.5999999999999944
 50
180.0
 51
0.0
  0
ARC
  5
1A68E
  8
SU
 10
168.19703412796159
 20
703.60574100736153
 30
0.0
 40
0.5999999999999944
 50
180.0
 51
0.0
  0
ARC
  5
1A68F
  8
SU
 10
168.19703412796159
 20
703.60574100736153
 30
0.0
 40
0.5999999999999944
 50
0.0
 51
180.0
  0
ARC
  5
1A690
  8
SU
 10
157.94704264629621
 20
597.6057439456298
 30
0.0
 40
0.5999999999999944
 50
0.0
 51
180.0
  0
ARC
  5
1A691
  8
SU
 10
157.94704264629621
 20
597.6057439456298
 30
0.0
 40
0.5999999999999944
 50
180.0
 51
0.0
  0
ARC
  5
1A692
  8
SU
 10
162.59703412796171
 20
597.6057439456298
 30
0.0
 40
0.5999999999999944
 50
180.0
 51
0.0
  0
ARC
  5
1A693
  8
SU
 10
162.59703412796171
 20
597.6057439456298
 30
0.0
 40
0.5999999999999944
 50
0.0
 51
180.0
  0
ARC
  5
1A694
  8
SU
 10
312.79704169472552
 20
597.60574394563082
 30
0.0
 40
0.6000000000000229
 50
180.0
 51
0.0
  0
ARC
  5
1A695
  8
SU
 10
312.79704169472552
 20
597.60574394563082
 30
0.0
 40
0.6000000000000229
 50
0.0
 51
180.0
  0
ARC
  5
1A696
  8
SU
 10
312.79704290964361
 20
577.60574394563082
 30
0.0
 40
0.6000000000000229
 50
180.0
 51
0.0
  0
ARC
  5
1A697
  8
SU
 10
312.79704290964361
 20
577.60574394563082
 30
0.0
 40
0.6000000000000229
 50
0.0
 51
180.0
  0
ARC
  5
1A698
  8
SU
 10
308.44704169456833
 20
577.60574394563082
 30
0.0
 40
0.6000000000000229
 50
0.0
 51
180.0
  0
ARC
  5
1A699
  8
SU
 10
308.44704169456833
 20
577.60574394563082
 30
0.0
 40
0.6000000000000229
 50
180.0
 51
0.0
  0
ARC
  5
1A69A
  8
SU
 10
738.69096780949144
 20
412.4847477994341
 30
0.0
 40
0.6000000000000229
 50
270.0
 51
90.0
  0
ARC
  5
1A69B
  8
SU
 10
738.69096780949144
 20
412.4847477994341
 30
0.0
 40
0.6000000000000229
 50
90.0
 51
270.0
  0
ARC
  5
1A69C
  8
SU
 10
738.69096780949144
 20
403.484747799437
 30
0.0
 40
0.6000000000000229
 50
90.0
 51
270.0
  0
ARC
  5
1A69D
  8
SU
 10
738.69096780949144
 20
403.484747799437
 30
0.0
 40
0.6000000000000229
 50
270.0
 51
90.0
  0
ARC
  5
1A69E
  8
SU
 10
157.94704264629621
 20
577.60574394562991
 30
0.0
 40
0.5999999999999944
 50
0.0
 51
180.0
  0
ARC
  5
1A69F
  8
SU
 10
157.94704264629621
 20
577.60574394562991
 30
0.0
 40
0.5999999999999944
 50
180.0
 51
0.0
  0
ARC
  5
1A6A0
  8
SU
 10
166.94704169456821
 20
577.60574394562991
 30
0.0
 40
0.5999999999999944
 50
180.0
 51
0.0
  0
ARC
  5
1A6A1
  8
SU
 10
166.94704169456821
 20
577.60574394562991
 30
0.0
 40
0.5999999999999944
 50
0.0
 51
180.0
  0
ARC
  5
1A6A2
  8
SU
 10
705.5659678094911
 20
210.984747799438
 30
0.0
 40
0.6000000000000229
 50
180.0
 51
0.0
  0
ARC
  5
1A6A3
  8
SU
 10
705.5659678094911
 20
210.984747799438
 30
0.0
 40
0.6000000000000229
 50
0.0
 51
180.0
  0
ARC
  5
1A6A4
  8
SU
 10
670.56596780949144
 20
210.984747799438
 30
0.0
 40
0.6000000000000229
 50
0.0
 51
180.0
  0
ARC
  5
1A6A5
  8
SU
 10
670.56596780949144
 20
210.984747799438
 30
0.0
 40
0.6000000000000229
 50
180.0
 51
0.0
  0
ARC
  5
1A6A6
  8
SU
 10
878.81596780949167
 20
210.9847477994378
 30
0.0
 40
0.6000000000000229
 50
180.0
 51
0.0
  0
ARC
  5
1A6A7
  8
SU
 10
878.81596780949167
 20
210.9847477994378
 30
0.0
 40
0.6000000000000229
 50
0.0
 51
180.0
  0
ARC
  5
1A6A8
  8
SU
 10
843.81596780949155
 20
210.9847477994378
 30
0.0
 40
0.6000000000000229
 50
0.0
 51
180.0
  0
ARC
  5
1A6A9
  8
SU
 10
843.81596780949155
 20
210.9847477994378
 30
0.0
 40
0.6000000000000229
 50
180.0
 51
0.0
  0
ARC
  5
1A6AA
  8
SU
 10
1061.065971806895
 20
190.98474779943751
 30
0.0
 40
0.5999999999999091
 50
180.0
 51
0.0
  0
ARC
  5
1A6AB
  8
SU
 10
1061.065971806895
 20
190.98474779943751
 30
0.0
 40
0.5999999999999091
 50
0.0
 51
180.0
  0
ARC
  5
1A6AC
  8
SU
 10
965.44096780949155
 20
210.9847477994378
 30
0.0
 40
0.6000000000000229
 50
180.0
 51
0.0
  0
ARC
  5
1A6AD
  8
SU
 10
965.44096780949155
 20
210.9847477994378
 30
0.0
 40
0.6000000000000229
 50
0.0
 51
180.0
  0
ARC
  5
1A6AE
  8
SU
 10
930.44096780949155
 20
210.9847477994378
 30
0.0
 40
0.6000000000000229
 50
0.0
 51
180.0
  0
ARC
  5
1A6AF
  8
SU
 10
930.44096780949155
 20
210.9847477994378
 30
0.0
 40
0.6000000000000229
 50
180.0
 51
0.0
  0
ARC
  5
1A6B0
  8
SU
 10
930.44096780949155
 20
190.98474779943771
 30
0.0
 40
0.6000000000000229
 50
0.0
 51
180.0
  0
ARC
  5
1A6B1
  8
SU
 10
930.44096780949155
 20
190.98474779943771
 30
0.0
 40
0.6000000000000229
 50
180.0
 51
0.0
  0
ARC
  5
1A6B2
  8
SU
 10
1052.065971806895
 20
190.98474779943771
 30
0.0
 40
0.5999999999999091
 50
180.0
 51
0.0
  0
ARC
  5
1A6B3
  8
SU
 10
1052.065971806895
 20
190.98474779943771
 30
0.0
 40
0.5999999999999091
 50
0.0
 51
180.0
  0
ARC
  5
1A6B4
  8
SU
 10
309.44702169471071
 20
158.17861459537539
 30
0.0
 40
0.6000000000000229
 50
180.0
 51
0.0
  0
ARC
  5
1A6B5
  8
SU
 10
309.44702169471071
 20
158.17861459537539
 30
0.0
 40
0.6000000000000229
 50
0.0
 51
180.0
  0
ARC
  5
1A6B6
  8
SU
 10
165.4470816945668
 20
158.17861459537539
 30
0.0
 40
0.5999999999999944
 50
0.0
 51
180.0
  0
ARC
  5
1A6B7
  8
SU
 10
165.4470816945668
 20
158.17861459537539
 30
0.0
 40
0.5999999999999944
 50
180.0
 51
0.0
  0
ARC
  5
1A6B8
  8
SU
 10
419.94710719574391
 20
112.28300748772089
 30
0.0
 40
0.5999999999999944
 50
90.0
 51
270.0
  0
ARC
  5
1A6B9
  8
SU
 10
419.94710719574391
 20
112.28300748772089
 30
0.0
 40
0.5999999999999944
 50
270.0
 51
90.0
  0
ARC
  5
1A6BA
  8
SU
 10
297.64702169471047
 20
91.283007487720894
 30
0.0
 40
0.6000000000000229
 50
180.0
 51
0.0
  0
ARC
  5
1A6BB
  8
SU
 10
297.64702169471047
 20
91.283007487720894
 30
0.0
 40
0.6000000000000229
 50
0.0
 51
180.0
  0
ARC
  5
1A6BC
  8
SU
 10
177.24708169456699
 20
91.283007487720894
 30
0.0
 40
0.5999999999999944
 50
0.0
 51
180.0
  0
ARC
  5
1A6BD
  8
SU
 10
177.24708169456699
 20
91.283007487720894
 30
0.0
 40
0.5999999999999944
 50
180.0
 51
0.0
  0
ARC
  5
1A6BE
  8
SU
 10
379.9471071957451
 20
126.8830310987443
 30
0.0
 40
0.5999999999999944
 50
270.0
 51
90.0
  0
ARC
  5
1A6BF
  8
SU
 10
379.9471071957451
 20
126.8830310987443
 30
0.0
 40
0.5999999999999944
 50
90.0
 51
270.0
  0
ARC
  5
1A6C0
  8
SU
 10
379.9471071957451
 20
124.28300748772089
 30
0.0
 40
0.5999999999999944
 50
90.0
 51
270.0
  0
ARC
  5
1A6C1
  8
SU
 10
379.9471071957451
 20
124.28300748772089
 30
0.0
 40
0.5999999999999944
 50
270.0
 51
90.0
  0
ARC
  5
1A6C2
  8
SU
 10
399.94710719574391
 20
124.28300748772089
 30
0.0
 40
0.5999999999999944
 50
90.0
 51
270.0
  0
ARC
  5
1A6C3
  8
SU
 10
399.94710719574391
 20
124.28300748772089
 30
0.0
 40
0.5999999999999944
 50
270.0
 51
90.0
  0
ARC
  5
1A6C4
  8
SU
 10
399.94710719574402
 20
131.28300748772091
 30
0.0
 40
0.5999999999999944
 50
90.0
 51
270.0
  0
ARC
  5
1A6C5
  8
SU
 10
399.94710719574402
 20
131.28300748772091
 30
0.0
 40
0.5999999999999944
 50
270.0
 51
90.0
  0
ARC
  5
1A6C6
  8
SU
 10
275.44704169456833
 20
577.60574394563082
 30
0.0
 40
0.6000000000000229
 50
180.0
 51
0.0
  0
ARC
  5
1A6C7
  8
SU
 10
275.44704169456833
 20
577.60574394563082
 30
0.0
 40
0.6000000000000229
 50
0.0
 51
180.0
  0
ARC
  5
1A6C8
  8
SU
 10
272.44704169456833
 20
577.60574394563082
 30
0.0
 40
0.6000000000000229
 50
0.0
 51
180.0
  0
ARC
  5
1A6C9
  8
SU
 10
272.44704169456833
 20
577.60574394563082
 30
0.0
 40
0.6000000000000229
 50
180.0
 51
0.0
  0
ARC
  5
1A6CA
  8
SU
 10
202.9470416945683
 20
577.60574394563082
 30
0.0
 40
0.5999999999999944
 50
180.0
 51
0.0
  0
ARC
  5
1A6CB
  8
SU
 10
202.9470416945683
 20
577.60574394563082
 30
0.0
 40
0.5999999999999944
 50
0.0
 51
180.0
  0
ARC
  5
1A6CC
  8
SU
 10
199.94703412796181
 20
577.60574394563082
 30
0.0
 40
0.5999999999999944
 50
0.0
 51
180.0
  0
ARC
  5
1A6CD
  8
SU
 10
199.94703412796181
 20
577.60574394563082
 30
0.0
 40
0.5999999999999944
 50
180.0
 51
0.0
  0
ARC
  5
1A6CE
  8
SU
 10
379.9471071957451
 20
623.60574394563082
 30
0.0
 40
0.6000000000000229
 50
90.0
 51
270.0
  0
ARC
  5
1A6CF
  8
SU
 10
379.9471071957451
 20
623.60574394563082
 30
0.0
 40
0.6000000000000229
 50
270.0
 51
90.0
  0
ARC
  5
1A6D0
  8
SU
 10
379.9471071957451
 20
627.10574442541451
 30
0.0
 40
0.6000000000000229
 50
270.0
 51
90.0
  0
ARC
  5
1A6D1
  8
SU
 10
379.9471071957451
 20
627.10574442541451
 30
0.0
 40
0.6000000000000229
 50
90.0
 51
270.0
  0
ARC
  5
1A6D2
  8
SU
 10
399.94710719574499
 20
636.60574394563093
 30
0.0
 40
0.6000000000000229
 50
90.0
 51
270.0
  0
ARC
  5
1A6D3
  8
SU
 10
399.94710719574499
 20
636.60574394563093
 30
0.0
 40
0.6000000000000229
 50
270.0
 51
90.0
  0
ARC
  5
1A6D4
  8
SU
 10
399.9471071957451
 20
664.10574394563105
 30
0.0
 40
0.6000000000000229
 50
270.0
 51
90.0
  0
ARC
  5
1A6D5
  8
SU
 10
399.9471071957451
 20
664.10574394563105
 30
0.0
 40
0.6000000000000229
 50
90.0
 51
270.0
  0
ARC
  5
1A6D8
  8
SU
 10
173.44704169463921
 20
295.10574394672591
 30
0.0
 40
0.5999999999999944
 50
0.0
 51
180.0
  0
ARC
  5
1A6D9
  8
SU
 10
173.44704169463921
 20
295.10574394672591
 30
0.0
 40
0.5999999999999944
 50
180.0
 51
0.0
  0
ARC
  5
1A6DA
  8
SU
 10
379.9471071957451
 20
328.10574394672591
 30
0.0
 40
0.6000000000000229
 50
90.0
 51
270.0
  0
ARC
  5
1A6DB
  8
SU
 10
379.9471071957451
 20
328.10574394672591
 30
0.0
 40
0.6000000000000229
 50
270.0
 51
90.0
  0
ARC
  5
1A6DC
  8
SU
 10
379.9471071957451
 20
333.10573902738793
 30
0.0
 40
0.6000000000000229
 50
270.0
 51
90.0
  0
ARC
  5
1A6DD
  8
SU
 10
379.9471071957451
 20
333.10573902738793
 30
0.0
 40
0.6000000000000229
 50
90.0
 51
270.0
  0
ARC
  5
1A6DE
  8
SU
 10
399.94827602634541
 20
328.1057439467258
 30
0.0
 40
0.6000000000000229
 50
90.0
 51
270.0
  0
ARC
  5
1A6DF
  8
SU
 10
399.94827602634541
 20
328.1057439467258
 30
0.0
 40
0.6000000000000229
 50
270.0
 51
90.0
  0
ARC
  5
1A6E0
  8
SU
 10
399.94827602634541
 20
627.10574473009865
 30
0.0
 40
0.6000000000000229
 50
270.0
 51
90.0
  0
ARC
  5
1A6E1
  8
SU
 10
399.94827602634541
 20
627.10574473009865
 30
0.0
 40
0.6000000000000229
 50
90.0
 51
270.0
  0
ARC
  5
1A6E2
  8
SU
 10
399.9482760263453
 20
337.1057439467258
 30
0.0
 40
0.6000000000000229
 50
90.0
 51
270.0
  0
ARC
  5
1A6E3
  8
SU
 10
399.9482760263453
 20
337.1057439467258
 30
0.0
 40
0.6000000000000229
 50
270.0
 51
90.0
  0
ENDSEC
  0
EOF
