  0
SECTION
  2
HEADER
  9
$ACADVER
  1
AC1009
  9
$INSBASE
 10
0.0
 20
0.0
 30
0.0
  9
$EXTMIN
 10
19.300000000000001
 20
16.25
 30
0.0
  9
$EXTMAX
 10
1165.5
 20
830.74999999999989
 30
0.0
  9
$LIMMIN
 10
0.0
 20
0.0
  9
$LIMMAX
 10
1189.0
 20
841.0
  9
$ORTHOMODE
 70
     1
  9
$REGENMODE
 70
     1
  9
$FILLMODE
 70
     1
  9
$QTEXTMODE
 70
     0
  9
$MIRRTEXT
 70
     0
  9
$DRAGMODE
 70
     2
  9
$LTSCALE
 40
1.0
  9
$OSMODE
 70
  3071
  9
$ATTMODE
 70
     1
  9
$TEXTSIZE
 40
12.5
  9
$TRACEWID
 40
1.0
  9
$TEXTSTYLE
  7
STANDARD
  9
$CLAYER
  8
0
  9
$CELTYPE
  6
BYLAYER
  9
$CECOLOR
 62
   256
  9
$DIMSCALE
 40
1.0
  9
$DIMASZ
 40
7.0
  9
$DIMEXO
 40
1.0
  9
$DIMDLI
 40
7.0
  9
$DIMRND
 40
0.0
  9
$DIMDLE
 40
0.0
  9
$DIMEXE
 40
3.0
  9
$DIMTP
 40
0.1
  9
$DIMTM
 40
0.1
  9
$DIMTXT
 40
7.0
  9
$DIMCEN
 40
0.0
  9
$DIMTSZ
 40
0.0
  9
$DIMTOL
 70
     0
  9
$DIMLIM
 70
     0
  9
$DIMTIH
 70
     0
  9
$DIMTOH
 70
     0
  9
$DIMSE1
 70
     0
  9
$DIMSE2
 70
     0
  9
$DIMTAD
 70
     1
  9
$DIMZIN
 70
     8
  9
$DIMBLK
  1
DOTSMALL
  9
$DIMASO
 70
     1
  9
$DIMSHO
 70
     1
  9
$DIMPOST
  1

  9
$DIMAPOST
  1
"
  9
$DIMALT
 70
     0
  9
$DIMALTD
 70
     2
  9
$DIMALTF
 40
0.0393701
  9
$DIMLFAC
 40
1.0
  9
$DIMTOFL
 70
     1
  9
$DIMTVP
 40
0.0
  9
$DIMTIX
 70
     0
  9
$DIMSOXD
 70
     0
  9
$DIMSAH
 70
     0
  9
$DIMBLK1
  1

  9
$DIMBLK2
  1

  9
$DIMSTYLE
  2
SANKYO
  9
$DIMCLRD
 70
   256
  9
$DIMCLRE
 70
   256
  9
$DIMCLRT
 70
   256
  9
$DIMTFAC
 40
0.71
  9
$DIMGAP
 40
1.3
  9
$LUNITS
 70
     2
  9
$LUPREC
 70
     4
  9
$SKETCHINC
 40
1.0
  9
$FILLETRAD
 40
0.4
  9
$AUNITS
 70
     0
  9
$AUPREC
 70
     0
  9
$MENU
  1
.
  9
$ELEVATION
 40
0.0
  9
$PELEVATION
 40
0.0
  9
$THICKNESS
 40
0.0
  9
$LIMCHECK
 70
     0
  9
$BLIPMODE
 70
     0
  9
$CHAMFERA
 40
10.0
  9
$CHAMFERB
 40
10.0
  9
$SKPOLY
 70
     0
  9
$TDCREATE
 40
2455110.561913426
  9
$TDUPDATE
 40
2459033.4688113201
  9
$TDINDWG
 40
1.861677662
  9
$TDUSRTIMER
 40
1.8614820138999999
  9
$USRTIMER
 70
     1
  9
$ANGBASE
 50
0.0
  9
$ANGDIR
 70
     0
  9
$PDMODE
 70
     0
  9
$PDSIZE
 40
0.0
  9
$PLINEWID
 40
0.0
  9
$COORDS
 70
     2
  9
$SPLFRAME
 70
     0
  9
$SPLINETYPE
 70
     6
  9
$SPLINESEGS
 70
     8
  9
$ATTDIA
 70
     1
  9
$ATTREQ
 70
     1
  9
$HANDLING
 70
     1
  9
$HANDSEED
  5
1E9B2
  9
$SURFTAB1
 70
     6
  9
$SURFTAB2
 70
     6
  9
$SURFTYPE
 70
     6
  9
$SURFU
 70
     6
  9
$SURFV
 70
     6
  9
$UCSNAME
  2

  9
$UCSORG
 10
0.0
 20
0.0
 30
0.0
  9
$UCSXDIR
 10
1.0
 20
0.0
 30
0.0
  9
$UCSYDIR
 10
0.0
 20
1.0
 30
0.0
  9
$PUCSNAME
  2

  9
$PUCSORG
 10
0.0
 20
0.0
 30
0.0
  9
$PUCSXDIR
 10
1.0
 20
0.0
 30
0.0
  9
$PUCSYDIR
 10
0.0
 20
1.0
 30
0.0
  9
$USERI1
 70
     0
  9
$USERI2
 70
     0
  9
$USERI3
 70
     0
  9
$USERI4
 70
     0
  9
$USERI5
 70
     0
  9
$USERR1
 40
0.0
  9
$USERR2
 40
0.0
  9
$USERR3
 40
0.0
  9
$USERR4
 40
0.0
  9
$USERR5
 40
0.0
  9
$WORLDVIEW
 70
     1
  9
$SHADEDGE
 70
     3
  9
$SHADEDIF
 70
    70
  9
$TILEMODE
 70
     1
  9
$MAXACTVP
 70
    48
  9
$PLIMCHECK
 70
     0
  9
$PEXTMIN
 10
1.0000000000000000E+020
 20
1.0000000000000000E+020
 30
1.0000000000000000E+020
  9
$PEXTMAX
 10
-1.0000000000000000E+020
 20
-1.0000000000000000E+020
 30
-1.0000000000000000E+020
  9
$PLIMMIN
 10
0.0
 20
0.0
  9
$PLIMMAX
 10
420.0
 20
297.0
  9
$UNITMODE
 70
     0
  9
$VISRETAIN
 70
     1
  9
$PLINEGEN
 70
     0
  9
$PSLTSCALE
 70
     1
  0
ENDSEC
  0
SECTION
  2
TABLES
  0
TABLE
  2
VPORT
 70
     1
  0
VPORT
  2
*ACTIVE
 70
     0
 10
0.0
 20
0.0
 11
1.0
 21
1.0
 12
592.41359224346638
 22
423.48359113394218
 13
0.0
 23
0.0
 14
2.5
 24
2.5
 15
10.0
 25
10.0
 16
0.0
 26
0.0
 36
1.0
 17
0.0
 27
0.0
 37
0.0
 40
820.92390940123255
 41
2.050913838120104
 42
50.0
 43
0.0
 44
0.0
 50
0.0
 51
0.0
 71
     0
 72
   100
 73
     1
 74
     1
 75
     0
 76
     0
 77
     0
 78
     0
  0
ENDTAB
  0
TABLE
  2
LTYPE
 70
    28
  0
LTYPE
  2
CONTINUOUS
 70
     0
  3
Solid line
 72
    65
 73
     0
 40
0.0
  0
LTYPE
  2
CENTER
 70
     0
  3
Center ____ _ ____ _ ____ _ ____ _ ____ _ ____
 72
    65
 73
     4
 40
50.799999999999997
 49
31.75
 49
-6.3499999999999988
 49
6.3499999999999988
 49
-6.3499999999999988
  0
LTYPE
  2
CENTER2
 70
     0
  3
Center (.5x) ___ _ ___ _ ___ _ ___ _ ___ _ ___
 72
    65
 73
     4
 40
28.574999999999999
 49
19.050000000000001
 49
-3.1749999999999989
 49
3.1749999999999989
 49
-3.1749999999999989
  0
LTYPE
  2
PHANTOM
 70
     0
  3
Phantom ______  __  __  ______  __  __  ______
 72
    65
 73
     6
 40
63.5
 49
31.75
 49
-6.3499999999999988
 49
6.3499999999999988
 49
-6.3499999999999988
 49
6.3499999999999988
 49
-6.3499999999999988
  0
LTYPE
  2
PHANTOM2
 70
     0
  3
Phantom (.5x) ___ _ _ ___ _ _ ___ _ _ ___ _ _
 72
    65
 73
     6
 40
31.75
 49
15.875
 49
-3.1749999999999989
 49
3.1749999999999989
 49
-3.1749999999999989
 49
3.1749999999999989
 49
-3.1749999999999989
  0
LTYPE
  2
DASHED
 70
     0
  3
Dashed __ __ __ __ __ __ __ __ __ __ __ __ __ _
 72
    65
 73
     2
 40
19.050000000000001
 49
12.699999999999999
 49
-6.3499999999999988
  0
LTYPE
  2
DASHED2
 70
     0
  3
Dashed (.5x) _ _ _ _ _ _ _ _ _ _ _ _ _ _ _ _ _
 72
    65
 73
     2
 40
9.5249999999999986
 49
6.3499999999999988
 49
-3.1749999999999989
  0
LTYPE
  2
ZIGZAG
 70
     0
  3
Zig zag /\/\/\/\/\/\/\/\/\/\/\/\/\/\/\/\/\/\/\/
 72
    65
 73
     4
 40
20.32254
 49
0.00254
 49
-5.0800000000000001
 49
-10.16
 49
-5.0800000000000001
  0
LTYPE
  2
AM_ISO02W050
 70
     0
  3
__ __ __ __ __ __ __ __ __ __ __ __ __ __ __
 72
    65
 73
     2
 40
7.5
 49
6.0
 49
-1.5
  0
LTYPE
  2
AMCONSTR
 70
     0
  3
_______________________
 72
    65
 73
     2
 40
9999.0
 49
9999.0
 49
0.0
  0
LTYPE
  2
AMZIGZAG
 70
     0
  3
/\/-/\/-/\/-/\/-/\/-/\/
 72
    65
 73
     2
 40
11.0001
 49
0.0001
 49
-11.0
  0
LTYPE
  2
ACJISTGB
 70
     0
  3
__ . . __ . .
 72
    65
 73
     6
 40
9.0
 49
4.0
 49
-1.0
 49
1.0
 49
-1.0
 49
1.0
 49
-1.0
  0
LTYPE
  2
ACJISTGL
 70
     0
  3
_ _ _ _ _
 72
    65
 73
     2
 40
3.0
 49
2.0
 49
-1.0
  0
LTYPE
  2
ACISOWELD
 70
     0
  3
_ _ _ _ _
 72
    65
 73
     2
 40
2.0
 49
2.0
 49
-1.0
  0
LTYPE
  2
ACISOTGB
 70
     0
  3
__ . . __ . .
 72
    65
 73
     6
 40
9.0
 49
4.0
 49
-1.0
 49
1.0
 49
-1.0
 49
1.0
 49
-1.0
  0
LTYPE
  2
ACISOTGL
 70
     0
  3
_ _ _ _ _
 72
    65
 73
     2
 40
3.0
 49
2.0
 49
-1.0
  0
LTYPE
  2
HIDDEN
 70
     0
  3
Hidden __ __ __ __ __ __ __ __ __ __ __ __ __ _
 72
    65
 73
     2
 40
9.5249999999999986
 49
6.3499999999999988
 49
-3.1749999999999989
  0
LTYPE
  2
AM_ISO08W050
 70
     0
  3
____ . ____ . ____ . ____ . ____ . ____ . ____
 72
    65
 73
     4
 40
18.0
 49
12.0
 49
-1.5
 49
3.0
 49
-1.5
  0
LTYPE
  2
AM_ISO09W050
 70
     0
  3
_____ . . _____ . . _____ . . ____ .. ____
 72
    65
 73
     6
 40
22.5
 49
12.0
 49
-1.5
 49
3.0
 49
-1.5
 49
3.0
 49
-1.5
  0
LTYPE
  2
AM_ISO08W050X2
 70
     0
  3
__ . __ . __ . __ . __ . __
 72
    65
 73
     4
 40
9.0
 49
6.0
 49
-0.75
 49
1.5
 49
-0.75
  0
LTYPE
  2
AM_ISO02W050X2
 70
     0
  3
 _ _ _ _ _ _ _ _ _ _ _ _
 72
    65
 73
     2
 40
3.75
 49
3.0
 49
-0.75
  0
LTYPE
  2
DDM
 70
     0
  3
中点線
 72
    65
 73
     2
 40
3.0
 49
2.0
 49
-1.0
  0
LTYPE
  2
DD1
 70
     0
  3
一点鎖線
 72
    65
 73
     4
 40
11.1
 49
7.5
 49
-1.1999999999999991
 49
1.1999999999999991
 49
-1.1999999999999991
  0
LTYPE
  2
DD2
 70
     0
  3
二点鎖線
 72
    65
 73
     6
 40
12.0
 49
6.0
 49
-1.1999999999999991
 49
1.1999999999999991
 49
-1.1999999999999991
 49
1.1999999999999991
 49
-1.1999999999999991
  0
LTYPE
  2
CENTER1
 70
     0
  3
----- - ----- - ----- - ----- - 
 72
    65
 73
     4
 40
10.0
 49
6.25
 49
-1.25
 49
1.25
 49
-1.25
  0
LTYPE
  2
HIDDEN2
 70
     0
  3
Hidden (.5x) _ _ _ _ _ _ _ _ _ _ _ _ _ _ _ _ _
 72
    65
 73
     2
 40
0.1875
 49
0.125
 49
-0.0625
  0
LTYPE
  2
ACANSTGB
 70
     0
  3
__ . . __ . .
 72
    65
 73
     6
 40
0.35433070866
 49
0.15748031496
 49
-0.03937007874
 49
0.03937007874
 49
-0.03937007874
 49
0.03937007874
 49
-0.03937007874
  0
LTYPE
  2
ACANSTGL
 70
     0
  3
_ _ _ _ _
 72
    65
 73
     2
 40
0.11811023622
 49
0.07874015748
 49
-0.03937007874
  0
ENDTAB
  0
TABLE
  2
LAYER
 70
    11
  0
LAYER
  2
0
 70
     0
 62
     7
  6
CONTINUOUS
  0
LAYER
  2
KI1
 70
     0
 62
     7
  6
CONTINUOUS
  0
LAYER
  2
SU
 70
     0
 62
     3
  6
CONTINUOUS
  0
LAYER
  2
MJ
 70
     0
 62
     2
  6
CONTINUOUS
  0
LAYER
  2
OS
 70
     0
 62
     2
  6
CONTINUOUS
  0
LAYER
  2
KI2
 70
     0
 62
     4
  6
CONTINUOUS
  0
LAYER
  2
PH
 70
     0
 62
     6
  6
PHANTOM2
  0
LAYER
  2
WK
 70
     4
 62
     7
  6
CONTINUOUS
  0
LAYER
  2
DEFPOINTS
 70
     1
 62
    -7
  6
CONTINUOUS
  0
LAYER
  2
TS
 70
     0
 62
     6
  6
DASHED2
  0
LAYER
  2
CL
 70
     0
 62
     4
  6
CENTER2
  0
ENDTAB
  0
TABLE
  2
STYLE
 70
     4
  0
STYLE
  2
STANDARD
 70
     0
 40
0.0
 41
0.8299999999999999
 50
0.0
 71
     0
 42
12.5
  3
romans.shx
  4
extfont.shx
  0
STYLE
  2

 70
     1
 40
0.0
 41
1.0
 50
0.0
 71
     0
 42
2.5
  3
ltypeshp.shx
  4

  0
STYLE
  2
ACISOGDT
 70
     0
 40
0.0
 41
1.0
 50
0.0
 71
     0
 42
2.5
  3
amgdt.shx
  4

  0
STYLE
  2
ACANSGDT
 70
     0
 40
0.0
 41
1.0
 50
0.0
 71
     0
 42
12.5
  3
amgdt.shx
  4

  0
ENDTAB
  0
TABLE
  2
VIEW
 70
     6
  0
VIEW
  2
AM_VIEW1
 70
     0
 40
297.5
 10
-194.33547008547001
 20
148.25
 41
457.32905982905982
 11
0.0
 21
0.0
 31
1.0
 12
0.0
 22
0.0
 32
0.0
 42
50.0
 43
0.0
 44
0.0
 50
0.0
 71
     0
  0
VIEW
  2
AM_VIEW2
 70
     0
 40
297.5
 10
189.33547008547001
 20
148.25
 41
457.32905982905982
 11
0.0
 21
0.0
 31
1.0
 12
0.0
 22
0.0
 32
0.0
 42
50.0
 43
0.0
 44
0.0
 50
0.0
 71
     0
  0
VIEW
  2
AM_VIEW3
 70
     0
 40
297.5
 10
-194.33547008547001
 20
-149.25
 41
457.32905982905982
 11
0.0
 21
0.0
 31
1.0
 12
0.0
 22
0.0
 32
0.0
 42
50.0
 43
0.0
 44
0.0
 50
0.0
 71
     0
  0
VIEW
  2
AM_VIEW4
 70
     0
 40
297.5
 10
189.33547008547001
 20
-149.25
 41
457.32905982905982
 11
0.0
 21
0.0
 31
1.0
 12
0.0
 22
0.0
 32
0.0
 42
50.0
 43
0.0
 44
0.0
 50
0.0
 71
     0
  0
VIEW
  2
AM_VIEW5
 70
     0
 40
297.5
 10
-2.5
 20
-0.5
 41
457.32905982905982
 11
0.0
 21
0.0
 31
1.0
 12
0.0
 22
0.0
 32
0.0
 42
50.0
 43
0.0
 44
0.0
 50
0.0
 71
     0
  0
VIEW
  2
AM_VIEW6
 70
     0
 40
594.99405000000002
 10
-2.5
 20
-0.5
 41
914.6489730769232
 11
0.0
 21
0.0
 31
1.0
 12
0.0
 22
0.0
 32
0.0
 42
50.0
 43
0.0
 44
0.0
 50
0.0
 71
     0
  0
ENDTAB
  0
TABLE
  2
UCS
 70
     0
  0
ENDTAB
  0
TABLE
  2
APPID
 70
    47
  0
APPID
  2
ACAD
 70
     0
  0
APPID
  2
MCAD_NO_VIS
 70
     0
  0
APPID
  2
ACAD_TEMP_GRAPHIC
 70
     0
  0
APPID
  2
ACATTRIBSERVICES
 70
     0
  0
APPID
  2
GENIUS_GENDIMSH_14
 70
     0
  0
APPID
  2
GENIUS_GENODEF_13
 70
     0
  0
APPID
  2
GENIUS_GENOENT_13
 70
     0
  0
APPID
  2
GENIUS_GENOBJ-N-TIT_13
 70
     0
  0
APPID
  2
GENIUS_GENOLIS_13
 70
     0
  0
APPID
  2
GENIUS_GENTITLE_13
 70
     0
  0
APPID
  2
GENIUS_GENOREF_13
 70
     0
  0
APPID
  2
GENIUS_GENSCREG_15
 70
     0
  0
APPID
  2
GENIUS_GENOBJ-N-SDF_13
 70
     0
  0
APPID
  2
GENIUS_GENOBJ-N-REV_13
 70
     0
  0
APPID
  2
GENIUS_GENOBJ-N-RSSYM_13
 70
     0
  0
APPID
  2
GENIUS_GENSYMENT_13
 70
     0
  0
APPID
  2
GENIUS_GENSCSYM_13
 70
     0
  0
APPID
  2
GENIUS_GENOBJ-N-CEN_13
 70
     0
  0
APPID
  2
GENIUS_GENOBJ-N-FIL_13
 70
     0
  0
APPID
  2
GENIUS_GENBH_13
 70
     0
  0
APPID
  2
GENIUS_GENOBJ-NBEHI-BHF_13
 70
     0
  0
APPID
  2
GENIUS_GENFIL_13
 70
     0
  0
APPID
  2
GENIUS_GENOBJ-N-CHA_13
 70
     0
  0
APPID
  2
GENIUS_GENOBJ-NBEHI-BHB_13
 70
     0
  0
APPID
  2
GENIUS_GENOBJ-N-CRS_13
 70
     0
  0
APPID
  2
GENIUS_GENDTOL_13
 70
     0
  0
APPID
  2
AD_DRAW
 70
     0
  0
APPID
  2
DESIGNERASSEMBLIES
 70
     0
  0
APPID
  2
ACADM_DIM_EDIT
 70
     0
  0
APPID
  2
AMDT_DM_ADJ
 70
     0
  0
APPID
  2
ACAD_PSEXT
 70
     0
  0
APPID
  2
ACAECLAYERSTANDARD
 70
     0
  0
APPID
  2
DCO15
 70
     0
  0
APPID
  2
GENIUS_GENOBJ-N-HTC_13
 70
     0
  0
APPID
  2
GENIUS_GENHATCH_13
 70
     0
  0
APPID
  2
ACAD_NAV_VCDISPLAY
 70
     0
  0
APPID
  2
ACAD_DSTYLE_DIMARC_LENGTH_
 70
     0
  0
APPID
  2
GENIUS_GENREC_14
 70
     0
  0
APPID
  2
GENIUS_GENOBJ-N-REC_13
 70
     0
  0
APPID
  2
GENIUS_GENCEN_19
 70
     0
  0
APPID
  2
ACAD_DSTYLE_DIMBREAK
 70
     0
  0
APPID
  2
ACAD_DSTYLE_DIMJAG
 70
     0
  0
APPID
  2
ACAD_DSTYLE_DIMINSPECT
 70
     0
  0
APPID
  2
ACAD_EXEMPT_FROM_CAD_STANDARDS
 70
     0
  0
APPID
  2
ACADANNOMONITORALERTICONDI
 70
     0
  0
APPID
  2
CONTENTBLOCKICON
 70
     0
  0
APPID
  2
ACAD_MLEADERVER
 70
     0
  0
ENDTAB
  0
TABLE
  2
DIMSTYLE
 70
    17
  0
DIMSTYLE
  2
SANKYO
 70
     0
  3

  4
"
  5
DOTSMALL
  6

  7

 40
1.0
 41
7.0
 42
1.0
 43
7.0
 44
3.0
 45
0.0
 46
0.0
 47
0.1
 48
0.1
140
7.0
141
0.0
142
0.0
143
0.0393701
144
1.0
145
0.0
146
0.71
147
1.3
 71
     0
 72
     0
 73
     0
 74
     0
 75
     0
 76
     0
 77
     1
 78
     8
170
     0
171
     2
172
     1
173
     0
174
     0
175
     0
176
   256
177
   256
178
   256
  0
DIMSTYLE
  2
AM_ISO
 70
     0
  3

  4
"
  5

  6

  7

 40
1.0
 41
1.6000000000000001
 42
1.0
 43
7.0
 44
1.0
 45
0.0
 46
0.0
 47
0.1
 48
0.1
140
2.5
141
0.0
142
0.0
143
0.0393701
144
1.0
145
0.0
146
0.71
147
0.625
 71
     0
 72
     0
 73
     0
 74
     0
 75
     0
 76
     0
 77
     1
 78
     8
170
     0
171
     2
172
     1
173
     0
174
     0
175
     0
176
   256
177
   256
178
   256
  0
DIMSTYLE
  2
AM_ISO$3
 70
     0
  3

  4
"
  5

  6

  7

 40
1.0
 41
1.6000000000000001
 42
1.0
 43
7.0
 44
1.0
 45
0.0
 46
0.0
 47
0.1
 48
0.1
140
2.5
141
0.0
142
0.0
143
0.0393701
144
1.0
145
0.0
146
0.71
147
0.625
 71
     0
 72
     0
 73
     0
 74
     0
 75
     0
 76
     0
 77
     1
 78
     8
170
     0
171
     2
172
     1
173
     0
174
     0
175
     0
176
   256
177
   256
178
   256
  0
DIMSTYLE
  2
AM_ISO$4
 70
     0
  3

  4
"
  5

  6

  7

 40
1.0
 41
1.6000000000000001
 42
1.0
 43
7.0
 44
1.0
 45
0.0
 46
0.0
 47
0.1
 48
0.1
140
2.5
141
0.0
142
0.0
143
0.0393701
144
1.0
145
0.0
146
0.71
147
0.625
 71
     0
 72
     0
 73
     0
 74
     0
 75
     0
 76
     0
 77
     1
 78
     8
170
     0
171
     2
172
     1
173
     0
174
     0
175
     0
176
   256
177
   256
178
   256
  0
DIMSTYLE
  2
AM_ISO$6
 70
     0
  3

  4
"
  5

  6

  7

 40
1.0
 41
1.6000000000000001
 42
1.0
 43
7.0
 44
1.0
 45
0.0
 46
0.0
 47
0.1
 48
0.1
140
2.5
141
0.0
142
0.0
143
0.0393701
144
1.0
145
0.0
146
0.71
147
0.625
 71
     0
 72
     0
 73
     0
 74
     0
 75
     0
 76
     0
 77
     0
 78
     8
170
     0
171
     2
172
     1
173
     0
174
     0
175
     0
176
   256
177
   256
178
   256
  0
DIMSTYLE
  2
AM_ISO$7
 70
     0
  3

  4
"
  5

  6

  7

 40
1.0
 41
1.6000000000000001
 42
1.0
 43
7.0
 44
1.0
 45
0.0
 46
0.0
 47
0.1
 48
0.1
140
2.5
141
0.0
142
0.0
143
0.0393701
144
1.0
145
0.0
146
0.71
147
0.625
 71
     0
 72
     0
 73
     0
 74
     0
 75
     0
 76
     0
 77
     1
 78
     8
170
     0
171
     2
172
     1
173
     0
174
     0
175
     0
176
   256
177
   256
178
   256
  0
DIMSTYLE
  2
AM_ISO$SF
 70
     0
  3

  4
"
  5

  6

  7

 40
1.0
 41
2.5
 42
1.0
 43
10.0
 44
1.0
 45
0.0
 46
0.0
 47
0.1
 48
0.1
140
3.5
141
0.0
142
0.0
143
0.0393701
144
1.0
145
0.0
146
0.71
147
1.5
 71
     0
 72
     0
 73
     0
 74
     0
 75
     1
 76
     1
 77
     1
 78
     8
170
     0
171
     2
172
     1
173
     0
174
     0
175
     0
176
   256
177
   256
178
     2
  0
DIMSTYLE
  2
AM_ISO$SH
 70
     0
  3

  4
"
  5

  6
GENAXEH
  7

 40
1.0
 41
2.5
 42
1.0
 43
10.0
 44
1.0
 45
0.0
 46
0.0
 47
0.1
 48
0.1
140
3.5
141
0.0
142
0.0
143
0.0393701
144
2.0
145
0.0
146
0.71
147
1.5
 71
     0
 72
     0
 73
     0
 74
     0
 75
     1
 76
     1
 77
     1
 78
     8
170
     0
171
     2
172
     1
173
     1
174
     0
175
     0
176
   256
177
   256
178
     2
  0
DIMSTYLE
  2
AM_ISO$2
 70
     0
  3

  4
"
  5

  6

  7

 40
1.0
 41
1.6000000000000001
 42
1.0
 43
7.0
 44
1.0
 45
0.0
 46
0.0
 47
0.1
 48
0.1
140
2.5
141
0.0
142
0.0
143
0.0393701
144
1.0
145
0.0
146
0.71
147
0.625
 71
     0
 72
     0
 73
     0
 74
     0
 75
     0
 76
     0
 77
     1
 78
     8
170
     0
171
     2
172
     1
173
     0
174
     0
175
     0
176
   256
177
   256
178
   256
  0
DIMSTYLE
  2
AM_ISO$0
 70
     0
  3

  4
"
  5

  6

  7

 40
1.0
 41
1.6000000000000001
 42
1.0
 43
7.0
 44
1.0
 45
0.0
 46
0.0
 47
0.1
 48
0.1
140
2.5
141
0.0
142
0.0
143
0.0393701
144
1.0
145
0.0
146
0.71
147
0.625
 71
     0
 72
     0
 73
     0
 74
     0
 75
     0
 76
     0
 77
     1
 78
     8
170
     0
171
     2
172
     1
173
     0
174
     0
175
     0
176
   256
177
   256
178
   256
  0
DIMSTYLE
  2
SANKYO$0
 70
     0
  3

  4
"
  5
DOTSMALL
  6

  7

 40
1.0
 41
7.0
 42
1.0
 43
7.0
 44
3.0
 45
0.0
 46
0.0
 47
0.1
 48
0.1
140
7.0
141
0.0
142
0.0
143
0.0393701
144
1.0
145
0.0
146
0.71
147
1.3
 71
     0
 72
     0
 73
     0
 74
     0
 75
     0
 76
     0
 77
     1
 78
     8
170
     0
171
     2
172
     1
173
     0
174
     0
175
     0
176
   256
177
   256
178
   256
  0
DIMSTYLE
  2
AM_ANSI
 70
     0
  3

  4
mm
  5

  6

  7

 40
1.0
 41
0.12
 42
0.05
 43
0.5
 44
0.1
 45
0.0
 46
0.0
 47
0.1
 48
0.1
140
0.12
141
0.0
142
0.0
143
25.399999999999999
144
1.0
145
0.0
146
0.71
147
0.06
 71
     0
 72
     0
 73
     1
 74
     1
 75
     0
 76
     0
 77
     0
 78
     7
170
     0
171
     2
172
     0
173
     0
174
     0
175
     0
176
   256
177
   256
178
     2
  0
DIMSTYLE
  2
AM_ANSI$3
 70
     0
  3

  4
mm
  5

  6

  7

 40
1.0
 41
0.12
 42
0.05
 43
0.5
 44
0.1
 45
0.0
 46
0.0
 47
0.1
 48
0.1
140
0.12
141
0.0
142
0.0
143
25.399999999999999
144
1.0
145
0.0
146
0.71
147
0.06
 71
     0
 72
     0
 73
     1
 74
     1
 75
     0
 76
     0
 77
     0
 78
     7
170
     0
171
     2
172
     0
173
     0
174
     0
175
     0
176
   256
177
   256
178
     2
  0
DIMSTYLE
  2
AM_ANSI$4
 70
     0
  3

  4
mm
  5

  6

  7

 40
1.0
 41
0.12
 42
0.05
 43
0.5
 44
0.1
 45
0.0
 46
0.0
 47
0.1
 48
0.1
140
0.12
141
0.0
142
0.0
143
25.399999999999999
144
1.0
145
0.0
146
0.71
147
0.06
 71
     0
 72
     0
 73
     1
 74
     1
 75
     0
 76
     0
 77
     0
 78
     7
170
     0
171
     2
172
     0
173
     0
174
     0
175
     0
176
   256
177
   256
178
     2
  0
DIMSTYLE
  2
AM_ANSI$7
 70
     0
  3

  4
mm
  5

  6

  7

 40
1.0
 41
0.12
 42
0.05
 43
0.5
 44
0.1
 45
0.0
 46
0.0
 47
0.1
 48
0.1
140
0.12
141
0.0
142
0.0
143
25.399999999999999
144
1.0
145
0.0
146
0.71
147
0.06
 71
     0
 72
     0
 73
     1
 74
     1
 75
     0
 76
     0
 77
     0
 78
     7
170
     0
171
     2
172
     0
173
     0
174
     0
175
     0
176
   256
177
   256
178
     2
  0
DIMSTYLE
  2
AM_ANSI$SF
 70
     0
  3

  4
mm
  5

  6

  7

 40
1.0
 41
0.12
 42
0.05
 43
0.5
 44
0.1
 45
0.0
 46
0.0
 47
0.1
 48
0.1
140
0.12
141
0.0
142
0.0
143
25.399999999999999
144
1.0
145
0.0
146
0.71
147
0.06
 71
     0
 72
     0
 73
     1
 74
     1
 75
     1
 76
     1
 77
     0
 78
     7
170
     0
171
     2
172
     0
173
     0
174
     0
175
     0
176
   256
177
   256
178
     2
  0
DIMSTYLE
  2
AM_ANSI$SH
 70
     0
  3

  4
mm
  5

  6
GENAXEH
  7

 40
1.0
 41
0.12
 42
0.05
 43
0.5
 44
0.1
 45
0.0
 46
0.0
 47
0.1
 48
0.1
140
0.12
141
0.0
142
0.0
143
25.399999999999999
144
1.0
145
0.0
146
0.71
147
0.06
 71
     0
 72
     0
 73
     1
 74
     1
 75
     1
 76
     1
 77
     0
 78
     7
170
     0
171
     2
172
     0
173
     1
174
     0
175
     0
176
   256
177
   256
178
     2
  0
ENDTAB
  0
ENDSEC
  0
SECTION
  2
BLOCKS
  0
BLOCK
  8
0
  2
$MODEL_SPACE
 70
     0
 10
0.0
 20
0.0
 30
0.0
  3
$MODEL_SPACE
  1

  0
ENDBLK
  5
1A
  8
0
  0
BLOCK
 67
     1
  8
0
  2
$PAPER_SPACE
 70
     0
 10
0.0
 20
0.0
 30
0.0
  3
$PAPER_SPACE
  1

  0
ENDBLK
  5
17
 67
     1
  8
0
  0
BLOCK
  8
0
  2
GENAXEH
 70
     0
 10
0.0
 20
0.0
 30
0.0
  3
GENAXEH
  1

  0
LINE
  5
102
  8
0
 10
-1.0
 20
0.0
 30
0.0
 11
1.0
 21
0.0
 31
0.0
  0
ENDBLK
  5
104
  8
0
  0
BLOCK
  8
0
  2
_OPEN
 70
     0
 10
0.0
 20
0.0
 30
0.0
  3
_OPEN
  1

  0
LINE
  5
30B
  8
0
  6
BYBLOCK
 62
     0
 10
-1.0
 20
0.1666666666666666
 30
0.0
 11
0.0
 21
0.0
 31
0.0
  0
LINE
  5
30C
  8
0
  6
BYBLOCK
 62
     0
 10
-1.0
 20
-0.1666666666666666
 30
0.0
 11
0.0
 21
0.0
 31
0.0
  0
LINE
  5
30D
  8
0
  6
BYBLOCK
 62
     0
 10
0.0
 20
0.0
 30
0.0
 11
-1.0
 21
0.0
 31
0.0
  0
ENDBLK
  5
30F
  8
0
  0
BLOCK
  8
0
  2
_DOTSMALL
 70
     0
 10
0.0
 20
0.0
 30
0.0
  3
_DOTSMALL
  1

  0
POLYLINE
  5
A331
  8
0
  6
BYBLOCK
 62
     0
 66
     1
 10
0.0
 20
0.0
 30
0.0
 70
     1
 40
0.5
 41
0.5
  0
VERTEX
  5
1E998
  8
0
  6
BYBLOCK
 62
     0
 10
-0.0625
 20
0.0
 30
0.0
 42
1.0
  0
VERTEX
  5
1E999
  8
0
  6
BYBLOCK
 62
     0
 10
0.0625
 20
0.0
 30
0.0
 42
1.0
  0
SEQEND
  5
1E99A
  8
0
  6
BYBLOCK
 62
     0
  0
ENDBLK
  5
A333
  8
0
  0
ENDSEC
  0
SECTION
  2
ENTITIES
  0
LINE
  5
9B1A
  8
WK
 10
23.5
 20
16.25
 30
0.0
 11
1165.5
 21
16.25
 31
0.0
  0
LINE
  5
9B1C
  8
WK
 10
23.5
 20
824.75
 30
0.0
 11
23.5
 21
16.25
 31
0.0
  0
TEXT
  5
9BE2
  8
WK
 10
22.5
 20
16.25
 30
0.0
 40
3.2000000000000002
  1
A0
 50
90.0
 41
0.8299999999999999
  0
LINE
  5
9C31
  8
WK
 10
1085.5
 20
34.25
 30
0.0
 11
1085.5
 21
16.25
 31
0.0
  0
LINE
  5
9C32
  8
WK
 10
890.49999999999989
 20
34.25
 30
0.0
 11
890.49999999999989
 21
16.25
 31
0.0
  0
LINE
  5
9C34
  8
WK
 10
1045.5
 20
34.25
 30
0.0
 11
1045.5
 21
16.25
 31
0.0
  0
LINE
  5
9C35
  8
WK
 10
1065.5
 20
34.25
 30
0.0
 11
1065.5
 21
16.25
 31
0.0
  0
LINE
  5
9C37
  8
WK
 10
1005.5
 20
34.25
 30
0.0
 11
1005.5
 21
16.25
 31
0.0
  0
LINE
  5
9C38
  8
WK
 10
985.5
 20
34.25
 30
0.0
 11
985.5
 21
16.25
 31
0.0
  0
LINE
  5
9C3A
  8
WK
 10
890.49999999999989
 20
34.25
 30
0.0
 11
1165.5
 21
34.25
 31
0.0
  0
LINE
  5
9C3B
  8
WK
 10
899.5
 20
26.25
 30
0.0
 11
972.49999999999989
 21
26.25
 31
0.0
  0
LINE
  5
9C3E
  8
WK
 10
1005.5
 20
22.25
 30
0.0
 11
1045.5
 21
22.25
 31
0.0
  0
LINE
  5
9C3F
  8
WK
 10
1005.5
 20
28.25
 30
0.0
 11
1045.5
 21
28.25
 31
0.0
  0
LINE
  5
9C46
  8
WK
 10
1151.8094750193111
 20
25.25
 30
0.0
 11
1163.8094750193111
 21
25.25
 31
0.0
  0
CIRCLE
  5
9C47
  8
WK
 10
1157.8094750193111
 20
25.25
 30
0.0
 40
6.0
  0
TEXT
  5
9C56
  8
WK
 10
992.52780952380954
 20
20.649999643948512
 30
0.0
 40
3.2000000000000002
  1
1:1
 41
0.8299999999999999
 72
     4
 11
995.5
 21
22.249999643948509
 31
0.0
  0
TEXT
  5
9C57
  8
WK
 10
1087.8031333333331
 20
30.150000000000009
 30
0.0
 40
3.2000000000000002
  1
図番
 41
0.8299999999999999
  0
TEXT
  5
9C58
  8
WK
 10
1067.9290000000001
 20
30.150000000000009
 30
0.0
 40
3.2000000000000002
  1
検図
 41
0.8299999999999999
  0
TEXT
  5
9C59
  8
WK
 10
1047.9290000000001
 20
30.150000000000009
 30
0.0
 40
3.2000000000000002
  1
作図
 41
0.8299999999999999
  0
TEXT
  5
9C5A
  8
WK
 10
1006.5535725057121
 20
29.149999999999999
 30
0.0
 40
3.2000000000000002
  1
作成
 41
0.8299999999999999
  0
TEXT
  5
9C5B
  8
WK
 10
1006.5535725057121
 20
23.149999999999999
 30
0.0
 40
3.2000000000000002
  1
制定
 41
0.8299999999999999
  0
TEXT
  5
9C5C
  8
WK
 10
1006.5535725057121
 20
17.149999999999999
 30
0.0
 40
3.2000000000000002
  1
廃止
 41
0.8299999999999999
  0
TEXT
  5
9C5D
  8
WK
 10
986.42899999999997
 20
30.149999999999999
 30
0.0
 40
3.2000000000000002
  1
尺度
 41
0.8299999999999999
  0
TEXT
  5
9C5E
  8
WK
 10
973.49999999999989
 20
18.25
 30
0.0
 40
4.0
  1
基準図
 41
0.8
  0
TEXT
  5
9C77
  8
WK
 10
892.30313333333345
 20
30.150000000000009
 30
0.0
 40
3.2000000000000002
  1
図名
 41
0.8299999999999999
  0
LINE
  5
9E0D
  8
WK
 10
23.5
 20
824.75
 30
0.0
 11
1165.5
 21
824.75
 31
0.0
  0
LINE
  5
9E18
  8
WK
 10
1165.5
 20
824.75
 30
0.0
 11
1165.5
 21
16.25
 31
0.0
  0
TEXT
  5
12887
  8
WK
 10
1130.0726417273511
 20
826.75
 30
0.0
 40
4.0
  1
大栄建材株式会社
 41
0.9
 72
     2
 11
1163.672641727351
 21
826.75
 31
0.0
  0
TEXT
  5
13021
  8
MJ
 10
1005.5
 20
42.25
 30
0.0
 40
7.0
  1
cl11a005
 41
0.8299999999999999
  0
TEXT
  5
13022
  8
MJ
 10
1005.5
 20
69.25
 30
0.0
 40
7.0
  1
クレーヴァ25・35　Ｙレール引戸
 41
0.8299999999999999
  0
TEXT
  5
13023
  8
MJ
 10
1005.5
 20
60.25
 30
0.0
 40
7.0
  1
引分け戸
 41
0.8299999999999999
  0
TEXT
  5
13024
  8
MJ
 10
1005.5
 20
78.25
 30
0.0
 40
7.0
  1
スーパースクリーン　クレーヴァ
 41
0.8299999999999999
  0
TEXT
  5
13025
  8
MJ
 10
1005.5
 20
51.25
 30
0.0
 40
7.0
  1
たて横断面
 41
0.8299999999999999
  0
LINE
  5
16516
  8
PH
 10
540.38748865054902
 20
296.48474779943621
 30
0.0
 11
690.38748865054845
 21
296.48474779943717
 31
0.0
  0
LINE
  5
16517
  8
PH
 10
690.38748865054845
 20
263.48474779943717
 30
0.0
 11
540.38748865054902
 21
263.48474779943621
 31
0.0
  0
LINE
  5
16518
  8
PH
 10
540.38748865054902
 20
296.48474779943672
 30
0.0
 11
540.38748865054902
 21
263.48474779943672
 31
0.0
  0
LINE
  5
1651A
  8
KI2
 10
537.38748865054924
 20
261.48474875116398
 30
0.0
 11
1076.387488650548
 21
261.48474875116398
 31
0.0
  0
LINE
  5
1651B
  8
KI2
 10
537.38748865054924
 20
277.88474875116412
 30
0.0
 11
655.38749016153781
 21
277.88474875116418
 31
0.0
  0
LINE
  5
1651C
  8
KI2
 10
537.38748865054924
 20
289.98474875116398
 30
0.0
 11
655.38748865054845
 21
289.98474875116398
 31
0.0
  0
LINE
  5
1651D
  8
KI2
 10
537.38748865054924
 20
282.084748751164
 30
0.0
 11
655.38749117692237
 21
282.084748751164
 31
0.0
  0
LINE
  5
1651E
  8
KI1
 10
655.38748865054879
 20
296.484747799437
 30
0.0
 11
806.88748865054924
 21
296.484747799437
 31
0.0
  0
LINE
  5
1651F
  8
KI1
 10
806.88748865054924
 20
296.484747799437
 30
0.0
 11
806.88748865054924
 21
263.4847487511625
 31
0.0
  0
LINE
  5
16520
  8
KI1
 10
806.88748865054924
 20
263.4847487511625
 30
0.0
 11
655.38748865054879
 21
263.4847487511625
 31
0.0
  0
LINE
  5
16521
  8
KI1
 10
655.38748865054879
 20
263.4847487511625
 30
0.0
 11
655.38748865054879
 21
296.484747799437
 31
0.0
  0
LINE
  5
16522
  8
PH
 10
690.38748865054845
 20
296.484747799437
 30
0.0
 11
690.38748865054845
 21
263.4847487511625
 31
0.0
  0
LINE
  5
16523
  8
OS
 10
518.88748865054924
 20
347.98474779943439
 30
0.0
 11
472.88748620202028
 21
301.98467815573679
 31
0.0
  0
LINE
  5
16524
  8
OS
 10
472.88748620202028
 20
232.4847477994343
 30
0.0
 11
518.88748865054924
 21
232.4847477994343
 31
0.0
  0
LINE
  5
16525
  8
OS
 10
472.88748620202028
 20
230.4847477994343
 30
0.0
 11
531.38748865054924
 21
230.4847477994343
 31
0.0
  0
LINE
  5
16526
  8
OS
 10
472.88748620202028
 20
224.4847477994343
 30
0.0
 11
537.38748865054924
 21
224.4847477994343
 31
0.0
  0
LINE
  5
16527
  8
OS
 10
472.88748620202028
 20
288.98492125943528
 30
0.0
 11
518.88748865054924
 21
242.9847477994343
 31
0.0
  0
LINE
  5
16528
  8
OS
 10
472.88748620202028
 20
240.9847477994343
 30
0.0
 11
518.88748865054924
 21
240.9847477994343
 31
0.0
  0
LINE
  5
16529
  8
OS
 10
472.88748620202028
 20
242.9847477994343
 30
0.0
 11
518.88748865055743
 21
242.9847477994343
 31
0.0
  0
LINE
  5
1652A
  8
OS
 10
472.88748620202028
 20
358.48474779943439
 30
0.0
 11
677.88748865054845
 21
358.48474779943439
 31
0.0
  0
LINE
  5
1652B
  8
OS
 10
472.88748620202028
 20
360.48474779943439
 30
0.0
 11
690.38748865054845
 21
360.48474779943439
 31
0.0
  0
LINE
  5
1652C
  8
OS
 10
472.88748620202028
 20
366.48474779943427
 30
0.0
 11
696.38748865054845
 21
366.48474779943439
 31
0.0
  0
LINE
  5
1652D
  8
OS
 10
472.88748620202028
 20
349.98474779943439
 30
0.0
 11
677.88748865054845
 21
349.98474779943439
 31
0.0
  0
LINE
  5
1652E
  8
OS
 10
472.88748620202028
 20
347.98474779943439
 30
0.0
 11
677.88748865054845
 21
347.98474779943439
 31
0.0
  0
LINE
  5
1652F
  8
OS
 10
518.88748865054924
 20
317.98474779943427
 30
0.0
 11
677.88748865054845
 21
317.98474779943427
 31
0.0
  0
LINE
  5
16530
  8
OS
 10
518.88748865054924
 20
305.48474779943422
 30
0.0
 11
690.38748865054845
 21
305.48474779943427
 31
0.0
  0
LINE
  5
16531
  8
OS
 10
537.38748865054924
 20
299.48474779943422
 30
0.0
 11
696.38748865054845
 21
299.48474779943427
 31
0.0
  0
LINE
  5
16532
  8
OS
 10
518.88748865054924
 20
347.98474779943439
 30
0.0
 11
518.88748865054924
 21
230.4847477994343
 31
0.0
  0
LINE
  5
16533
  8
OS
 10
520.88748865054902
 20
305.4847497994358
 30
0.0
 11
520.88748865054924
 21
230.4847477994343
 31
0.0
  0
LINE
  5
16534
  8
OS
 10
531.38748865054902
 20
305.48474779943422
 30
0.0
 11
531.38748865054924
 21
230.4847477994343
 31
0.0
  0
LINE
  5
16535
  8
OS
 10
529.38748865054902
 20
305.48474779943422
 30
0.0
 11
529.38748865054924
 21
230.4847477994343
 31
0.0
  0
LINE
  5
16536
  8
OS
 10
537.38748865054924
 20
299.48474779943422
 30
0.0
 11
537.38748865054924
 21
224.4847477994343
 31
0.0
  0
LINE
  5
16537
  8
OS
 10
548.88748865054924
 20
347.98474779943439
 30
0.0
 11
548.88748865054924
 21
317.98474779943422
 31
0.0
  0
LINE
  5
16538
  8
OS
 10
548.88748865054924
 20
317.98474779943427
 30
0.0
 11
518.88748865054924
 21
347.98474779943439
 31
0.0
  0
LINE
  5
16539
  8
OS
 10
647.88748865054856
 20
347.98474779943439
 30
0.0
 11
647.88748865054856
 21
317.98474779943422
 31
0.0
  0
LINE
  5
1653A
  8
OS
 10
647.88748865054856
 20
347.98474779943439
 30
0.0
 11
677.88748865054845
 21
317.98474779943427
 31
0.0
  0
LINE
  5
1653B
  8
OS
 10
518.88748865054924
 20
315.9847477994341
 30
0.0
 11
677.88748865054845
 21
315.98474779943422
 31
0.0
  0
LINE
  5
1653C
  8
OS
 10
518.88748865054924
 20
307.48474779943427
 30
0.0
 11
677.88748865054845
 21
307.48474779943427
 31
0.0
  0
LINE
  5
1653D
  8
OS
 10
690.38748865054845
 20
305.48474779943427
 30
0.0
 11
690.38748865054845
 21
360.48474779943439
 31
0.0
  0
LINE
  5
1653E
  8
OS
 10
696.38748865054845
 20
299.48474779943427
 30
0.0
 11
696.38748865054845
 21
366.48474779943439
 31
0.0
  0
LINE
  5
1653F
  8
OS
 10
688.38748865054845
 20
305.48474779943427
 30
0.0
 11
688.38748865054845
 21
360.48474779943439
 31
0.0
  0
LINE
  5
16540
  8
OS
 10
677.88748865054845
 20
305.48474779943427
 30
0.0
 11
677.88748865054845
 21
360.48474779943439
 31
0.0
  0
LINE
  5
16541
  8
OS
 10
679.88748865054845
 20
305.48474779943427
 30
0.0
 11
679.88748865054845
 21
360.48474779943439
 31
0.0
  0
TEXT
  5
16548
  8
SU
 10
626.41974457842946
 20
384.36158451676653
 30
0.0
 40
7.9999999999999982
  1
巾木
 41
0.9
  0
LINE
  5
1654A
  8
PH
 10
1073.3874886505489
 20
296.48474779943621
 30
0.0
 11
923.3874886505489
 21
296.48474779943717
 31
0.0
  0
LINE
  5
1654B
  8
PH
 10
923.3874886505489
 20
263.48474779943717
 30
0.0
 11
1073.3874886505489
 21
263.48474779943621
 31
0.0
  0
LINE
  5
1654C
  8
PH
 10
1073.3874886505489
 20
296.48474779943672
 30
0.0
 11
1073.3874886505489
 21
263.48474779943672
 31
0.0
  0
LINE
  5
1654F
  8
KI2
 10
1076.387488650548
 20
277.88474875116412
 30
0.0
 11
958.38748713955999
 21
277.88474875116418
 31
0.0
  0
LINE
  5
16550
  8
KI2
 10
1076.387488650548
 20
289.98474875116398
 30
0.0
 11
958.38748865054913
 21
289.98474875116398
 31
0.0
  0
LINE
  5
16551
  8
KI2
 10
1076.387488650548
 20
282.084748751164
 30
0.0
 11
958.3874861241751
 21
282.084748751164
 31
0.0
  0
LINE
  5
16552
  8
KI1
 10
958.38748865054913
 20
296.484747799437
 30
0.0
 11
806.88748865054924
 21
296.484747799437
 31
0.0
  0
LINE
  5
16554
  8
KI1
 10
806.88748865054924
 20
263.4847487511625
 30
0.0
 11
958.38748865054913
 21
263.4847487511625
 31
0.0
  0
LINE
  5
16555
  8
KI1
 10
958.38748865054913
 20
263.4847487511625
 30
0.0
 11
958.38748865054913
 21
296.484747799437
 31
0.0
  0
LINE
  5
16556
  8
PH
 10
923.3874886505489
 20
296.484747799437
 30
0.0
 11
923.3874886505489
 21
263.4847487511625
 31
0.0
  0
LINE
  5
16557
  8
OS
 10
1094.8874886505489
 20
347.98474779943439
 30
0.0
 11
1140.8874910990769
 21
301.98467815573679
 31
0.0
  0
LINE
  5
16558
  8
OS
 10
1140.8874910990769
 20
232.4847477994343
 30
0.0
 11
1094.8874886505489
 21
232.4847477994343
 31
0.0
  0
LINE
  5
16559
  8
OS
 10
1140.8874910990769
 20
230.4847477994343
 30
0.0
 11
1082.3874886505489
 21
230.4847477994343
 31
0.0
  0
LINE
  5
1655A
  8
OS
 10
1140.8874910990769
 20
224.4847477994343
 30
0.0
 11
1076.387488650548
 21
224.4847477994343
 31
0.0
  0
LINE
  5
1655B
  8
OS
 10
1140.8874910990769
 20
288.98492125943528
 30
0.0
 11
1094.8874886505489
 21
242.9847477994343
 31
0.0
  0
LINE
  5
1655C
  8
OS
 10
1140.8874910990769
 20
240.9847477994343
 30
0.0
 11
1094.8874886505489
 21
240.9847477994343
 31
0.0
  0
LINE
  5
1655D
  8
OS
 10
1140.8874910990769
 20
242.9847477994343
 30
0.0
 11
1094.88748865054
 21
242.9847477994343
 31
0.0
  0
LINE
  5
1655E
  8
OS
 10
1140.8874910990769
 20
358.48474779943439
 30
0.0
 11
935.8874886505489
 21
358.48474779943439
 31
0.0
  0
LINE
  5
1655F
  8
OS
 10
1140.8874910990769
 20
360.48474779943439
 30
0.0
 11
923.3874886505489
 21
360.48474779943439
 31
0.0
  0
LINE
  5
16560
  8
OS
 10
1140.8874910990769
 20
366.48474779943427
 30
0.0
 11
917.38748865054902
 21
366.48474779943439
 31
0.0
  0
LINE
  5
16561
  8
OS
 10
1140.8874910990769
 20
349.98474779943439
 30
0.0
 11
935.8874886505489
 21
349.98474779943439
 31
0.0
  0
LINE
  5
16562
  8
OS
 10
1140.8874910990769
 20
347.98474779943439
 30
0.0
 11
935.8874886505489
 21
347.98474779943439
 31
0.0
  0
LINE
  5
16563
  8
OS
 10
1094.8874886505489
 20
317.98474779943427
 30
0.0
 11
935.8874886505489
 21
317.98474779943427
 31
0.0
  0
LINE
  5
16564
  8
OS
 10
1094.8874886505489
 20
305.48474779943422
 30
0.0
 11
923.3874886505489
 21
305.48474779943427
 31
0.0
  0
LINE
  5
16565
  8
OS
 10
1076.387488650548
 20
299.48474779943422
 30
0.0
 11
917.38748865054902
 21
299.48474779943427
 31
0.0
  0
LINE
  5
16566
  8
OS
 10
1094.8874886505489
 20
347.98474779943439
 30
0.0
 11
1094.8874886505489
 21
230.4847477994343
 31
0.0
  0
LINE
  5
16567
  8
OS
 10
1092.887488650548
 20
305.4847497994358
 30
0.0
 11
1092.887488650548
 21
230.4847477994343
 31
0.0
  0
LINE
  5
16568
  8
OS
 10
1082.3874886505489
 20
305.48474779943422
 30
0.0
 11
1082.3874886505489
 21
230.4847477994343
 31
0.0
  0
LINE
  5
16569
  8
OS
 10
1084.387488650548
 20
305.48474779943422
 30
0.0
 11
1084.387488650548
 21
230.4847477994343
 31
0.0
  0
LINE
  5
1656A
  8
OS
 10
1076.387488650548
 20
299.48474779943422
 30
0.0
 11
1076.387488650548
 21
224.4847477994343
 31
0.0
  0
LINE
  5
1656B
  8
OS
 10
1064.8874886505489
 20
347.98474779943439
 30
0.0
 11
1064.8874886505489
 21
317.98474779943422
 31
0.0
  0
LINE
  5
1656C
  8
OS
 10
1064.8874886505489
 20
317.98474779943427
 30
0.0
 11
1094.8874886505489
 21
347.98474779943439
 31
0.0
  0
LINE
  5
1656D
  8
OS
 10
965.88748865054902
 20
347.98474779943439
 30
0.0
 11
965.88748865054902
 21
317.98474779943422
 31
0.0
  0
LINE
  5
1656E
  8
OS
 10
965.88748865054902
 20
347.98474779943439
 30
0.0
 11
935.8874886505489
 21
317.98474779943427
 31
0.0
  0
LINE
  5
1656F
  8
OS
 10
1094.8874886505489
 20
315.9847477994341
 30
0.0
 11
935.8874886505489
 21
315.98474779943422
 31
0.0
  0
LINE
  5
16570
  8
OS
 10
1094.8874886505489
 20
307.48474779943427
 30
0.0
 11
935.8874886505489
 21
307.48474779943427
 31
0.0
  0
LINE
  5
16571
  8
OS
 10
923.3874886505489
 20
305.48474779943427
 30
0.0
 11
923.3874886505489
 21
360.48474779943439
 31
0.0
  0
LINE
  5
16572
  8
OS
 10
917.38748865054902
 20
299.48474779943427
 30
0.0
 11
917.38748865054902
 21
366.48474779943439
 31
0.0
  0
LINE
  5
16573
  8
OS
 10
925.38748865054902
 20
305.48474779943427
 30
0.0
 11
925.38748865054902
 21
360.48474779943439
 31
0.0
  0
LINE
  5
16574
  8
OS
 10
935.8874886505489
 20
305.48474779943427
 30
0.0
 11
935.8874886505489
 21
360.48474779943439
 31
0.0
  0
LINE
  5
16575
  8
OS
 10
933.88748865054902
 20
305.48474779943427
 30
0.0
 11
933.88748865054902
 21
360.48474779943439
 31
0.0
  0
TEXT
  5
16577
  8
SU
 10
971.5152327226682
 20
384.36158451676653
 30
0.0
 40
7.9999999999999982
  1
巾木
 41
0.9
  0
LINE
  5
16E4D
  8
SU
 10
653.61457218398812
 20
365.76397484082707
 30
0.0
 11
654.56555705025266
 21
362.87509481837282
 31
0.0
  0
LINE
  5
16E4E
  8
SU
 10
652.72904271001732
 20
365.2993916397437
 30
0.0
 11
654.56555705025266
 21
362.87509481837282
 31
0.0
  0
LINE
  5
16E4F
  8
SU
 10
654.56555705025266
 20
362.87509481837282
 30
0.0
 11
653.17180744700272
 21
365.53168324028542
 31
0.0
  0
LINE
  5
16E50
  8
SU
 10
653.17180744700272
 20
365.53168324028542
 30
0.0
 11
644.55714040556074
 21
381.95186708648021
 31
0.0
1001
ACAD
1000
DSTYLE
1002
{
1070
   371
1070
    13
1070
   176
1070
   256
1070
    41
1040
1.5
1070
   147
1040
1.0
1070
    77
1070
     0
1002
}
  0
LINE
  5
16E51
  8
SU
 10
644.55714040556074
 20
381.95186708648021
 30
0.0
 11
623.19547771926079
 21
381.95186708648021
 31
0.0
1001
ACAD
1000
DSTYLE
1002
{
1070
   371
1070
    13
1070
   176
1070
   256
1070
    41
1040
1.5
1070
   147
1040
1.0
1070
    77
1070
     0
1002
}
  0
LINE
  5
16E54
  8
SU
 10
960.60316985409509
 20
365.53168324028542
 30
0.0
 11
969.21783689553729
 21
381.95186708648021
 31
0.0
1001
ACAD
1000
DSTYLE
1002
{
1070
   371
1070
    13
1070
   176
1070
   256
1070
    41
1040
1.5
1070
   147
1040
1.0
1070
    77
1070
     0
1002
}
  0
LINE
  5
16E55
  8
SU
 10
969.21783689553729
 20
381.95186708648021
 30
0.0
 11
990.57949958183679
 21
381.95186708648021
 31
0.0
1001
ACAD
1000
DSTYLE
1002
{
1070
   371
1070
    13
1070
   176
1070
   256
1070
    41
1040
1.5
1070
   147
1040
1.0
1070
    77
1070
     0
1002
}
  0
LINE
  5
16E56
  8
SU
 10
961.0459345910806
 20
365.2993916397437
 30
0.0
 11
959.20942025084503
 21
362.87509481837282
 31
0.0
  0
LINE
  5
16E57
  8
SU
 10
960.16040511710969
 20
365.76397484082707
 30
0.0
 11
959.20942025084503
 21
362.87509481837282
 31
0.0
  0
LINE
  5
16E58
  8
SU
 10
959.20942025084503
 20
362.87509481837282
 30
0.0
 11
960.60316985409509
 21
365.53168324028542
 31
0.0
  0
LINE
  5
1E1E7
  8
KI1
 10
220.1970416945683
 20
662.40574394563089
 30
0.0
 11
228.94704169456821
 21
662.40574394563089
 31
0.0
  0
LINE
  5
1E1E8
  8
KI1
 10
227.64704169456829
 20
636.60574394563082
 30
0.0
 11
222.34704169456839
 21
636.60574394563082
 31
0.0
  0
LINE
  5
1E1E9
  8
KI1
 10
226.49704169456831
 20
637.75574394563091
 30
0.0
 11
222.99704169456831
 21
637.75574394563091
 31
0.0
  0
LINE
  5
1E1EA
  8
KI1
 10
220.8470416945683
 20
661.25574394563091
 30
0.0
 11
248.04704169456829
 21
661.25574394563091
 31
0.0
  0
ARC
  5
1E1EB
  8
KI1
 10
219.6970416945683
 20
663.60574394563082
 30
0.0
 40
0.5
 50
0.0
 51
180.0
  0
ARC
  5
1E1EC
  8
KI1
 10
219.77204169456829
 20
638.33574394563084
 30
0.0
 40
0.575000000000003
 50
180.0
 51
0.0
  0
LINE
  5
1E1ED
  8
KI1
 10
219.1970416945683
 20
638.33574394563084
 30
0.0
 11
219.1970416945683
 21
663.60574394563082
 31
0.0
  0
ARC
  5
1E1EE
  8
KI1
 10
222.4970416945684
 20
640.75574394563091
 30
0.0
 40
0.5
 50
0.0
 51
90.0
  0
LINE
  5
1E1EF
  8
KI1
 10
220.1970416945683
 20
663.60574394563082
 30
0.0
 11
220.1970416945683
 21
662.40574394563089
 31
0.0
  0
LINE
  5
1E1F0
  8
KI1
 10
222.4970416945684
 20
641.25574394563091
 30
0.0
 11
220.34704169456839
 21
641.25574394563091
 31
0.0
  0
LINE
  5
1E1F1
  8
KI1
 10
220.34704169456839
 20
640.10574394563082
 30
0.0
 11
221.84704169456839
 21
640.10574394563082
 31
0.0
  0
LINE
  5
1E1F2
  8
KI1
 10
220.34704169456839
 20
641.25574394563091
 30
0.0
 11
220.34704169456839
 21
660.75574394563091
 31
0.0
  0
LINE
  5
1E1F3
  8
KI1
 10
220.34704169456839
 20
638.33574394563084
 30
0.0
 11
220.34704169456839
 21
640.10574394563082
 31
0.0
  0
ARC
  5
1E1F4
  8
KI1
 10
220.8470416945683
 20
660.75574394563091
 30
0.0
 40
0.4999999999999999
 50
90.0
 51
180.0
  0
ARC
  5
1E1F5
  8
KI1
 10
222.34704169456839
 20
637.10574394563082
 30
0.0
 40
0.5
 50
180.0
 51
270.0
  0
LINE
  5
1E1F6
  8
KI1
 10
221.84704169456839
 20
637.10574394563082
 30
0.0
 11
221.84704169456839
 21
640.10574394563082
 31
0.0
  0
LINE
  5
1E1F7
  8
KI1
 10
222.99704169456831
 20
640.75574394563091
 30
0.0
 11
222.99704169456831
 21
637.75574394563091
 31
0.0
  0
LINE
  5
1E1F8
  8
KI1
 10
254.79704169456829
 20
637.60574394563082
 30
0.0
 11
249.6970416945683
 21
637.60574394563082
 31
0.0
  0
LINE
  5
1E1F9
  8
KI1
 10
253.9970416945684
 20
636.60574394563082
 30
0.0
 11
241.2470416945684
 21
636.60574394563082
 31
0.0
  0
LINE
  5
1E1FA
  8
KI1
 10
238.99704169456831
 20
637.60574394563082
 30
0.0
 11
240.9470416945683
 21
637.60574394563082
 31
0.0
  0
LINE
  5
1E1FB
  8
KI1
 10
238.9983058339173
 20
645.05574394563075
 30
0.0
 11
240.9470416945683
 21
645.05574394563075
 31
0.0
  0
ARC
  5
1E1FC
  8
KI1
 10
239.1983058339172
 20
644.40574394563066
 30
0.0
 40
0.5
 50
180.0
 51
270.0
  0
LINE
  5
1E1FD
  8
KI1
 10
238.99704169456831
 20
640.30574394563064
 30
0.0
 11
239.1970416945683
 21
640.30574394563064
 31
0.0
  0
ARC
  5
1E1FE
  8
KI1
 10
239.4470416945683
 20
663.60574394563082
 30
0.0
 40
0.5
 50
0.0
 51
180.0
  0
LINE
  5
1E1FF
  8
KI1
 10
229.9470416945683
 20
662.40574394563089
 30
0.0
 11
238.9470416945683
 21
662.40574394563089
 31
0.0
  0
LINE
  5
1E200
  8
KI1
 10
229.6983058339172
 20
643.90574394563066
 30
0.0
 11
228.14704169456829
 21
643.90574394563066
 31
0.0
  0
LINE
  5
1E201
  8
KI1
 10
229.89704169456829
 20
637.60574394563082
 30
0.0
 11
227.9470416945683
 21
637.60574394563082
 31
0.0
  0
LINE
  5
1E202
  8
KI1
 10
229.89830583391719
 20
645.05574394563075
 30
0.0
 11
227.9470416945683
 21
645.05574394563075
 31
0.0
  0
LINE
  5
1E203
  8
KI1
 10
229.04704169456829
 20
639.30574394563075
 30
0.0
 11
229.6970416945683
 21
640.30574394563064
 31
0.0
  0
ARC
  5
1E204
  8
KI1
 10
229.4470416945683
 20
663.60574394563082
 30
0.0
 40
0.5
 50
0.0
 51
180.0
  0
LINE
  5
1E205
  8
KI1
 10
228.94704169456821
 20
663.60574394563082
 30
0.0
 11
228.94704169456821
 21
662.40574394563089
 31
0.0
  0
ARC
  5
1E206
  8
KI1
 10
227.37204169456831
 20
645.78074394563089
 30
0.0
 40
0.5749999999999959
 50
0.0
 51
180.0
  0
ARC
  5
1E207
  8
KI1
 10
227.64704169456829
 20
636.90574394563089
 30
0.0
 40
0.3
 50
270.0
 51
0.0
  0
LINE
  5
1E208
  8
KI1
 10
226.79704169456829
 20
638.05574394563087
 30
0.0
 11
226.79704169456829
 21
645.78074394563089
 31
0.0
  0
ARC
  5
1E209
  8
KI1
 10
226.49704169456831
 20
638.05574394563087
 30
0.0
 40
0.3
 50
270.0
 51
0.0
  0
LINE
  5
1E20A
  8
KI1
 10
228.14704169456829
 20
643.90574394563066
 30
0.0
 11
227.9470416945683
 21
642.40574394563077
 31
0.0
  0
LINE
  5
1E20B
  8
KI1
 10
227.9470416945683
 20
638.90574394563066
 30
0.0
 11
227.9470416945683
 21
642.40574394563077
 31
0.0
  0
LINE
  5
1E20C
  8
KI1
 10
229.04704169456829
 20
638.90574394563066
 30
0.0
 11
227.9470416945683
 21
638.90574394563066
 31
0.0
  0
LINE
  5
1E20D
  8
KI1
 10
229.04704169456829
 20
639.30574394563075
 30
0.0
 11
229.04704169456829
 21
638.90574394563066
 31
0.0
  0
LINE
  5
1E20E
  8
KI1
 10
227.9470416945683
 20
645.78074394563089
 30
0.0
 11
227.9470416945683
 21
645.05574394563075
 31
0.0
  0
LINE
  5
1E20F
  8
KI1
 10
227.9470416945683
 20
636.90574394563089
 30
0.0
 11
227.9470416945683
 21
637.60574394563082
 31
0.0
  0
LINE
  5
1E210
  8
KI1
 10
229.9470416945683
 20
663.60574394563082
 30
0.0
 11
229.9470416945683
 21
662.40574394563089
 31
0.0
  0
ARC
  5
1E211
  8
KI1
 10
229.89704169456829
 20
637.90574394563077
 30
0.0
 40
0.3
 50
270.0
 51
0.0
  0
ARC
  5
1E212
  8
KI1
 10
229.89830583391719
 20
644.75574394563057
 30
0.0
 40
0.3
 50
0.0
 51
90.0
  0
LINE
  5
1E213
  8
KI1
 10
230.1983058339172
 20
644.75574394563057
 30
0.0
 11
230.1983058339172
 21
644.40574394563066
 31
0.0
  0
LINE
  5
1E214
  8
KI1
 10
230.1970416945683
 20
640.00574394563068
 30
0.0
 11
230.1970416945683
 21
637.90574394563077
 31
0.0
  0
ARC
  5
1E215
  8
KI1
 10
229.89704169456829
 20
640.00574394563068
 30
0.0
 40
0.3
 50
0.0
 51
90.0
  0
LINE
  5
1E216
  8
KI1
 10
229.89704169456829
 20
640.30574394563064
 30
0.0
 11
229.6970416945683
 21
640.30574394563064
 31
0.0
  0
ARC
  5
1E217
  8
KI1
 10
229.6983058339172
 20
644.40574394563066
 30
0.0
 40
0.5
 50
270.0
 51
0.0
  0
LINE
  5
1E218
  8
KI1
 10
238.9470416945683
 20
663.60574394563082
 30
0.0
 11
238.9470416945683
 21
662.40574394563089
 31
0.0
  0
ARC
  5
1E219
  8
KI1
 10
238.99704169456831
 20
637.90574394563077
 30
0.0
 40
0.3
 50
180.0
 51
270.0
  0
ARC
  5
1E21A
  8
KI1
 10
238.9983058339173
 20
644.75574394563057
 30
0.0
 40
0.3
 50
90.0
 51
180.0
  0
LINE
  5
1E21B
  8
KI1
 10
238.6983058339172
 20
644.75574394563057
 30
0.0
 11
238.6983058339172
 21
644.40574394563066
 31
0.0
  0
LINE
  5
1E21C
  8
KI1
 10
238.6970416945683
 20
640.00574394563068
 30
0.0
 11
238.6970416945683
 21
637.90574394563077
 31
0.0
  0
ARC
  5
1E21D
  8
KI1
 10
238.99704169456831
 20
640.00574394563068
 30
0.0
 40
0.3
 50
90.0
 51
180.0
  0
LINE
  5
1E21E
  8
KI1
 10
242.39704169456829
 20
637.75574394563091
 30
0.0
 11
248.54704169456829
 21
637.75574394563091
 31
0.0
  0
LINE
  5
1E21F
  8
KI1
 10
248.6970416945683
 20
662.40574394563089
 30
0.0
 11
239.9470416945683
 21
662.40574394563089
 31
0.0
  0
ARC
  5
1E220
  8
KI1
 10
242.39704169456829
 20
638.05574394563087
 30
0.0
 40
0.3
 50
180.0
 51
270.0
  0
LINE
  5
1E221
  8
KI1
 10
239.9470416945683
 20
663.60574394563082
 30
0.0
 11
239.9470416945683
 21
662.40574394563089
 31
0.0
  0
LINE
  5
1E222
  8
KI1
 10
239.1983058339172
 20
643.90574394563066
 30
0.0
 11
240.74704169456831
 21
643.90574394563066
 31
0.0
  0
LINE
  5
1E223
  8
KI1
 10
239.84704169456839
 20
638.90574394563066
 30
0.0
 11
240.9470416945683
 21
638.90574394563066
 31
0.0
  0
LINE
  5
1E224
  8
KI1
 10
239.84704169456839
 20
639.30574394563075
 30
0.0
 11
239.84704169456839
 21
638.90574394563066
 31
0.0
  0
LINE
  5
1E225
  8
KI1
 10
239.84704169456839
 20
639.30574394563075
 30
0.0
 11
239.1970416945683
 21
640.30574394563064
 31
0.0
  0
LINE
  5
1E226
  8
KI1
 10
240.74704169456831
 20
643.90574394563066
 30
0.0
 11
240.9470416945683
 21
642.40574394563077
 31
0.0
  0
LINE
  5
1E227
  8
KI1
 10
240.9470416945683
 20
638.90574394563066
 30
0.0
 11
240.9470416945683
 21
642.40574394563077
 31
0.0
  0
LINE
  5
1E228
  8
KI1
 10
242.09704169456839
 20
638.05574394563087
 30
0.0
 11
242.09704169456839
 21
645.78074394563089
 31
0.0
  0
LINE
  5
1E229
  8
KI1
 10
240.9470416945683
 20
645.78074394563089
 30
0.0
 11
240.9470416945683
 21
645.05574394563075
 31
0.0
  0
ARC
  5
1E22A
  8
KI1
 10
241.52204169456829
 20
645.78074394563089
 30
0.0
 40
0.5749999999999959
 50
0.0
 51
180.0
  0
LINE
  5
1E22B
  8
KI1
 10
240.9470416945683
 20
636.90574394563089
 30
0.0
 11
240.9470416945683
 21
637.60574394563082
 31
0.0
  0
ARC
  5
1E22C
  8
KI1
 10
241.2470416945684
 20
636.90574394563089
 30
0.0
 40
0.3
 50
180.0
 51
270.0
  0
ARC
  5
1E22D
  8
KI1
 10
249.1970416945683
 20
663.60574394563082
 30
0.0
 40
0.5
 50
0.0
 51
180.0
  0
LINE
  5
1E22E
  8
KI1
 10
248.6970416945683
 20
663.60574394563082
 30
0.0
 11
248.6970416945683
 21
662.40574394563089
 31
0.0
  0
LINE
  5
1E22F
  8
KI1
 10
248.54704169456829
 20
637.75574394563091
 30
0.0
 11
248.54704169456829
 21
660.75574394563091
 31
0.0
  0
ARC
  5
1E230
  8
KI1
 10
248.04704169456829
 20
660.75574394563091
 30
0.0
 40
0.4999999999999999
 50
0.0
 51
90.0
  0
LINE
  5
1E231
  8
KI1
 10
249.6970416945683
 20
637.60574394563082
 30
0.0
 11
249.6970416945683
 21
663.60574394563082
 31
0.0
  0
ARC
  5
1E232
  8
KI1
 10
254.79704169456829
 20
637.10574394563082
 30
0.0
 40
0.5
 50
0.0
 51
90.0
  0
LINE
  5
1E233
  8
KI1
 10
255.29704169456829
 20
637.10574394563082
 30
0.0
 11
255.29704169456829
 21
624.10574394563082
 31
0.0
  0
ARC
  5
1E234
  8
KI1
 10
253.9970416945684
 20
636.30574394563087
 30
0.0
 40
0.3
 50
0.0
 51
90.0
  0
LINE
  5
1E235
  8
KI1
 10
254.29704169456829
 20
636.30574394563087
 30
0.0
 11
254.29704169456829
 21
624.10574394563082
 31
0.0
  0
ARC
  5
1E236
  8
KI1
 10
254.79704169456829
 20
624.10574394563082
 30
0.0
 40
0.5
 50
180.0
 51
0.0
  0
ARC
  5
1E238
  8
KI1
 10
229.77250497007421
 20
331.40573902738771
 30
0.0
 40
0.5
 50
90.0
 51
130.40000551602481
  0
LINE
  5
1E239
  8
KI1
 10
230.8470542041517
 20
333.10573902738798
 30
0.0
 11
229.1470266646887
 21
333.10573902738798
 31
0.0
  0
LINE
  5
1E23A
  8
KI1
 10
225.64704926124651
 20
328.55126617303608
 30
0.0
 11
225.64704926124651
 21
328.10574394672608
 31
0.0
  0
LINE
  5
1E23B
  8
KI1
 10
224.44704926124621
 20
329.10574394672699
 30
0.0
 11
224.44704926124621
 21
328.10574394672608
 31
0.0
  0
LINE
  5
1E23C
  8
KI1
 10
225.64704926124651
 20
328.10574394672608
 30
0.0
 11
224.44704926124621
 21
328.10574394672608
 31
0.0
  0
LINE
  5
1E23D
  8
KI1
 10
229.44844498288589
 20
331.78650814995791
 30
0.0
 11
225.64704926124651
 21
328.55126617303608
 31
0.0
  0
LINE
  5
1E23E
  8
KI1
 10
229.1470266646887
 20
333.10573902738798
 30
0.0
 11
224.44704926124621
 21
329.10574394672699
 31
0.0
  0
LINE
  5
1E23F
  8
KI1
 10
244.12988797561479
 20
329.30573646167193
 30
0.0
 11
248.8470492612463
 21
329.30573646167193
 31
0.0
  0
ARC
  5
1E240
  8
KI1
 10
243.84705164737059
 20
329.30573646167193
 30
0.0
 40
0.3
 50
180.0
 51
0.0
  0
LINE
  5
1E241
  8
KI1
 10
238.44704926124629
 20
333.10573902738798
 30
0.0
 11
238.04704431834159
 21
333.10573902738798
 31
0.0
  0
ARC
  5
1E242
  8
KI1
 10
232.14704926124651
 20
329.10574394672699
 30
0.0
 40
1.0
 50
180.0
 51
270.0
  0
LINE
  5
1E243
  8
KI1
 10
230.8470492612463
 20
333.10573902738798
 30
0.0
 11
232.3470492612463
 21
331.84708958062203
 31
0.0
  0
ARC
  5
1E244
  8
KI1
 10
230.8470492612463
 20
331.14762809338879
 30
0.0
 40
0.3
 50
0.0
 51
50.000000000018112
  0
LINE
  5
1E245
  8
KI1
 10
230.22829986299431
 20
331.90573902738731
 30
0.0
 11
229.77250497007421
 21
331.90573902738731
 31
0.0
  0
LINE
  5
1E246
  8
KI1
 10
230.54969366783769
 20
331.78876124894742
 30
0.0
 11
231.03988554415301
 21
331.37744142632511
 31
0.0
  0
ARC
  5
1E247
  8
KI1
 10
230.22829986299431
 20
331.40573902738771
 30
0.0
 40
0.5
 50
50.000000000018112
 51
90.0
  0
LINE
  5
1E248
  8
KI1
 10
231.14704926124651
 20
329.10574394672699
 30
0.0
 11
231.14704926124651
 21
331.14762809338879
 31
0.0
  0
LINE
  5
1E249
  8
KI1
 10
232.3470492612463
 20
329.30574394672692
 30
0.0
 11
232.3470492612463
 21
331.84708958062203
 31
0.0
  0
LINE
  5
1E24A
  8
KI1
 10
232.3470492612463
 20
329.30574394672692
 30
0.0
 11
234.44704926124621
 21
329.30574394672692
 31
0.0
  0
LINE
  5
1E24B
  8
KI1
 10
252.94704926124621
 20
328.10574394672432
 30
0.0
 11
232.14704926124651
 21
328.1057439467271
 31
0.0
  0
LINE
  5
1E24C
  8
KI1
 10
236.54704926124609
 20
329.30574394672692
 30
0.0
 11
236.54704926124609
 21
331.84708958062203
 31
0.0
  0
LINE
  5
1E24D
  8
KI1
 10
236.54704926124609
 20
329.30574394672692
 30
0.0
 11
234.44704926124621
 21
329.30574394672692
 31
0.0
  0
LINE
  5
1E24E
  8
KI1
 10
238.04704926124609
 20
333.10573902738798
 30
0.0
 11
236.54704926124609
 21
331.84708958062203
 31
0.0
  0
LINE
  5
1E250
  8
KI1
 10
243.56421054687851
 20
329.30573646167193
 30
0.0
 11
237.74704926124599
 21
329.30573646167193
 31
0.0
  0
LINE
  5
1E251
  8
KI1
 10
238.44704926124629
 20
332.00573902738807
 30
0.0
 11
238.29184413625279
 21
332.00573902738807
 31
0.0
  0
LINE
  5
1E252
  8
KI1
 10
237.74704926124599
 20
329.30573646167193
 30
0.0
 11
237.74704926124619
 21
331.31544801962502
 31
0.0
  0
LINE
  5
1E253
  8
KI1
 10
238.29184413625279
 20
332.00573902738807
 30
0.0
 11
237.92565545640289
 21
331.6984702411844
 31
0.0
  0
ARC
  5
1E254
  8
KI1
 10
238.24704926124619
 20
331.31544801962502
 30
0.0
 40
0.5
 50
130.00000000000091
 51
180.0
  0
ARC
  5
1E255
  8
KI1
 10
238.44704926124629
 20
332.80573902738797
 30
0.0
 40
0.3
 50
0.0
 51
90.0
  0
ARC
  5
1E256
  8
KI1
 10
238.44704926124629
 20
332.30573902738797
 30
0.0
 40
0.3
 50
270.0
 51
0.0
  0
LINE
  5
1E257
  8
KI1
 10
252.94704926124621
 20
328.80574394672459
 30
0.0
 11
252.94704926124621
 21
328.10574394672608
 31
0.0
  0
LINE
  5
1E258
  8
KI1
 10
249.7470492612463
 20
329.10574394672477
 30
0.0
 11
249.7470492612463
 21
330.70574394672468
 31
0.0
  0
LINE
  5
1E259
  8
KI1
 10
249.04704926124651
 20
331.40574394672473
 30
0.0
 11
248.7470492612463
 21
331.40574394672473
 31
0.0
  0
LINE
  5
1E25A
  8
KI1
 10
249.7470492612463
 20
329.10574394672477
 30
0.0
 11
252.64704926124611
 21
329.10574394672477
 31
0.0
  0
ARC
  5
1E25B
  8
KI1
 10
252.64704926124611
 20
328.80574394672459
 30
0.0
 40
0.3
 50
0.0
 51
90.0
  0
LINE
  5
1E25C
  8
KI1
 10
248.44704926124629
 20
331.10574394672477
 30
0.0
 11
248.7470492612463
 21
331.40574394672473
 31
0.0
  0
LINE
  5
1E25D
  8
KI1
 10
248.8470492612463
 20
329.30573646167193
 30
0.0
 11
248.84704926124641
 21
330.70574394672468
 31
0.0
  0
LINE
  5
1E25E
  8
KI1
 10
248.84704926124641
 20
330.70574394672468
 30
0.0
 11
248.67428857373531
 21
330.74893411860251
 31
0.0
  0
ARC
  5
1E260
  8
KI1
 10
248.7470492612463
 20
331.03997686864619
 30
0.0
 40
0.3
 50
180.0
 51
255.96375653207431
  0
ARC
  5
1E261
  8
KI1
 10
249.04704926124629
 20
330.70574394672468
 30
0.0
 40
0.7
 50
0.0
 51
89.999999999993491
  0
LINE
  5
1E262
  8
KI1
 10
252.57907218280531
 20
330.06547389373441
 30
0.0
 11
249.3470492612463
 21
332.90573646167178
 31
0.0
  0
ARC
  5
1E263
  8
KI1
 10
252.44704926124621
 20
329.5057364611543
 30
0.0
 40
0.2
 50
270.0
 51
0.0
1001
GENIUS_GENODEF_13
1002
{
1000
HIER
1070
     0
1002
}
1002
{
1000
MANEDIT
1070
     0
1002
}
1002
{
1000
NOSEL
1070
     0
1002
}
1002
{
1000
BEHIND
1070
     0
1002
}
1002
{
1000
OTHER
1070
     0
1002
}
1002
{
1000
REACTOR
1002
}
1001
GENIUS_GENOBJ-N-FIL_13
1002
{
1000
OWNER
1000
GEN
1002
}
  0
LINE
  5
1E264
  8
KI1
 10
239.3470492612463
 20
329.80573646167193
 30
0.0
 11
239.3470492612463
 21
331.39152289929871
 31
0.0
  0
LINE
  5
1E265
  8
KI1
 10
238.3470492612463
 20
331.80573646167193
 30
0.0
 11
238.3470492612463
 21
329.80573646167193
 31
0.0
  0
LINE
  5
1E266
  8
KI1
 10
247.64704926124631
 20
331.70573646167179
 30
0.0
 11
247.64704926124611
 21
329.60573646167188
 31
0.0
  0
LINE
  5
1E267
  8
KI1
 10
248.44704926124609
 20
331.00573646167192
 30
0.0
 11
248.44704926124609
 21
331.70573646167179
 31
0.0
  0
LINE
  5
1E268
  8
KI1
 10
250.24704926100191
 20
330.78356175640022
 30
0.0
 11
249.1976780448455
 21
331.70573646167179
 31
0.0
  0
ARC
  5
1E269
  8
KI1
 10
238.8470492612463
 20
329.80573646167193
 30
0.0
 40
0.5
 50
180.0
 51
0.0
  0
LINE
  5
1E26B
  8
KI1
 10
251.17126829893749
 20
329.30573646115442
 30
0.0
 11
250.24704926100191
 21
330.1179289491821
 31
0.0
  0
ARC
  5
1E26C
  8
KI1
 10
248.397049261246
 20
330.60573646167182
 30
0.0
 40
0.2
 50
340.9903660520705
 51
22.619864948045748
  0
LINE
  5
1E26D
  8
KI1
 10
248.44704926124601
 20
331.00573646167197
 30
0.0
 11
248.58166464586139
 21
330.68265953859492
 31
0.0
  0
LINE
  5
1E26E
  8
KI1
 10
248.58614202544291
 20
330.54059103567471
 30
0.0
 11
248.23071241772601
 21
329.50808804306831
 31
0.0
  0
ARC
  5
1E26F
  8
KI1
 10
247.94704926124601
 20
329.60573646167188
 30
0.0
 40
0.3
 50
180.0
 51
341.00444933722321
  0
LINE
  5
1E270
  8
KI1
 10
250.24704926100191
 20
330.1179289491821
 30
0.0
 11
250.24704926100191
 21
330.78356175640022
 31
0.0
  0
LINE
  5
1E271
  8
KI1
 10
252.44704926124621
 20
329.30573646115442
 30
0.0
 11
251.17126829893749
 21
329.30573646115442
 31
0.0
  0
LINE
  5
1E272
  8
KI1
 10
238.7470492612463
 20
332.90573646167178
 30
0.0
 11
249.3470492612463
 21
332.90573646167178
 31
0.0
  0
LINE
  5
1E273
  8
KI1
 10
247.64704926124631
 20
331.70573646167179
 30
0.0
 11
239.6612628236195
 21
331.70573646167179
 31
0.0
  0
LINE
  5
1E275
  8
KI1
 10
239.3470492612463
 20
331.39152289929871
 30
0.0
 11
239.6612628236195
 21
331.70573646167179
 31
0.0
  0
LINE
  5
1E276
  8
KI1
 10
238.7470492612463
 20
332.20573646167179
 30
0.0
 11
238.3470492612463
 21
331.80573646167193
 31
0.0
  0
LINE
  5
1E277
  8
KI1
 10
238.7470492612463
 20
332.90573646167178
 30
0.0
 11
238.7470492612463
 21
332.20573646167179
 31
0.0
  0
LINE
  5
1E278
  8
KI1
 10
249.1976780448455
 20
331.70573646167179
 30
0.0
 11
248.44704926124621
 21
331.70573646167179
 31
0.0
  0
LINE
  5
1E279
  8
KI1
 10
252.64704926124631
 20
329.91524091405608
 30
0.0
 11
252.64704926124631
 21
329.5057364611543
 31
0.0
  0
ARC
  5
1E27A
  8
KI1
 10
252.44704926124621
 20
329.91524091405608
 30
0.0
 40
0.2
 50
0.0
 51
48.691385981384123
1001
GENIUS_GENODEF_13
1002
{
1000
HIER
1070
     0
1002
}
1002
{
1000
MANEDIT
1070
     0
1002
}
1002
{
1000
NOSEL
1070
     0
1002
}
1002
{
1000
BEHIND
1070
     0
1002
}
1002
{
1000
OTHER
1070
     0
1002
}
1002
{
1000
REACTOR
1002
}
1001
GENIUS_GENOBJ-N-FIL_13
1002
{
1000
OWNER
1000
GEN
1002
}
  0
LINE
  5
1E27B
  8
KI1
 10
217.9470492611749
 20
627.10574473009865
 30
0.0
 11
250.9470404794931
 21
627.10574473009865
 31
0.0
  0
LINE
  5
1E27C
  8
KI2
 10
230.4470404796516
 20
644.80574473009847
 30
0.0
 11
238.4470404796516
 21
644.80574473009847
 31
0.0
  0
LINE
  5
1E27D
  8
KI2
 10
228.5470404796516
 20
640.99574473009852
 30
0.0
 11
240.34704047965161
 21
640.99574473009852
 31
0.0
  0
LINE
  5
1E27E
  8
KI2
 10
228.5470404796516
 20
642.99574473009852
 30
0.0
 11
240.34704047965161
 21
642.99574473009852
 31
0.0
  0
LINE
  5
1E27F
  8
KI2
 10
230.4470404796516
 20
644.80574473009847
 30
0.0
 11
230.4470404796516
 21
642.99574473009852
 31
0.0
  0
LINE
  5
1E280
  8
KI2
 10
228.5470404796516
 20
642.99574473009852
 30
0.0
 11
228.5470404796516
 21
640.99574473009852
 31
0.0
  0
LINE
  5
1E281
  8
KI2
 10
237.4470404796516
 20
640.99574473009852
 30
0.0
 11
237.4470404796516
 21
627.10574473009865
 31
0.0
  0
LINE
  5
1E282
  8
KI2
 10
231.4470404796516
 20
640.99574473009852
 30
0.0
 11
231.4470404796516
 21
627.10574473009865
 31
0.0
  0
LINE
  5
1E283
  8
KI2
 10
231.4470404796516
 20
638.48574473009853
 30
0.0
 11
237.4470404796516
 21
638.48574473009853
 31
0.0
  0
LINE
  5
1E284
  8
KI2
 10
232.72704047965161
 20
653.20574473009844
 30
0.0
 11
236.1670404796516
 21
653.20574473009844
 31
0.0
  0
LINE
  5
1E285
  8
KI2
 10
236.6670404796516
 20
652.70574473009844
 30
0.0
 11
232.22704047965161
 21
652.70574473009844
 31
0.0
  0
LINE
  5
1E286
  8
KI2
 10
232.22704047965161
 20
652.70574473009844
 30
0.0
 11
232.22704047965161
 21
644.80574473009847
 31
0.0
  0
LINE
  5
1E287
  8
KI2
 10
232.72704047965161
 20
653.20574473009844
 30
0.0
 11
232.22704047965161
 21
652.70574473009844
 31
0.0
  0
LINE
  5
1E288
  8
KI2
 10
236.6670404796516
 20
652.70574473009844
 30
0.0
 11
236.6670404796516
 21
644.80574473009847
 31
0.0
  0
LINE
  5
1E289
  8
KI2
 10
236.6670404796516
 20
652.70574473009844
 30
0.0
 11
236.1670404796516
 21
653.20574473009844
 31
0.0
  0
LINE
  5
1E28A
  8
KI2
 10
238.4470404796516
 20
644.80574473009847
 30
0.0
 11
238.4470404796516
 21
642.99574473009852
 31
0.0
  0
LINE
  5
1E28B
  8
KI2
 10
240.34704047965161
 20
642.99574473009852
 30
0.0
 11
240.34704047965161
 21
640.99574473009852
 31
0.0
  0
LINE
  5
1E28C
  8
KI2
 10
230.94704926124339
 20
333.11057788732762
 30
0.0
 11
233.44704926124339
 21
331.61057788732751
 31
0.0
  0
LINE
  5
1E28D
  8
KI2
 10
230.94704926124339
 20
335.60574394672591
 30
0.0
 11
230.94704926124339
 21
333.11057788732762
 31
0.0
  0
LINE
  5
1E28E
  8
KI2
 10
235.44704926124339
 20
330.11057788732762
 30
0.0
 11
234.44704926124339
 21
330.11057788732762
 31
0.0
  0
LINE
  5
1E28F
  8
KI2
 10
233.44704926124339
 20
330.11057788732762
 30
0.0
 11
234.44704926124339
 21
330.11057788732762
 31
0.0
  0
LINE
  5
1E290
  8
KI2
 10
237.94704926124331
 20
333.11057788732762
 30
0.0
 11
235.44704926124339
 21
331.61057788732751
 31
0.0
  0
LINE
  5
1E291
  8
KI2
 10
237.94704926124331
 20
335.60574394672591
 30
0.0
 11
237.94704926124331
 21
333.11057788732762
 31
0.0
  0
LINE
  5
1E292
  8
KI2
 10
235.44704926124339
 20
335.60574394672591
 30
0.0
 11
235.44704926124339
 21
330.11057788732762
 31
0.0
  0
LINE
  5
1E293
  8
KI2
 10
233.44704926124339
 20
335.60574394672591
 30
0.0
 11
233.44704926124339
 21
330.11057788732762
 31
0.0
  0
LINE
  5
1E294
  8
KI2
 10
219.4470492612443
 20
335.6057439467258
 30
0.0
 11
249.4470492612443
 21
335.60574394672602
 31
0.0
  0
LINE
  5
1E295
  8
KI1
 10
217.9470492612443
 20
337.1057439467258
 30
0.0
 11
250.9470492611749
 21
337.1057439467258
 31
0.0
  0
ARC
  5
1E296
  8
KI2
 10
219.4470492612443
 20
337.1057439467258
 30
0.0
 40
1.5
 50
180.0
 51
270.0
  0
ARC
  5
1E297
  8
KI2
 10
249.4470492612443
 20
337.1057439467258
 30
0.0
 40
1.5
 50
270.0
 51
0.0
  0
LINE
  5
1E298
  8
KI1
 10
217.9470492611749
 20
627.10574473009865
 30
0.0
 11
217.9470492611749
 21
337.1057439467258
 31
0.0
  0
LINE
  5
1E299
  8
KI1
 10
250.9470492611749
 20
627.10574473009865
 30
0.0
 11
250.9470492611749
 21
337.1057439467258
 31
0.0
  0
LINE
  5
1E2A0
  8
KI2
 10
230.94704926124339
 20
125.68856304334111
 30
0.0
 11
233.44704926124339
 21
124.18856304334111
 31
0.0
  0
LINE
  5
1E2A1
  8
KI2
 10
230.94704926124339
 20
129.78300748772079
 30
0.0
 11
230.94704926124339
 21
125.68856304334111
 31
0.0
  0
LINE
  5
1E2A2
  8
KI2
 10
235.44704926124339
 20
122.68856304334111
 30
0.0
 11
234.44704926124339
 21
122.68856304334111
 31
0.0
  0
LINE
  5
1E2A3
  8
KI2
 10
233.44704926124339
 20
122.68856304334111
 30
0.0
 11
234.44704926124339
 21
122.68856304334111
 31
0.0
  0
LINE
  5
1E2A4
  8
KI2
 10
237.94704926124331
 20
125.68856304334111
 30
0.0
 11
235.44704926124339
 21
124.18856304334111
 31
0.0
  0
LINE
  5
1E2A5
  8
KI2
 10
237.94704926124331
 20
129.78300748772079
 30
0.0
 11
237.94704926124331
 21
125.68856304334111
 31
0.0
  0
LINE
  5
1E2A6
  8
KI2
 10
235.44704926124339
 20
129.78300748772079
 30
0.0
 11
235.44704926124339
 21
122.68856304334111
 31
0.0
  0
LINE
  5
1E2A7
  8
KI2
 10
233.44704926124339
 20
129.78300748772079
 30
0.0
 11
233.44704926124339
 21
122.68856304334111
 31
0.0
  0
LINE
  5
1E2A8
  8
KI2
 10
219.4470492612443
 20
129.78300748772079
 30
0.0
 11
249.4470492612443
 21
129.78300748772091
 31
0.0
  0
ARC
  5
1E2AA
  8
KI2
 10
219.4470492612443
 20
131.28300748772079
 30
0.0
 40
1.5
 50
180.0
 51
270.0
  0
ARC
  5
1E2AB
  8
KI2
 10
249.4470492612443
 20
131.28300748772079
 30
0.0
 40
1.5
 50
270.0
 51
0.0
  0
LINE
  5
1E2AC
  8
KI1
 10
217.9470492611749
 20
244.28300748772091
 30
0.0
 11
217.9470492611749
 21
131.28300748772079
 31
0.0
  0
LINE
  5
1E2AD
  8
KI1
 10
250.9470492611749
 20
244.28300748772091
 30
0.0
 11
250.9470492611749
 21
131.28300748772079
 31
0.0
  0
LINE
  5
1E2AE
  8
OS
 10
227.4470492611749
 20
124.28300748772079
 30
0.0
 11
227.4470492611749
 21
112.28300748772079
 31
0.0
  0
LINE
  5
1E2AF
  8
OS
 10
241.4470492611749
 20
124.28300748772079
 30
0.0
 11
241.4470492611749
 21
112.28300748772079
 31
0.0
  0
LINE
  5
1E2B0
  8
KI2
 10
236.09861482498141
 20
120.0225901774631
 30
0.0
 11
234.74704926124409
 21
120.0225901774631
 31
0.0
  0
LINE
  5
1E2B1
  8
KI2
 10
234.74704926124409
 20
116.3225901774631
 30
0.0
 11
235.1970492612441
 21
116.3225901774631
 31
0.0
  0
LINE
  5
1E2B2
  8
KI2
 10
232.34704926124411
 20
123.9240484332507
 30
0.0
 11
232.34704926124411
 21
122.3225901774632
 31
0.0
  0
LINE
  5
1E2B3
  8
KI2
 10
229.5470492612441
 20
125.0225901774631
 30
0.0
 11
229.5470492612441
 21
121.6225901774631
 31
0.0
  0
ARC
  5
1E2B4
  8
KI2
 10
234.44704926124399
 20
116.3225901774631
 30
0.0
 40
0.3
 50
90.0
 51
180.0
  0
LINE
  5
1E2B5
  8
KI2
 10
230.94704926124399
 20
116.8225901774631
 30
0.0
 11
230.34704926124411
 21
116.1225901774631
 31
0.0
  0
ARC
  5
1E2B6
  8
KI2
 10
234.44704926124399
 20
116.3225901774631
 30
0.0
 40
0.3
 50
0.0
 51
90.0
  0
LINE
  5
1E2B7
  8
KI2
 10
230.24704926124409
 20
115.3225901774631
 30
0.0
 11
230.94704926124399
 21
115.3225901774631
 31
0.0
  0
LINE
  5
1E2B8
  8
KI2
 10
229.74704926124409
 20
116.1225901774631
 30
0.0
 11
230.34704926124411
 21
116.1225901774631
 31
0.0
  0
ARC
  5
1E2B9
  8
KI2
 10
230.24704926124409
 20
115.8225901774631
 30
0.0
 40
0.5
 50
180.0
 51
270.0
  0
LINE
  5
1E2BA
  8
KI2
 10
229.74704926124409
 20
116.1225901774631
 30
0.0
 11
229.74704926124409
 21
115.8225901774631
 31
0.0
  0
LINE
  5
1E2BB
  8
KI2
 10
234.14704926124409
 20
116.3225901774631
 30
0.0
 11
233.6970492612441
 21
116.3225901774631
 31
0.0
  0
LINE
  5
1E2BC
  8
KI2
 10
233.6970492612441
 20
116.3225901774631
 30
0.0
 11
233.1970492612441
 21
115.6225901774631
 31
0.0
  0
LINE
  5
1E2BD
  8
KI2
 10
231.24704926124409
 20
115.6225901774631
 30
0.0
 11
230.94704926124399
 21
115.3225901774631
 31
0.0
  0
LINE
  5
1E2BE
  8
KI2
 10
231.24704926124409
 20
115.6225901774631
 30
0.0
 11
233.1970492612441
 21
115.6225901774631
 31
0.0
  0
LINE
  5
1E2BF
  8
KI2
 10
230.94704926124399
 20
118.2225901774631
 30
0.0
 11
229.84704926124411
 21
121.2625901774631
 31
0.0
  0
ARC
  5
1E2C0
  8
KI2
 10
232.7954836975068
 20
120.5225901774631
 30
0.0
 40
0.5
 50
180.0
 51
270.0
  0
ARC
  5
1E2C1
  8
KI2
 10
234.44704926124399
 20
120.0225901774631
 30
0.0
 40
0.3
 50
180.0
 51
270.0
  0
POINT
  5
1E2C2
  8
KI2
 10
230.94704926124399
 20
117.70850190464751
 30
0.0
  0
LINE
  5
1E2C3
  8
KI2
 10
232.7954836975068
 20
120.0225901774631
 30
0.0
 11
234.14704926124409
 21
120.0225901774631
 31
0.0
  0
LINE
  5
1E2C4
  8
KI2
 10
230.94704926124399
 20
118.2225901774631
 30
0.0
 11
230.94704926124399
 21
116.8225901774631
 31
0.0
  0
ARC
  5
1E2C5
  8
KI2
 10
234.44704926124399
 20
120.0225901774631
 30
0.0
 40
0.3
 50
270.0
 51
0.0
  0
LINE
  5
1E2C6
  8
KI2
 10
229.5470492612441
 20
121.6225901774631
 30
0.0
 11
229.84704926124411
 21
121.2625901774631
 31
0.0
  0
LINE
  5
1E2C7
  8
KI2
 10
232.24704926124409
 20
122.3225901774632
 30
0.0
 11
232.34704926124411
 21
122.3225901774632
 31
0.0
  0
LINE
  5
1E2C8
  8
KI2
 10
232.2954836975068
 20
120.8225901774632
 30
0.0
 11
232.24704926124409
 21
120.8225901774632
 31
0.0
  0
LINE
  5
1E2C9
  8
KI2
 10
232.2954836975068
 20
120.5225901774631
 30
0.0
 11
232.2954836975068
 21
120.8225901774632
 31
0.0
  0
ARC
  5
1E2CA
  8
KI2
 10
232.24704926124409
 20
121.5725901774632
 30
0.0
 40
0.75
 50
90.0
 51
270.0
  0
LINE
  5
1E2CB
  8
KI2
 10
229.84704926124411
 20
125.3225901774631
 30
0.0
 11
230.84704926124411
 21
125.3225901774631
 31
0.0
  0
ARC
  5
1E2CC
  8
KI2
 10
229.84704926124411
 20
125.0225901774631
 30
0.0
 40
0.3
 50
90.0
 51
180.0
  0
LINE
  5
1E2CD
  8
KI2
 10
232.2398855441501
 20
124.1538617661864
 30
0.0
 11
230.847049261244
 21
125.3225901774631
 31
0.0
  0
ARC
  5
1E2CE
  8
KI2
 10
232.0470492612441
 20
123.9240484332507
 30
0.0
 40
0.3
 50
0.0
 51
49.999999999998963
  0
LINE
  5
1E2CF
  8
KI2
 10
236.5470492612441
 20
123.9240484332507
 30
0.0
 11
236.5470492612441
 21
122.3225901774632
 31
0.0
  0
LINE
  5
1E2D0
  8
KI2
 10
239.34704926124411
 20
125.0225901774631
 30
0.0
 11
239.34704926124411
 21
121.6225901774631
 31
0.0
  0
LINE
  5
1E2D1
  8
KI2
 10
237.9470492612441
 20
116.8225901774631
 30
0.0
 11
238.5470492612441
 21
116.1225901774631
 31
0.0
  0
LINE
  5
1E2D2
  8
KI2
 10
239.14704926124409
 20
116.1225901774631
 30
0.0
 11
238.5470492612441
 21
116.1225901774631
 31
0.0
  0
ARC
  5
1E2D3
  8
KI2
 10
238.64704926124409
 20
115.8225901774631
 30
0.0
 40
0.5
 50
270.0
 51
0.0
  0
LINE
  5
1E2D4
  8
KI2
 10
237.64704926124409
 20
115.6225901774631
 30
0.0
 11
235.6970492612441
 21
115.6225901774631
 31
0.0
  0
LINE
  5
1E2D5
  8
KI2
 10
235.1970492612441
 20
116.3225901774631
 30
0.0
 11
235.6970492612441
 21
115.6225901774631
 31
0.0
  0
LINE
  5
1E2D6
  8
KI2
 10
237.64704926124409
 20
115.6225901774631
 30
0.0
 11
237.9470492612441
 21
115.3225901774631
 31
0.0
  0
LINE
  5
1E2D7
  8
KI2
 10
238.64704926124409
 20
115.3225901774631
 30
0.0
 11
237.9470492612441
 21
115.3225901774631
 31
0.0
  0
LINE
  5
1E2D8
  8
KI2
 10
239.14704926124409
 20
116.1225901774631
 30
0.0
 11
239.14704926124409
 21
115.8225901774631
 31
0.0
  0
ARC
  5
1E2D9
  8
KI2
 10
236.09861482498141
 20
120.5225901774631
 30
0.0
 40
0.5
 50
270.0
 51
0.0
  0
LINE
  5
1E2DA
  8
KI2
 10
237.9470492612441
 20
118.2225901774631
 30
0.0
 11
239.0470492612441
 21
121.2625901774631
 31
0.0
  0
POINT
  5
1E2DB
  8
KI2
 10
237.9470492612441
 20
117.70850190464751
 30
0.0
  0
LINE
  5
1E2DC
  8
KI2
 10
237.9470492612441
 20
118.2225901774631
 30
0.0
 11
237.9470492612441
 21
116.8225901774631
 31
0.0
  0
LINE
  5
1E2DD
  8
KI2
 10
236.64704926124409
 20
122.3225901774632
 30
0.0
 11
236.5470492612441
 21
122.3225901774632
 31
0.0
  0
LINE
  5
1E2DE
  8
KI2
 10
236.59861482498141
 20
120.8225901774632
 30
0.0
 11
236.64704926124409
 21
120.8225901774632
 31
0.0
  0
LINE
  5
1E2DF
  8
KI2
 10
236.59861482498141
 20
120.5225901774631
 30
0.0
 11
236.59861482498141
 21
120.8225901774632
 31
0.0
  0
ARC
  5
1E2E0
  8
KI2
 10
236.64704926124409
 20
121.5725901774632
 30
0.0
 40
0.75
 50
270.0
 51
90.0
  0
LINE
  5
1E2E1
  8
KI2
 10
239.34704926124411
 20
121.6225901774631
 30
0.0
 11
239.0470492612441
 21
121.2625901774631
 31
0.0
  0
LINE
  5
1E2E2
  8
KI2
 10
239.0470492612441
 20
125.3225901774631
 30
0.0
 11
238.0470492612441
 21
125.3225901774631
 31
0.0
  0
LINE
  5
1E2E3
  8
KI2
 10
236.65421297833811
 20
124.1538617661864
 30
0.0
 11
238.04704926124421
 21
125.3225901774631
 31
0.0
  0
ARC
  5
1E2E4
  8
KI2
 10
236.84704926124411
 20
123.9240484332507
 30
0.0
 40
0.3
 50
130.00000000000099
 51
180.0
  0
ARC
  5
1E2E5
  8
KI2
 10
239.0470492612441
 20
125.0225901774631
 30
0.0
 40
0.3
 50
0.0
 51
90.0
  0
LINE
  5
1E2E6
  8
OS
 10
219.1970416945683
 20
664.10574394563082
 30
0.0
 11
108.94710624401699
 21
664.10574394563082
 31
0.0
  0
LINE
  5
1E2E7
  8
OS
 10
219.1970416945683
 20
673.60574394563082
 30
0.0
 11
108.94710624401699
 21
673.60574394563082
 31
0.0
  0
LINE
  5
1E2E8
  8
OS
 10
271.44704169456833
 20
748.60574394563082
 30
0.0
 11
271.44704169456833
 21
673.60574394563082
 31
0.0
  0
LINE
  5
1E2E9
  8
OS
 10
166.44704169456821
 20
748.60574394563082
 30
0.0
 11
166.44704169456821
 21
673.60574394563082
 31
0.0
  0
LINE
  5
1E2EA
  8
OS
 10
328.94710624401711
 20
671.60574394563071
 30
0.0
 11
249.6970416945683
 21
671.60574394563071
 31
0.0
  0
LINE
  5
1E2EB
  8
OS
 10
219.1970416945683
 20
671.60574394563071
 30
0.0
 11
108.94710624401699
 21
671.60574394563071
 31
0.0
  0
LINE
  5
1E2EC
  8
OS
 10
328.94710624401711
 20
666.10574394563082
 30
0.0
 11
249.6970416945683
 21
666.10574394563082
 31
0.0
  0
LINE
  5
1E2ED
  8
OS
 10
219.1970416945683
 20
666.10574394563082
 30
0.0
 11
108.94710624401699
 21
666.10574394563082
 31
0.0
  0
LINE
  5
1E2EE
  8
OS
 10
121.4471574509662
 20
718.60574394563082
 30
0.0
 11
121.4471574509662
 21
673.60574394563082
 31
0.0
  0
LINE
  5
1E2EF
  8
OS
 10
121.4471574509662
 20
718.60574394563082
 30
0.0
 11
166.44704169456821
 21
718.60574394563082
 31
0.0
  0
LINE
  5
1E2F0
  8
OS
 10
121.4471574509662
 20
673.60574394563082
 30
0.0
 11
166.44704169456821
 21
718.60574394563082
 31
0.0
  0
LINE
  5
1E2F1
  8
OS
 10
316.44544045182118
 20
718.60821967767367
 30
0.0
 11
316.44658310944942
 21
673.60821969218114
 31
0.0
  0
LINE
  5
1E2F2
  8
OS
 10
316.44544045182118
 20
718.60821967767367
 30
0.0
 11
271.44555622272668
 21
718.6070770229851
 31
0.0
  0
LINE
  5
1E2F3
  8
OS
 10
271.44704169456833
 20
673.60574394563082
 30
0.0
 11
316.44544045182118
 21
718.60821967767367
 31
0.0
  0
LINE
  5
1E2F4
  8
OS
 10
328.94710624401711
 20
664.10574394563105
 30
0.0
 11
249.6970416945683
 21
664.10574394563082
 31
0.0
  0
LINE
  5
1E2F5
  8
OS
 10
328.94710624401711
 20
673.60574394563082
 30
0.0
 11
249.6970416945683
 21
673.60574394563082
 31
0.0
  0
LINE
  5
1E2F7
  8
OS
 10
219.1970416945683
 20
664.10574394563082
 30
0.0
 11
249.6970416945683
 21
673.60574394563082
 31
0.0
  0
LINE
  5
1E2F8
  8
OS
 10
153.94704169456821
 20
664.10574394563082
 30
0.0
 11
153.94704169456821
 21
388.10574394672591
 31
0.0
  0
LINE
  5
1E2F9
  8
OS
 10
208.9470416945683
 20
664.10574394563082
 30
0.0
 11
208.9470416945683
 21
388.10574394672591
 31
0.0
  0
LINE
  5
1E2FA
  8
OS
 10
283.94704169456833
 20
664.10574394563082
 30
0.0
 11
283.94704169456833
 21
388.10574394672591
 31
0.0
  0
LINE
  5
1E2FB
  8
OS
 10
289.94704169456833
 20
388.10574394672591
 30
0.0
 11
250.9470492611749
 21
388.10574394672591
 31
0.0
  0
LINE
  5
1E2FC
  8
TS
 10
283.94704169456833
 20
388.10574394672591
 30
0.0
 11
283.94704169456833
 21
328.10574394672591
 31
0.0
  0
LINE
  5
1E2FD
  8
OS
 10
289.94704169456833
 20
388.10574394672591
 30
0.0
 11
289.94704169456833
 21
328.10574394672591
 31
0.0
  0
LINE
  5
1E2FE
  8
OS
 10
217.9470492611749
 20
388.10574394672591
 30
0.0
 11
147.94704169456821
 21
388.10574394672591
 31
0.0
  0
LINE
  5
1E2FF
  8
TS
 10
208.9470416945683
 20
388.10574394672591
 30
0.0
 11
208.9470416945683
 21
328.10574394672591
 31
0.0
  0
LINE
  5
1E300
  8
OS
 10
214.9470416945683
 20
388.10574394672591
 30
0.0
 11
214.9470416945683
 21
328.10574394672591
 31
0.0
  0
LINE
  5
1E301
  8
TS
 10
153.94704169456821
 20
388.10574394672591
 30
0.0
 11
153.94704169456821
 21
328.10574394672591
 31
0.0
  0
LINE
  5
1E302
  8
OS
 10
147.94704169456821
 20
388.10574394672591
 30
0.0
 11
147.94704169456821
 21
328.10574394672591
 31
0.0
  0
LINE
  5
1E303
  8
OS
 10
153.94704169456821
 20
244.28300748772091
 30
0.0
 11
153.94704169456821
 21
184.28300748772079
 31
0.0
  0
LINE
  5
1E304
  8
OS
 10
208.9470416945683
 20
244.28300748772091
 30
0.0
 11
208.9470416945683
 21
184.28300748772079
 31
0.0
  0
LINE
  5
1E305
  8
OS
 10
283.94704169456833
 20
244.28300748772091
 30
0.0
 11
283.94704169456833
 21
184.28300748772079
 31
0.0
  0
LINE
  5
1E306
  8
OS
 10
289.94704169456833
 20
184.28300748772079
 30
0.0
 11
250.9470492611749
 21
184.28300748772079
 31
0.0
  0
LINE
  5
1E307
  8
TS
 10
283.94704169456833
 20
184.28300748772079
 30
0.0
 11
283.94704169456833
 21
124.28300748772079
 31
0.0
  0
LINE
  5
1E308
  8
OS
 10
289.94704169456833
 20
184.28300748772079
 30
0.0
 11
289.94704169456833
 21
124.28300748772079
 31
0.0
  0
LINE
  5
1E309
  8
OS
 10
217.9470492611749
 20
184.28300748772079
 30
0.0
 11
147.94704169456821
 21
184.28300748772079
 31
0.0
  0
LINE
  5
1E30A
  8
TS
 10
208.9470416945683
 20
184.28300748772079
 30
0.0
 11
208.9470416945683
 21
124.28300748772079
 31
0.0
  0
LINE
  5
1E30B
  8
OS
 10
214.9470416945683
 20
184.28300748772079
 30
0.0
 11
214.9470416945683
 21
124.28300748772079
 31
0.0
  0
LINE
  5
1E30C
  8
TS
 10
153.94704169456821
 20
184.28300748772079
 30
0.0
 11
153.94704169456821
 21
124.28300748772079
 31
0.0
  0
LINE
  5
1E30D
  8
OS
 10
147.94704169456821
 20
184.28300748772079
 30
0.0
 11
147.94704169456821
 21
124.28300748772079
 31
0.0
  0
LINE
  5
1E30E
  8
SU
  6
BYBLOCK
 10
146.014028992676
 20
365.45382015807922
 30
0.0
 11
147.94704169456821
 21
363.10574394672591
 31
0.0
210
0.0
220
0.0
230
-1.0
  0
LINE
  5
1E30F
  8
SU
  6
BYBLOCK
 10
146.88005439646039
 20
365.95382015807922
 30
0.0
 11
147.94704169456821
 21
363.10574394672591
 31
0.0
210
0.0
220
0.0
230
-1.0
  0
LINE
  5
1E310
  8
SU
  6
BYBLOCK
 10
147.94704169456821
 20
363.10574394672591
 30
0.0
 11
146.44704169456821
 21
365.70382015807922
 31
0.0
210
0.0
220
0.0
230
-1.0
  0
TEXT
  5
1E312
  8
SU
 10
116.9881392253735
 20
386.48318990815261
 30
0.0
 40
7.9999999999999956
  1
巾木
 41
0.9
  0
LINE
  5
1E313
  8
SU
  6
BYBLOCK
 10
146.014028992676
 20
161.6310836990742
 30
0.0
 11
147.94704169456821
 21
159.28300748772079
 31
0.0
210
0.0
220
0.0
230
-1.0
  0
LINE
  5
1E314
  8
SU
  6
BYBLOCK
 10
146.88005439646039
 20
162.1310836990742
 30
0.0
 11
147.94704169456821
 21
159.28300748772079
 31
0.0
210
0.0
220
0.0
230
-1.0
  0
LINE
  5
1E315
  8
SU
  6
BYBLOCK
 10
147.94704169456821
 20
159.28300748772079
 30
0.0
 11
146.44704169456821
 21
161.8810836990742
 31
0.0
210
0.0
220
0.0
230
-1.0
  0
TEXT
  5
1E317
  8
SU
 10
116.9881392253735
 20
182.6604534491475
 30
0.0
 40
7.9999999999999956
  1
巾木
 41
0.9
  0
LINE
  5
1E318
  8
OS
 10
241.4467628725674
 20
748.60574394563082
 30
0.0
 11
166.44704169456821
 21
673.60574394563082
 31
0.0
  0
LINE
  5
1E319
  8
KI1
 10
217.9470492612443
 20
131.28300748772079
 30
0.0
 11
250.9470492611749
 21
131.28300748772079
 31
0.0
  0
ARC
  5
1E31A
  8
KI1
 10
239.94655029177031
 20
124.98301887689421
 30
0.0
 40
0.4999999999999796
 50
81.018765895037859
 51
180.0
  0
LINE
  5
1E31B
  8
KI1
 10
238.94655029177031
 20
112.5830188768942
 30
0.0
 11
240.44655029177039
 21
114.0830188768942
 31
0.0
  0
ARC
  5
1E31C
  8
KI1
 10
228.94655029177031
 20
124.98301887689421
 30
0.0
 40
0.4999999999999796
 50
0.0
 51
98.981234104962141
  0
ARC
  5
1E31D
  8
KI1
 10
227.16370757929559
 20
124.5830188768942
 30
0.0
 40
0.3
 50
269.99999999999352
 51
340.52877936553472
  0
LINE
  5
1E31E
  8
KI1
 10
227.16370757929559
 20
124.2830188768943
 30
0.0
 11
223.94655029177031
 21
124.2830188768943
 31
0.0
  0
LINE
  5
1E31F
  8
KI1
 10
228.44655029177031
 20
124.48301887689431
 30
0.0
 11
227.44655029177031
 21
124.48301887689431
 31
0.0
  0
LINE
  5
1E320
  8
KI1
 10
223.94655029177031
 20
125.01278151583701
 30
0.0
 11
228.86849481057129
 21
125.4768886389315
 31
0.0
  0
LINE
  5
1E321
  8
KI1
 10
223.94655029177031
 20
124.2830188768943
 30
0.0
 11
223.94655029177031
 21
125.01278151583701
 31
0.0
  0
ARC
  5
1E322
  8
KI1
 10
229.3465502917704
 20
119.8130188768942
 30
0.0
 40
0.5
 50
281.53695903281812
 51
36.869897645845768
  0
LINE
  5
1E323
  8
KI1
 10
229.44655029177031
 20
120.51301887689429
 30
0.0
 11
229.7465502917704
 21
120.1130188768942
 31
0.0
  0
LINE
  5
1E324
  8
KI1
 10
229.94655029177039
 20
112.5830188768942
 30
0.0
 11
228.44655029177031
 21
114.0830188768942
 31
0.0
  0
LINE
  5
1E325
  8
KI1
 10
229.94655029177039
 20
112.5830188768942
 30
0.0
 11
238.94655029177031
 21
112.5830188768942
 31
0.0
  0
LINE
  5
1E326
  8
KI1
 10
234.7465502917704
 20
113.5830188768942
 30
0.0
 11
238.44655029177031
 21
113.5830188768942
 31
0.0
  0
ARC
  5
1E327
  8
KI1
 10
234.44655029177031
 20
113.5830188768942
 30
0.0
 40
0.3
 50
180.0
 51
0.0
  0
LINE
  5
1E328
  8
KI1
 10
239.28233672939729
 20
114.3330188768942
 30
0.0
 11
239.44655029177031
 21
114.49723243926729
 31
0.0
  0
LINE
  5
1E329
  8
KI1
 10
239.44655029177031
 20
120.51301887689429
 30
0.0
 11
239.14655029177041
 21
120.1130188768942
 31
0.0
  0
LINE
  5
1E32A
  8
KI1
 10
239.44655029177031
 20
114.49723243926729
 30
0.0
 11
239.44655029177031
 21
119.3231209283376
 31
0.0
  0
ARC
  5
1E32B
  8
KI1
 10
239.5465502917705
 20
119.8130188768942
 30
0.0
 40
0.5
 50
143.13010235415419
 51
258.46304096718188
  0
LINE
  5
1E32C
  8
KI1
 10
238.44655029177031
 20
114.3330188768942
 30
0.0
 11
238.44655029177031
 21
113.5830188768942
 31
0.0
  0
LINE
  5
1E32D
  8
KI1
 10
238.44655029177031
 20
114.3330188768942
 30
0.0
 11
239.28233672939729
 21
114.3330188768942
 31
0.0
  0
LINE
  5
1E32E
  8
KI1
 10
229.61076385414341
 20
114.3330188768942
 30
0.0
 11
229.44655029177031
 21
114.49723243926729
 31
0.0
  0
LINE
  5
1E32F
  8
KI1
 10
230.44655029177031
 20
114.3330188768942
 30
0.0
 11
230.44655029177031
 21
113.5830188768942
 31
0.0
  0
LINE
  5
1E330
  8
KI1
 10
230.44655029177031
 20
114.3330188768942
 30
0.0
 11
229.61076385414341
 21
114.3330188768942
 31
0.0
  0
LINE
  5
1E331
  8
KI1
 10
229.44655029177031
 20
114.49723243926729
 30
0.0
 11
229.44655029177031
 21
119.3231209283376
 31
0.0
  0
LINE
  5
1E332
  8
KI1
 10
234.14655029177041
 20
113.5830188768942
 30
0.0
 11
230.44655029177031
 21
113.5830188768942
 31
0.0
  0
LINE
  5
1E333
  8
KI1
 10
239.44655029177031
 20
120.51301887689429
 30
0.0
 11
239.44655029177031
 21
124.98301887689421
 31
0.0
  0
LINE
  5
1E334
  8
KI1
 10
229.44655029177031
 20
120.51301887689429
 30
0.0
 11
229.44655029177031
 21
124.98301887689421
 31
0.0
  0
LINE
  5
1E335
  8
KI1
 10
228.44655029177031
 20
114.0830188768942
 30
0.0
 11
228.44655029177031
 21
124.48301887689431
 31
0.0
  0
LINE
  5
1E336
  8
KI1
 10
244.94655029177031
 20
124.2830188768943
 30
0.0
 11
244.94655029177031
 21
125.01278151583701
 31
0.0
  0
LINE
  5
1E337
  8
KI1
 10
240.44655029177039
 20
124.48301887689431
 30
0.0
 11
241.44655029177031
 21
124.48301887689431
 31
0.0
  0
LINE
  5
1E338
  8
KI1
 10
241.72939300424511
 20
124.2830188768943
 30
0.0
 11
244.94655029177031
 21
124.2830188768943
 31
0.0
  0
ARC
  5
1E339
  8
KI1
 10
241.729393004245
 20
124.5830188768942
 30
0.0
 40
0.3
 50
199.47122063446531
 51
270.00000000000648
  0
LINE
  5
1E33A
  8
KI1
 10
244.94655029177031
 20
125.01278151583701
 30
0.0
 11
240.02460577296941
 21
125.4768886389315
 31
0.0
  0
LINE
  5
1E33B
  8
KI1
 10
240.44655029177039
 20
114.0830188768942
 30
0.0
 11
240.44655029177039
 21
124.48301887689431
 31
0.0
  0
TEXT
  5
1E35A
  8
MJ
 10
214.6930580426978
 20
55.783007487720852
 30
0.0
 40
7.0
  1
埋込みレール
 41
0.8299999999999999
 72
     4
 11
234.44705804269779
 21
59.283007487720852
 31
0.0
  0
TEXT
  5
1E35B
  8
MJ
 10
219.58529838202631
 20
279.6057439467258
 30
0.0
 40
7.0
  1
直貼りレール
 41
0.8299999999999999
 72
     4
 11
239.3392983820263
 21
283.1057439467258
 31
0.0
  0
LINE
  5
1E35C
  8
OS
 10
108.94710624401699
 20
316.10574394672591
 30
0.0
 11
328.94710624401711
 21
316.10574394672591
 31
0.0
  0
LINE
  5
1E35D
  8
KI1
 10
123.4471062440177
 20
335.89997258078478
 30
0.0
 11
118.9471062440177
 21
328.10574394672471
 31
0.0
  0
LINE
  5
1E35E
  8
KI1
 10
114.4471062440177
 20
335.89997258078478
 30
0.0
 11
123.4471062440177
 21
335.89997258078478
 31
0.0
  0
LINE
  5
1E35F
  8
OS
 10
108.94710624401699
 20
318.10574394672591
 30
0.0
 11
328.94710624401711
 21
318.10574394672591
 31
0.0
  0
LINE
  5
1E360
  8
OS
 10
108.94710624401699
 20
322.10574394672591
 30
0.0
 11
328.94710624401711
 21
322.10574394672591
 31
0.0
  0
LINE
  5
1E361
  8
OS
 10
108.94710624401699
 20
326.10574394672591
 30
0.0
 11
328.94710624401711
 21
326.10574394672591
 31
0.0
  0
LINE
  5
1E362
  8
KI1
 10
118.9471062440177
 20
328.10574394672471
 30
0.0
 11
114.4471062440177
 21
335.89997258078478
 31
0.0
  0
LINE
  5
1E363
  8
OS
 10
108.94710624401699
 20
320.10574394672591
 30
0.0
 11
328.94710624401711
 21
320.1057439467254
 31
0.0
  0
LINE
  5
1E364
  8
OS
 10
108.94710624401699
 20
324.10574394672591
 30
0.0
 11
328.94710624401711
 21
324.10574394672591
 31
0.0
  0
LINE
  5
1E365
  8
OS
 10
108.94710624401699
 20
328.10574394672591
 30
0.0
 11
328.94710624401711
 21
328.10574394672591
 31
0.0
  0
TEXT
  5
1E366
  8
OS
 10
113.31496338687489
 20
340.13204394142281
 30
0.0
 40
7.5
  1
FL
 41
0.8299999999999999
 72
     1
 11
118.9471062440177
 21
340.13204394142281
 31
0.0
 73
     1
  0
LINE
  5
1E367
  8
OS
 10
108.94710624401699
 20
112.28300748772079
 30
0.0
 11
328.94710624401711
 21
112.28300748772079
 31
0.0
  0
LINE
  5
1E368
  8
KI1
 10
123.4471062440177
 20
132.0772361217798
 30
0.0
 11
118.9471062440177
 21
124.2830074877197
 31
0.0
  0
LINE
  5
1E369
  8
KI1
 10
114.4471062440177
 20
132.0772361217798
 30
0.0
 11
123.4471062440177
 21
132.0772361217798
 31
0.0
  0
LINE
  5
1E36A
  8
OS
 10
108.94710624401699
 20
114.28300748772079
 30
0.0
 11
227.44704926117501
 21
114.28300748772079
 31
0.0
  0
LINE
  5
1E36B
  8
OS
 10
241.4470492611749
 20
114.28300748772079
 30
0.0
 11
328.94710624401711
 21
114.28300748772079
 31
0.0
  0
LINE
  5
1E36C
  8
OS
 10
108.94710624401699
 20
118.28300748772079
 30
0.0
 11
227.44704926117501
 21
118.28300748772079
 31
0.0
  0
LINE
  5
1E36D
  8
OS
 10
241.4470492611749
 20
118.28300748772079
 30
0.0
 11
328.94710624401711
 21
118.28300748772079
 31
0.0
  0
LINE
  5
1E36E
  8
OS
 10
108.94710624401699
 20
122.28300748772079
 30
0.0
 11
227.44704926117501
 21
122.28300748772079
 31
0.0
  0
LINE
  5
1E36F
  8
OS
 10
241.4470492611749
 20
122.28300748772079
 30
0.0
 11
328.94710624401711
 21
122.28300748772079
 31
0.0
  0
LINE
  5
1E370
  8
KI1
 10
118.9471062440177
 20
124.2830074877197
 30
0.0
 11
114.4471062440177
 21
132.0772361217798
 31
0.0
  0
LINE
  5
1E371
  8
OS
 10
108.94710624401699
 20
116.28300748772079
 30
0.0
 11
227.4470492611749
 21
116.2830074877206
 31
0.0
  0
LINE
  5
1E372
  8
OS
 10
241.4470492611749
 20
116.2830074877206
 30
0.0
 11
328.94710624401711
 21
116.2830074877204
 31
0.0
  0
LINE
  5
1E373
  8
OS
 10
108.94710624401699
 20
120.28300748772079
 30
0.0
 11
227.44704926117501
 21
120.28300748772079
 31
0.0
  0
LINE
  5
1E374
  8
OS
 10
241.4470492611749
 20
120.28300748772079
 30
0.0
 11
328.94710624401711
 21
120.28300748772079
 31
0.0
  0
LINE
  5
1E375
  8
OS
 10
108.94710624401699
 20
124.28300748772079
 30
0.0
 11
227.44704926117501
 21
124.28300748772079
 31
0.0
  0
LINE
  5
1E376
  8
OS
 10
241.4470492611749
 20
124.28300748772079
 30
0.0
 11
328.94710624401711
 21
124.28300748772079
 31
0.0
  0
TEXT
  5
1E377
  8
OS
 10
113.31496338687489
 20
136.30930748241781
 30
0.0
 40
7.5
  1
FL
 41
0.8299999999999999
 72
     1
 11
118.9471062440177
 21
136.30930748241781
 31
0.0
 73
     1
  0
LINE
  5
1E6CC
  8
SU
 10
394.94710624401552
 20
134.28300748772079
 30
0.0
 11
388.94710624401552
 21
124.28300748772079
 31
0.0
  0
LINE
  5
1E6CD
  8
SU
 10
382.94710624401552
 20
134.28300748772079
 30
0.0
 11
388.94710624401552
 21
124.28300748772079
 31
0.0
  0
LINE
  5
1E6CE
  8
SU
 10
394.94710624401552
 20
134.28300748772079
 30
0.0
 11
382.94710624401552
 21
134.28300748772079
 31
0.0
  0
LINE
  5
1E6CF
  8
SU
 10
388.98774301075611
 20
124.350735432288
 30
0.0
 11
388.90646947727521
 21
124.350735432288
 31
0.0
  0
LINE
  5
1E6D0
  8
SU
 10
389.107743010756
 20
124.55073543228779
 30
0.0
 11
388.78646947727532
 21
124.55073543228779
 31
0.0
  0
LINE
  5
1E6D1
  8
SU
 10
389.22774301075611
 20
124.7507354322881
 30
0.0
 11
388.66646947727509
 21
124.7507354322881
 31
0.0
  0
LINE
  5
1E6D2
  8
SU
 10
389.34774301075601
 20
124.9507354322879
 30
0.0
 11
388.54646947727502
 21
124.9507354322879
 31
0.0
  0
LINE
  5
1E6D3
  8
SU
 10
389.4677430107559
 20
125.1507354322882
 30
0.0
 11
388.42646947727508
 21
125.1507354322882
 31
0.0
  0
LINE
  5
1E6D4
  8
SU
 10
389.58774301075601
 20
125.350735432288
 30
0.0
 11
388.3064694772753
 21
125.350735432288
 31
0.0
  0
LINE
  5
1E6D5
  8
SU
 10
389.70774301075608
 20
125.55073543228779
 30
0.0
 11
388.18646947727512
 21
125.55073543228779
 31
0.0
  0
LINE
  5
1E6D6
  8
SU
 10
389.82774301075602
 20
125.7507354322881
 30
0.0
 11
388.06646947727501
 21
125.7507354322881
 31
0.0
  0
LINE
  5
1E6D7
  8
SU
 10
389.94774301075591
 20
125.9507354322879
 30
0.0
 11
387.94646947727512
 21
125.9507354322879
 31
0.0
  0
LINE
  5
1E6D8
  8
SU
 10
390.06774301075581
 20
126.1507354322882
 30
0.0
 11
387.82646947727523
 21
126.1507354322882
 31
0.0
  0
LINE
  5
1E6D9
  8
SU
 10
390.18774301075609
 20
126.350735432288
 30
0.0
 11
387.70646947727511
 21
126.350735432288
 31
0.0
  0
LINE
  5
1E6DA
  8
SU
 10
390.30774301075598
 20
126.55073543228779
 30
0.0
 11
387.58646947727499
 21
126.55073543228779
 31
0.0
  0
LINE
  5
1E6DB
  8
SU
 10
390.42774301075588
 20
126.7507354322881
 30
0.0
 11
387.4664694772751
 21
126.7507354322881
 31
0.0
  0
LINE
  5
1E6DC
  8
SU
 10
390.54774301075611
 20
126.9507354322879
 30
0.0
 11
387.34646947727521
 21
126.9507354322879
 31
0.0
  0
LINE
  5
1E6DD
  8
SU
 10
390.667743010756
 20
127.1507354322882
 30
0.0
 11
387.22646947727509
 21
127.1507354322882
 31
0.0
  0
LINE
  5
1E6DE
  8
SU
 10
390.78774301075612
 20
127.350735432288
 30
0.0
 11
387.1064694772752
 21
127.350735432288
 31
0.0
  0
LINE
  5
1E6DF
  8
SU
 10
390.90774301075601
 20
127.55073543228779
 30
0.0
 11
386.98646947727508
 21
127.55073543228779
 31
0.0
  0
LINE
  5
1E6E0
  8
SU
 10
391.02774301075613
 20
127.7507354322881
 30
0.0
 11
386.86646947727519
 21
127.7507354322881
 31
0.0
  0
LINE
  5
1E6E1
  8
SU
 10
391.14774301075602
 20
127.9507354322879
 30
0.0
 11
386.74646947727513
 21
127.9507354322879
 31
0.0
  0
LINE
  5
1E6E2
  8
SU
 10
391.26774301075608
 20
128.1507354322882
 30
0.0
 11
386.62646947727518
 21
128.1507354322882
 31
0.0
  0
LINE
  5
1E6E3
  8
SU
 10
391.38774301075591
 20
128.35073543228799
 30
0.0
 11
386.50646947727512
 21
128.35073543228799
 31
0.0
  0
LINE
  5
1E6E4
  8
SU
 10
391.5077430107558
 20
128.55073543228781
 30
0.0
 11
386.38646947727523
 21
128.55073543228781
 31
0.0
  0
LINE
  5
1E6E5
  8
SU
 10
391.62774301075598
 20
128.75073543228811
 30
0.0
 11
386.266469477275
 21
128.75073543228811
 31
0.0
  0
LINE
  5
1E6E6
  8
SU
 10
391.7477430107561
 20
128.9507354322879
 30
0.0
 11
386.14646947727522
 21
128.9507354322879
 31
0.0
  0
LINE
  5
1E6E7
  8
SU
 10
391.86774301075599
 20
129.1507354322882
 30
0.0
 11
386.02646947727499
 21
129.1507354322882
 31
0.0
  0
LINE
  5
1E6E8
  8
SU
 10
391.98774301075611
 20
129.35073543228799
 30
0.0
 11
385.90646947727521
 21
129.35073543228799
 31
0.0
  0
LINE
  5
1E6E9
  8
SU
 10
392.107743010756
 20
129.55073543228789
 30
0.0
 11
385.78646947727532
 21
129.55073543228789
 31
0.0
  0
LINE
  5
1E6EA
  8
SU
 10
392.22774301075611
 20
129.75073543228811
 30
0.0
 11
385.6664694772752
 21
129.75073543228811
 31
0.0
  0
LINE
  5
1E6EB
  8
SU
 10
392.34774301075601
 20
129.9507354322879
 30
0.0
 11
385.54646947727502
 21
129.9507354322879
 31
0.0
  0
LINE
  5
1E6EC
  8
SU
 10
392.4677430107559
 20
130.1507354322882
 30
0.0
 11
385.42646947727508
 21
130.1507354322882
 31
0.0
  0
LINE
  5
1E6ED
  8
SU
 10
392.58774301075601
 20
130.35073543228799
 30
0.0
 11
385.30646947727519
 21
130.35073543228799
 31
0.0
  0
LINE
  5
1E6EE
  8
SU
 10
392.70774301075608
 20
130.55073543228789
 30
0.0
 11
385.18646947727512
 21
130.55073543228789
 31
0.0
  0
LINE
  5
1E6EF
  8
SU
 10
392.82774301075602
 20
130.75073543228811
 30
0.0
 11
385.06646947727501
 21
130.75073543228811
 31
0.0
  0
LINE
  5
1E6F0
  8
SU
 10
392.94774301075591
 20
130.9507354322879
 30
0.0
 11
384.94646947727512
 21
130.9507354322879
 31
0.0
  0
LINE
  5
1E6F1
  8
SU
 10
393.06774301075581
 20
131.1507354322882
 30
0.0
 11
384.82646947727523
 21
131.1507354322882
 31
0.0
  0
LINE
  5
1E6F2
  8
SU
 10
393.18774301075621
 20
131.35073543228799
 30
0.0
 11
384.70646947727511
 21
131.35073543228799
 31
0.0
  0
LINE
  5
1E6F3
  8
SU
 10
393.3077430107561
 20
131.55073543228781
 30
0.0
 11
384.58646947727499
 21
131.55073543228781
 31
0.0
  0
LINE
  5
1E6F4
  8
SU
 10
393.42774301075599
 20
131.75073543228811
 30
0.0
 11
384.4664694772751
 21
131.75073543228811
 31
0.0
  0
LINE
  5
1E6F5
  8
SU
 10
393.54774301075611
 20
131.9507354322879
 30
0.0
 11
384.34646947727521
 21
131.9507354322879
 31
0.0
  0
LINE
  5
1E6F6
  8
SU
 10
393.66774301075588
 20
132.1507354322882
 30
0.0
 11
384.22646947727509
 21
132.1507354322882
 31
0.0
  0
LINE
  5
1E6F7
  8
SU
 10
393.787743010756
 20
132.35073543228799
 30
0.0
 11
384.1064694772752
 21
132.35073543228799
 31
0.0
  0
LINE
  5
1E6F8
  8
SU
 10
393.90774301075589
 20
132.55073543228781
 30
0.0
 11
383.98646947727508
 21
132.55073543228781
 31
0.0
  0
LINE
  5
1E6F9
  8
SU
 10
394.02774301075613
 20
132.75073543228811
 30
0.0
 11
383.86646947727519
 21
132.75073543228811
 31
0.0
  0
LINE
  5
1E6FA
  8
SU
 10
394.14774301075602
 20
132.9507354322879
 30
0.0
 11
383.74646947727513
 21
132.9507354322879
 31
0.0
  0
LINE
  5
1E6FB
  8
SU
 10
394.26774301075608
 20
133.1507354322882
 30
0.0
 11
383.62646947727518
 21
133.1507354322882
 31
0.0
  0
LINE
  5
1E6FC
  8
SU
 10
394.38774301075603
 20
133.35073543228799
 30
0.0
 11
383.506469477275
 21
133.35073543228799
 31
0.0
  0
LINE
  5
1E6FD
  8
SU
 10
394.50774301075592
 20
133.55073543228781
 30
0.0
 11
383.38646947727523
 21
133.55073543228781
 31
0.0
  0
LINE
  5
1E6FE
  8
SU
 10
394.62774301075598
 20
133.75073543228811
 30
0.0
 11
383.26646947727511
 21
133.75073543228811
 31
0.0
  0
LINE
  5
1E6FF
  8
SU
 10
394.7477430107561
 20
133.9507354322879
 30
0.0
 11
383.14646947727522
 21
133.9507354322879
 31
0.0
  0
LINE
  5
1E700
  8
SU
 10
394.86774301075599
 20
134.1507354322882
 30
0.0
 11
383.02646947727499
 21
134.1507354322882
 31
0.0
  0
LINE
  5
1E701
  8
SU
 10
241.9470492611749
 20
125.78300748772079
 30
0.0
 11
351.94710624401711
 21
125.78300748772079
 31
0.0
  0
LINE
  5
1E702
  8
SU
 10
348.94710624401699
 20
124.28300748772079
 30
0.0
 11
348.94710624401699
 21
114.6830074877208
 31
0.0
  0
LINE
  5
1E703
  8
SU
 10
348.94710624401699
 20
125.78300748772079
 30
0.0
 11
348.94710624401711
 21
158.92634082105411
 31
0.0
  0
LINE
  5
1E704
  8
SU
 10
348.94710624401699
 20
124.28300748772079
 30
0.0
 11
348.94710624401699
 21
125.78300748772079
 31
0.0
  0
LINE
  5
1E708
  8
SU
 10
394.94710624401688
 20
654.10574394563093
 30
0.0
 11
388.94710624401688
 21
664.10574394563093
 31
0.0
  0
LINE
  5
1E709
  8
SU
 10
382.94710624401688
 20
654.10574394563093
 30
0.0
 11
388.94710624401688
 21
664.10574394563093
 31
0.0
  0
LINE
  5
1E70A
  8
SU
 10
394.94710624401688
 20
654.10574394563093
 30
0.0
 11
382.94710624401688
 21
654.10574394563093
 31
0.0
  0
LINE
  5
1E70B
  8
SU
 10
388.98774301075753
 20
664.03801600106374
 30
0.0
 11
388.90646947727657
 21
664.03801600106374
 31
0.0
  0
LINE
  5
1E70C
  8
SU
 10
389.10774301075742
 20
663.83801600106392
 30
0.0
 11
388.78646947727668
 21
663.83801600106392
 31
0.0
  0
LINE
  5
1E70D
  8
SU
 10
389.22774301075748
 20
663.63801600106365
 30
0.0
 11
388.66646947727662
 21
663.63801600106365
 31
0.0
  0
LINE
  5
1E70E
  8
SU
 10
389.34774301075743
 20
663.43801600106383
 30
0.0
 11
388.54646947727639
 21
663.43801600106383
 31
0.0
  0
LINE
  5
1E70F
  8
SU
 10
389.46774301075732
 20
663.23801600106356
 30
0.0
 11
388.4264694772765
 21
663.23801600106356
 31
0.0
  0
LINE
  5
1E710
  8
SU
 10
389.58774301075738
 20
663.03801600106374
 30
0.0
 11
388.30646947727672
 21
663.03801600106374
 31
0.0
  0
LINE
  5
1E711
  8
SU
 10
389.70774301075761
 20
662.83801600106392
 30
0.0
 11
388.1864694772766
 21
662.83801600106392
 31
0.0
  0
LINE
  5
1E712
  8
SU
 10
389.8277430107575
 20
662.63801600106365
 30
0.0
 11
388.06646947727643
 21
662.63801600106365
 31
0.0
  0
LINE
  5
1E713
  8
SU
 10
389.94774301075728
 20
662.43801600106383
 30
0.0
 11
387.94646947727659
 21
662.43801600106383
 31
0.0
  0
LINE
  5
1E714
  8
SU
 10
390.06774301075723
 20
662.23801600106356
 30
0.0
 11
387.8264694772767
 21
662.23801600106356
 31
0.0
  0
LINE
  5
1E715
  8
SU
 10
390.18774301075757
 20
662.03801600106374
 30
0.0
 11
387.70646947727653
 21
662.03801600106374
 31
0.0
  0
LINE
  5
1E716
  8
SU
 10
390.30774301075752
 20
661.83801600106392
 30
0.0
 11
387.58646947727641
 21
661.83801600106392
 31
0.0
  0
LINE
  5
1E717
  8
SU
 10
390.4277430107573
 20
661.63801600106365
 30
0.0
 11
387.46646947727652
 21
661.63801600106365
 31
0.0
  0
LINE
  5
1E718
  8
SU
 10
390.54774301075747
 20
661.43801600106383
 30
0.0
 11
387.34646947727663
 21
661.43801600106383
 31
0.0
  0
LINE
  5
1E719
  8
SU
 10
390.66774301075742
 20
661.23801600106356
 30
0.0
 11
387.22646947727651
 21
661.23801600106356
 31
0.0
  0
LINE
  5
1E71A
  8
SU
 10
390.78774301075748
 20
661.03801600106374
 30
0.0
 11
387.10646947727662
 21
661.03801600106374
 31
0.0
  0
LINE
  5
1E71B
  8
SU
 10
390.90774301075737
 20
660.83801600106392
 30
0.0
 11
386.9864694772765
 21
660.83801600106392
 31
0.0
  0
LINE
  5
1E71C
  8
SU
 10
391.02774301075749
 20
660.63801600106365
 30
0.0
 11
386.86646947727661
 21
660.63801600106365
 31
0.0
  0
LINE
  5
1E71D
  8
SU
 10
391.14774301075738
 20
660.43801600106383
 30
0.0
 11
386.74646947727649
 21
660.43801600106383
 31
0.0
  0
LINE
  5
1E71E
  8
SU
 10
391.2677430107575
 20
660.23801600106356
 30
0.0
 11
386.6264694772766
 21
660.23801600106356
 31
0.0
  0
LINE
  5
1E71F
  8
SU
 10
391.38774301075739
 20
660.03801600106374
 30
0.0
 11
386.50646947727648
 21
660.03801600106374
 31
0.0
  0
LINE
  5
1E720
  8
SU
 10
391.50774301075728
 20
659.83801600106392
 30
0.0
 11
386.38646947727659
 21
659.83801600106392
 31
0.0
  0
LINE
  5
1E721
  8
SU
 10
391.6277430107574
 20
659.63801600106365
 30
0.0
 11
386.26646947727647
 21
659.63801600106365
 31
0.0
  0
LINE
  5
1E722
  8
SU
 10
391.74774301075752
 20
659.43801600106383
 30
0.0
 11
386.14646947727658
 21
659.43801600106383
 31
0.0
  0
LINE
  5
1E723
  8
SU
 10
391.86774301075741
 20
659.23801600106356
 30
0.0
 11
386.02646947727641
 21
659.23801600106356
 31
0.0
  0
LINE
  5
1E724
  8
SU
 10
391.98774301075753
 20
659.03801600106374
 30
0.0
 11
385.90646947727657
 21
659.03801600106374
 31
0.0
  0
LINE
  5
1E725
  8
SU
 10
392.10774301075742
 20
658.83801600106392
 30
0.0
 11
385.78646947727668
 21
658.83801600106392
 31
0.0
  0
LINE
  5
1E726
  8
SU
 10
392.22774301075748
 20
658.63801600106365
 30
0.0
 11
385.66646947727662
 21
658.63801600106365
 31
0.0
  0
LINE
  5
1E727
  8
SU
 10
392.34774301075743
 20
658.43801600106383
 30
0.0
 11
385.5464694772765
 21
658.43801600106383
 31
0.0
  0
LINE
  5
1E728
  8
SU
 10
392.46774301075732
 20
658.23801600106356
 30
0.0
 11
385.42646947727661
 21
658.23801600106356
 31
0.0
  0
LINE
  5
1E729
  8
SU
 10
392.58774301075738
 20
658.03801600106374
 30
0.0
 11
385.30646947727672
 21
658.03801600106374
 31
0.0
  0
LINE
  5
1E72A
  8
SU
 10
392.7077430107575
 20
657.83801600106392
 30
0.0
 11
385.1864694772766
 21
657.83801600106392
 31
0.0
  0
LINE
  5
1E72B
  8
SU
 10
392.82774301075739
 20
657.63801600106365
 30
0.0
 11
385.06646947727643
 21
657.63801600106365
 31
0.0
  0
LINE
  5
1E72C
  8
SU
 10
392.94774301075728
 20
657.43801600106383
 30
0.0
 11
384.94646947727648
 21
657.43801600106383
 31
0.0
  0
LINE
  5
1E72D
  8
SU
 10
393.06774301075723
 20
657.23801600106356
 30
0.0
 11
384.82646947727659
 21
657.23801600106356
 31
0.0
  0
LINE
  5
1E72E
  8
SU
 10
393.18774301075757
 20
657.03801600106374
 30
0.0
 11
384.70646947727658
 21
657.03801600106374
 31
0.0
  0
LINE
  5
1E72F
  8
SU
 10
393.30774301075752
 20
656.83801600106392
 30
0.0
 11
384.58646947727641
 21
656.83801600106392
 31
0.0
  0
LINE
  5
1E730
  8
SU
 10
393.42774301075741
 20
656.63801600106365
 30
0.0
 11
384.46646947727652
 21
656.63801600106365
 31
0.0
  0
LINE
  5
1E731
  8
SU
 10
393.54774301075747
 20
656.43801600106383
 30
0.0
 11
384.34646947727663
 21
656.43801600106383
 31
0.0
  0
LINE
  5
1E732
  8
SU
 10
393.66774301075731
 20
656.23801600106356
 30
0.0
 11
384.22646947727651
 21
656.23801600106356
 31
0.0
  0
LINE
  5
1E733
  8
SU
 10
393.78774301075748
 20
656.03801600106374
 30
0.0
 11
384.10646947727662
 21
656.03801600106374
 31
0.0
  0
LINE
  5
1E734
  8
SU
 10
393.90774301075737
 20
655.83801600106392
 30
0.0
 11
383.9864694772765
 21
655.83801600106392
 31
0.0
  0
LINE
  5
1E735
  8
SU
 10
394.02774301075749
 20
655.63801600106365
 30
0.0
 11
383.86646947727661
 21
655.63801600106365
 31
0.0
  0
LINE
  5
1E736
  8
SU
 10
394.14774301075738
 20
655.43801600106383
 30
0.0
 11
383.74646947727649
 21
655.43801600106383
 31
0.0
  0
LINE
  5
1E737
  8
SU
 10
394.2677430107575
 20
655.23801600106356
 30
0.0
 11
383.6264694772766
 21
655.23801600106356
 31
0.0
  0
LINE
  5
1E738
  8
SU
 10
394.38774301075739
 20
655.03801600106374
 30
0.0
 11
383.50646947727648
 21
655.03801600106374
 31
0.0
  0
LINE
  5
1E739
  8
SU
 10
394.50774301075728
 20
654.83801600106392
 30
0.0
 11
383.38646947727659
 21
654.83801600106392
 31
0.0
  0
LINE
  5
1E73A
  8
SU
 10
394.6277430107574
 20
654.63801600106365
 30
0.0
 11
383.26646947727647
 21
654.63801600106365
 31
0.0
  0
LINE
  5
1E73B
  8
SU
 10
394.74774301075752
 20
654.43801600106383
 30
0.0
 11
383.14646947727658
 21
654.43801600106383
 31
0.0
  0
LINE
  5
1E73C
  8
SU
 10
394.86774301075741
 20
654.23801600106356
 30
0.0
 11
383.02646947727652
 21
654.23801600106356
 31
0.0
  0
LINE
  5
1E73D
  8
SU
 10
394.94710624401688
 20
338.10574394672568
 30
0.0
 11
388.94710624401688
 21
328.10574394672568
 31
0.0
  0
LINE
  5
1E73E
  8
SU
 10
382.94710624401688
 20
338.10574394672568
 30
0.0
 11
388.94710624401688
 21
328.10574394672568
 31
0.0
  0
LINE
  5
1E73F
  8
SU
 10
394.94710624401688
 20
338.10574394672568
 30
0.0
 11
382.94710624401688
 21
338.10574394672568
 31
0.0
  0
LINE
  5
1E740
  8
SU
 10
388.98774301075753
 20
328.17347189129288
 30
0.0
 11
388.90646947727657
 21
328.17347189129288
 31
0.0
  0
LINE
  5
1E741
  8
SU
 10
389.10774301075742
 20
328.37347189129281
 30
0.0
 11
388.78646947727668
 21
328.37347189129281
 31
0.0
  0
LINE
  5
1E742
  8
SU
 10
389.22774301075748
 20
328.57347189129302
 30
0.0
 11
388.66646947727662
 21
328.57347189129302
 31
0.0
  0
LINE
  5
1E743
  8
SU
 10
389.34774301075743
 20
328.7734718912929
 30
0.0
 11
388.54646947727639
 21
328.7734718912929
 31
0.0
  0
LINE
  5
1E744
  8
SU
 10
389.46774301075732
 20
328.97347189129312
 30
0.0
 11
388.4264694772765
 21
328.97347189129312
 31
0.0
  0
LINE
  5
1E745
  8
SU
 10
389.58774301075738
 20
329.17347189129299
 30
0.0
 11
388.30646947727672
 21
329.17347189129299
 31
0.0
  0
LINE
  5
1E746
  8
SU
 10
389.70774301075761
 20
329.37347189129281
 30
0.0
 11
388.1864694772766
 21
329.37347189129281
 31
0.0
  0
LINE
  5
1E747
  8
SU
 10
389.8277430107575
 20
329.57347189129302
 30
0.0
 11
388.06646947727643
 21
329.57347189129302
 31
0.0
  0
LINE
  5
1E748
  8
SU
 10
389.94774301075728
 20
329.77347189129279
 30
0.0
 11
387.94646947727659
 21
329.77347189129279
 31
0.0
  0
LINE
  5
1E749
  8
SU
 10
390.06774301075723
 20
329.97347189129312
 30
0.0
 11
387.8264694772767
 21
329.97347189129312
 31
0.0
  0
LINE
  5
1E74A
  8
SU
 10
390.18774301075757
 20
330.17347189129288
 30
0.0
 11
387.70646947727653
 21
330.17347189129288
 31
0.0
  0
LINE
  5
1E74B
  8
SU
 10
390.30774301075752
 20
330.37347189129281
 30
0.0
 11
387.58646947727641
 21
330.37347189129281
 31
0.0
  0
LINE
  5
1E74C
  8
SU
 10
390.4277430107573
 20
330.57347189129302
 30
0.0
 11
387.46646947727652
 21
330.57347189129302
 31
0.0
  0
LINE
  5
1E74D
  8
SU
 10
390.54774301075747
 20
330.7734718912929
 30
0.0
 11
387.34646947727663
 21
330.7734718912929
 31
0.0
  0
LINE
  5
1E74E
  8
SU
 10
390.66774301075742
 20
330.97347189129312
 30
0.0
 11
387.22646947727651
 21
330.97347189129312
 31
0.0
  0
LINE
  5
1E74F
  8
SU
 10
390.78774301075748
 20
331.17347189129299
 30
0.0
 11
387.10646947727662
 21
331.17347189129299
 31
0.0
  0
LINE
  5
1E750
  8
SU
 10
390.90774301075737
 20
331.37347189129281
 30
0.0
 11
386.9864694772765
 21
331.37347189129281
 31
0.0
  0
LINE
  5
1E751
  8
SU
 10
391.02774301075749
 20
331.57347189129302
 30
0.0
 11
386.86646947727661
 21
331.57347189129302
 31
0.0
  0
LINE
  5
1E752
  8
SU
 10
391.14774301075738
 20
331.77347189129279
 30
0.0
 11
386.74646947727649
 21
331.77347189129279
 31
0.0
  0
LINE
  5
1E753
  8
SU
 10
391.2677430107575
 20
331.97347189129312
 30
0.0
 11
386.6264694772766
 21
331.97347189129312
 31
0.0
  0
LINE
  5
1E754
  8
SU
 10
391.38774301075739
 20
332.17347189129288
 30
0.0
 11
386.50646947727648
 21
332.17347189129288
 31
0.0
  0
LINE
  5
1E755
  8
SU
 10
391.50774301075728
 20
332.3734718912927
 30
0.0
 11
386.38646947727659
 21
332.3734718912927
 31
0.0
  0
LINE
  5
1E756
  8
SU
 10
391.6277430107574
 20
332.57347189129302
 30
0.0
 11
386.26646947727647
 21
332.57347189129302
 31
0.0
  0
LINE
  5
1E757
  8
SU
 10
391.74774301075752
 20
332.7734718912929
 30
0.0
 11
386.14646947727658
 21
332.7734718912929
 31
0.0
  0
LINE
  5
1E758
  8
SU
 10
391.86774301075741
 20
332.97347189129312
 30
0.0
 11
386.02646947727641
 21
332.97347189129312
 31
0.0
  0
LINE
  5
1E759
  8
SU
 10
391.98774301075753
 20
333.17347189129299
 30
0.0
 11
385.90646947727657
 21
333.17347189129299
 31
0.0
  0
LINE
  5
1E75A
  8
SU
 10
392.10774301075742
 20
333.37347189129281
 30
0.0
 11
385.78646947727668
 21
333.37347189129281
 31
0.0
  0
LINE
  5
1E75B
  8
SU
 10
392.22774301075748
 20
333.57347189129302
 30
0.0
 11
385.66646947727662
 21
333.57347189129302
 31
0.0
  0
LINE
  5
1E75C
  8
SU
 10
392.34774301075743
 20
333.77347189129279
 30
0.0
 11
385.5464694772765
 21
333.77347189129279
 31
0.0
  0
LINE
  5
1E75D
  8
SU
 10
392.46774301075732
 20
333.97347189129312
 30
0.0
 11
385.42646947727661
 21
333.97347189129312
 31
0.0
  0
LINE
  5
1E75E
  8
SU
 10
392.58774301075738
 20
334.17347189129288
 30
0.0
 11
385.30646947727672
 21
334.17347189129288
 31
0.0
  0
LINE
  5
1E75F
  8
SU
 10
392.7077430107575
 20
334.3734718912927
 30
0.0
 11
385.1864694772766
 21
334.3734718912927
 31
0.0
  0
LINE
  5
1E760
  8
SU
 10
392.82774301075739
 20
334.57347189129302
 30
0.0
 11
385.06646947727643
 21
334.57347189129302
 31
0.0
  0
LINE
  5
1E761
  8
SU
 10
392.94774301075728
 20
334.77347189129279
 30
0.0
 11
384.94646947727648
 21
334.77347189129279
 31
0.0
  0
LINE
  5
1E762
  8
SU
 10
393.06774301075723
 20
334.97347189129312
 30
0.0
 11
384.82646947727659
 21
334.97347189129312
 31
0.0
  0
LINE
  5
1E763
  8
SU
 10
393.18774301075757
 20
335.17347189129299
 30
0.0
 11
384.70646947727658
 21
335.17347189129299
 31
0.0
  0
LINE
  5
1E764
  8
SU
 10
393.30774301075752
 20
335.37347189129281
 30
0.0
 11
384.58646947727641
 21
335.37347189129281
 31
0.0
  0
LINE
  5
1E765
  8
SU
 10
393.42774301075741
 20
335.57347189129302
 30
0.0
 11
384.46646947727652
 21
335.57347189129302
 31
0.0
  0
LINE
  5
1E766
  8
SU
 10
393.54774301075747
 20
335.77347189129279
 30
0.0
 11
384.34646947727663
 21
335.77347189129279
 31
0.0
  0
LINE
  5
1E767
  8
SU
 10
393.66774301075731
 20
335.97347189129312
 30
0.0
 11
384.22646947727651
 21
335.97347189129312
 31
0.0
  0
LINE
  5
1E768
  8
SU
 10
393.78774301075748
 20
336.17347189129288
 30
0.0
 11
384.10646947727662
 21
336.17347189129288
 31
0.0
  0
LINE
  5
1E769
  8
SU
 10
393.90774301075737
 20
336.3734718912927
 30
0.0
 11
383.9864694772765
 21
336.3734718912927
 31
0.0
  0
LINE
  5
1E76A
  8
SU
 10
394.02774301075749
 20
336.57347189129302
 30
0.0
 11
383.86646947727661
 21
336.57347189129302
 31
0.0
  0
LINE
  5
1E76B
  8
SU
 10
394.14774301075738
 20
336.77347189129279
 30
0.0
 11
383.74646947727649
 21
336.77347189129279
 31
0.0
  0
LINE
  5
1E76C
  8
SU
 10
394.2677430107575
 20
336.97347189129312
 30
0.0
 11
383.6264694772766
 21
336.97347189129312
 31
0.0
  0
LINE
  5
1E76D
  8
SU
 10
394.38774301075739
 20
337.17347189129288
 30
0.0
 11
383.50646947727648
 21
337.17347189129288
 31
0.0
  0
LINE
  5
1E76E
  8
SU
 10
394.50774301075728
 20
337.37347189129281
 30
0.0
 11
383.38646947727659
 21
337.37347189129281
 31
0.0
  0
LINE
  5
1E76F
  8
SU
 10
394.6277430107574
 20
337.57347189129302
 30
0.0
 11
383.26646947727647
 21
337.57347189129302
 31
0.0
  0
LINE
  5
1E770
  8
SU
 10
394.74774301075752
 20
337.77347189129279
 30
0.0
 11
383.14646947727658
 21
337.77347189129279
 31
0.0
  0
LINE
  5
1E771
  8
SU
 10
394.86774301075741
 20
337.97347189129312
 30
0.0
 11
383.02646947727652
 21
337.97347189129312
 31
0.0
  0
LINE
  5
1E772
  8
SU
 10
219.1970416945683
 20
637.33574394563084
 30
0.0
 11
219.1970416945683
 21
594.10571154064883
 31
0.0
  0
LINE
  5
1E773
  8
SU
 10
219.1970416945683
 20
597.10571154064871
 30
0.0
 11
208.9470416945683
 21
597.10571154064871
 31
0.0
  0
LINE
  5
1E774
  8
SU
 10
208.9470416945683
 20
597.10571154064871
 30
0.0
 11
179.87037502790159
 21
597.10571154064871
 31
0.0
  0
LINE
  5
1E778
  8
SU
 10
219.1970416945683
 20
597.10574394563059
 30
0.0
 11
255.29704169456829
 21
597.10574394563059
 31
0.0
  0
LINE
  5
1E77B
  8
SU
 10
249.6970416945683
 20
674.60574394563082
 30
0.0
 11
249.6970416945683
 21
706.6057410073613
 31
0.0
  0
LINE
  5
1E77C
  8
SU
 10
255.29704169456829
 20
638.10574394563071
 30
0.0
 11
255.29704169456829
 21
706.6057410073613
 31
0.0
  0
LINE
  5
1E77D
  8
SU
 10
249.6970416945683
 20
703.60574100736142
 30
0.0
 11
255.29704169456829
 21
703.60574100736142
 31
0.0
  0
LINE
  5
1E77E
  8
SU
 10
255.29704169456829
 20
703.60574100736142
 30
0.0
 11
279.67037502790163
 21
703.60574100736142
 31
0.0
  0
LINE
  5
1E782
  8
SU
 10
208.9470416945683
 20
125.28300748772079
 30
0.0
 11
208.9470416945683
 21
156.17861459537539
 31
0.0
  0
LINE
  5
1E783
  8
SU
 10
223.94655029177031
 20
153.17861459537539
 30
0.0
 11
208.9470416945683
 21
153.17861459537539
 31
0.0
  0
LINE
  5
1E784
  8
SU
 10
208.9470416945683
 20
153.17861459537539
 30
0.0
 11
188.1703750279016
 21
153.17861459537539
 31
0.0
  0
LINE
  5
1E787
  8
SU
 10
208.9470416945683
 20
123.28300748772079
 30
0.0
 11
208.9470416945683
 21
68.283007487720852
 31
0.0
  0
LINE
  5
1E788
  8
SU
 10
227.4470492611749
 20
71.283007487720852
 30
0.0
 11
208.9470416945683
 21
71.283007487720852
 31
0.0
  0
LINE
  5
1E789
  8
SU
 10
208.9470416945683
 20
71.283007487720852
 30
0.0
 11
179.87037502790159
 21
71.283007487720852
 31
0.0
  0
LINE
  5
1E78C
  8
SU
 10
224.44704926124621
 20
327.10574394672608
 30
0.0
 11
224.44704926124621
 21
292.1057439467258
 31
0.0
  0
LINE
  5
1E78D
  8
SU
 10
208.9470416945683
 20
327.1057439467258
 30
0.0
 11
208.9470416945683
 21
292.1057439467258
 31
0.0
  0
LINE
  5
1E78E
  8
SU
 10
224.44704926124621
 20
295.10574394672591
 30
0.0
 11
208.9470416945683
 21
295.10574394672591
 31
0.0
  0
LINE
  5
1E78F
  8
SU
 10
208.9470416945683
 20
295.10574394672591
 30
0.0
 11
179.87037502790159
 21
295.10574394672591
 31
0.0
  0
LINE
  5
1E793
  8
SU
 10
219.1970416945683
 20
674.60574394563082
 30
0.0
 11
219.1970416945683
 21
706.60577189412038
 31
0.0
  0
LINE
  5
1E794
  8
SU
 10
208.9470416945683
 20
665.10574394563082
 30
0.0
 11
208.9470416945683
 21
706.60577189412038
 31
0.0
  0
LINE
  5
1E795
  8
SU
 10
219.1970416945683
 20
703.60577189412027
 30
0.0
 11
208.9470416945683
 21
703.60577189412027
 31
0.0
  0
LINE
  5
1E796
  8
SU
 10
208.9470416945683
 20
703.60577189412027
 30
0.0
 11
179.3337083612349
 21
703.60577189412027
 31
0.0
  0
LINE
  5
1E79A
  8
SU
 10
217.9470492611749
 20
626.10574473009865
 30
0.0
 11
217.9470492611749
 21
574.10574394562991
 31
0.0
  0
LINE
  5
1E79B
  8
SU
 10
208.9470416945683
 20
626.10574473009865
 30
0.0
 11
208.9470416945683
 21
574.10574394562991
 31
0.0
  0
LINE
  5
1E79C
  8
SU
 10
217.9470492611749
 20
577.1057439456298
 30
0.0
 11
208.9470416945683
 21
577.1057439456298
 31
0.0
  0
LINE
  5
1E7A0
  8
SU
 10
250.9470404794929
 20
626.10574520988212
 30
0.0
 11
250.9470404794929
 21
574.10574394563082
 31
0.0
  0
LINE
  5
1E7A1
  8
SU
 10
255.29704169456829
 20
623.10574394563082
 30
0.0
 11
255.29704169456829
 21
574.10574394563082
 31
0.0
  0
LINE
  5
1E7A2
  8
SU
 10
250.9470404794929
 20
577.10574394563082
 30
0.0
 11
255.29704169456829
 21
577.10574394563082
 31
0.0
  0
LINE
  5
1E7A3
  8
SU
 10
255.29704169456829
 20
577.10574394563082
 30
0.0
 11
279.94704169456833
 21
577.10574394563082
 31
0.0
  0
LINE
  5
1E7A7
  8
SU
 10
249.6970416945683
 20
703.60574100736142
 30
0.0
 11
219.1970416945683
 21
703.60574100736142
 31
0.0
  0
LINE
  5
1E7A9
  8
SU
 10
223.94655029177031
 20
126.01278151583691
 30
0.0
 11
223.94655029177031
 21
156.17861459537539
 31
0.0
  0
LINE
  5
1E7AA
  8
SU
 10
244.94655029177031
 20
126.01278151583691
 30
0.0
 11
244.94655029177031
 21
156.17861459537539
 31
0.0
  0
LINE
  5
1E7AB
  8
SU
 10
223.94655029177031
 20
153.17861459537539
 30
0.0
 11
244.94655029177031
 21
153.17861459537539
 31
0.0
  0
LINE
  5
1E7AF
  8
SU
 10
329.94710624401699
 20
112.28300748772079
 30
0.0
 11
391.94710624401569
 21
112.28300748772079
 31
0.0
  0
LINE
  5
1E7B0
  8
SU
 10
388.94710624401569
 20
112.28300748772079
 30
0.0
 11
388.94710624401569
 21
123.8713408210541
 31
0.0
  0
LINE
  5
1E7B3
  8
SU
 10
227.4470492611749
 20
111.28300748772079
 30
0.0
 11
227.4470492611749
 21
68.283007487720852
 31
0.0
  0
LINE
  5
1E7B4
  8
SU
 10
241.4470492611749
 20
111.28300748772079
 30
0.0
 11
241.4470492611749
 21
68.283007487720852
 31
0.0
  0
LINE
  5
1E7B5
  8
SU
 10
227.4470492611749
 20
71.283007487720852
 30
0.0
 11
241.4470492611749
 21
71.283007487720852
 31
0.0
  0
LINE
  5
1E7B9
  8
SU
 10
228.44655029177031
 20
113.0830188768941
 30
0.0
 11
228.44655029177031
 21
88.283007487720838
 31
0.0
  0
LINE
  5
1E7BA
  8
SU
 10
240.44655029177039
 20
113.0830188768941
 30
0.0
 11
240.44655029177039
 21
88.283007487720838
 31
0.0
  0
LINE
  5
1E7BB
  8
SU
 10
228.44655029177031
 20
91.283007487720852
 30
0.0
 11
240.44655029177039
 21
91.283007487720852
 31
0.0
  0
LINE
  5
1E7BF
  8
SU
 10
368.9471062440158
 20
131.28300748772079
 30
0.0
 11
368.9471062440158
 21
124.28300748772079
 31
0.0
  0
LINE
  5
1E7C2
  8
SU
 10
329.94710624401699
 20
124.28300748772079
 30
0.0
 11
391.94710624401552
 21
124.28300748772079
 31
0.0
  0
LINE
  5
1E7C3
  8
SU
 10
388.94710624401557
 20
244.28300748772079
 30
0.0
 11
388.94710624401552
 21
124.28300748772079
 31
0.0
  0
LINE
  5
1E7C5
  8
SU
 10
251.9470492611749
 20
131.28300748772079
 30
0.0
 11
371.94710624401591
 21
131.28300748772079
 31
0.0
  0
LINE
  5
1E7C6
  8
SU
 10
368.9471062440158
 20
131.28300748772079
 30
0.0
 11
368.9471062440158
 21
244.28300748772079
 31
0.0
  0
LINE
  5
1E7C9
  8
SU
 10
255.79704042747829
 20
623.60574394563082
 30
0.0
 11
351.94710624401711
 21
623.60574394563071
 31
0.0
  0
LINE
  5
1E7CA
  8
SU
 10
348.94710624401711
 20
627.1057444254144
 30
0.0
 11
348.94710624401711
 21
623.60574394563071
 31
0.0
  0
LINE
  5
1E7CB
  8
SU
 10
348.94710624401711
 20
623.60574394563071
 30
0.0
 11
348.94710624401711
 21
599.23241061229726
 31
0.0
  0
LINE
  5
1E7CF
  8
SU
 10
254.99704169456831
 20
636.60574394563082
 30
0.0
 11
371.94710624401711
 21
636.60574394563071
 31
0.0
  0
LINE
  5
1E7D0
  8
SU
 10
368.94710624401711
 20
664.10574394563093
 30
0.0
 11
368.94710624401699
 21
636.60574394563071
 31
0.0
  0
LINE
  5
1E7D4
  8
SU
 10
368.94710624401699
 20
636.60574394563071
 30
0.0
 11
368.94710624401699
 21
627.1057444254144
 31
0.0
  0
LINE
  5
1E7D7
  8
SU
 10
252.94704926124621
 20
327.10574394672619
 30
0.0
 11
252.94704926124621
 21
292.1057439467258
 31
0.0
  0
LINE
  5
1E7D8
  8
SU
 10
224.44704926124589
 20
295.10574394672591
 30
0.0
 11
252.94704926124621
 21
295.10574394672591
 31
0.0
  0
LINE
  5
1E7DB
  8
SU
 10
239.44704926124629
 20
333.10573902738793
 30
0.0
 11
351.94710624401711
 21
333.10573902738793
 31
0.0
  0
LINE
  5
1E7DC
  8
SU
 10
348.94710624401699
 20
333.10573902738793
 30
0.0
 11
348.94710624401699
 21
328.1057439467258
 31
0.0
  0
LINE
  5
1E7DD
  8
SU
 10
348.94710624401699
 20
328.1057439467258
 30
0.0
 11
348.94710624401699
 21
312.03241061339253
 31
0.0
  0
LINE
  5
1E7E1
  8
SU
 10
217.9470492611749
 20
577.10574394563082
 30
0.0
 11
250.9470416945685
 21
577.10574394563082
 31
0.0
  0
LINE
  5
1E7E3
  8
SU
 10
368.94710624401711
 20
337.1057439467258
 30
0.0
 11
368.94710624401711
 21
328.1057439467258
 31
0.0
  0
LINE
  5
1E7E6
  8
SU
 10
329.94710624401699
 20
664.10574394563093
 30
0.0
 11
391.94710624401699
 21
664.10574394563093
 31
0.0
  0
LINE
  5
1E7E7
  8
SU
 10
327.4454404518213
 20
328.1057439467258
 30
0.0
 11
391.94710624401699
 21
328.10574394672568
 31
0.0
  0
LINE
  5
1E7E8
  8
SU
 10
388.94710624401711
 20
664.10574394563093
 30
0.0
 11
388.94710624401688
 21
328.10574394672568
 31
0.0
  0
LINE
  5
1E7EA
  8
SU
 10
251.9470492611749
 20
337.1057439467258
 30
0.0
 11
371.94710624401699
 21
337.1057439467258
 31
0.0
  0
LINE
  5
1E7EB
  8
SU
 10
251.9470404794929
 20
627.10574520988212
 30
0.0
 11
371.94710624401711
 21
627.105745209882
 31
0.0
  0
LINE
  5
1E7EC
  8
SU
 10
368.94710624401699
 20
337.1057439467258
 30
0.0
 11
368.94710624401699
 21
627.105745209882
 31
0.0
  0
LINE
  5
1E7F0
  8
SU
 10
146.44704169456821
 20
161.8810836990742
 30
0.0
 11
135.84131798281919
 21
180.25073601886149
 31
0.0
210
0.0
220
0.0
230
-1.0
1001
ACAD
1000
DSTYLE
1002
{
1070
    41
1040
1.5
1070
    77
1070
     0
1070
   371
1070
    13
1002
}
  0
LINE
  5
1E7F1
  8
SU
 10
135.84131798281919
 20
180.25073601886149
 30
0.0
 11
114.4796552965192
 21
180.25073601886149
 31
0.0
210
0.0
220
0.0
230
-1.0
1001
ACAD
1000
DSTYLE
1002
{
1070
    41
1040
1.5
1070
    77
1070
     0
1070
   371
1070
    13
1002
}
  0
LINE
  5
1E7F2
  8
SU
 10
146.44704169456821
 20
365.70382015807922
 30
0.0
 11
135.84131798281919
 21
384.07347247786652
 31
0.0
210
0.0
220
0.0
230
-1.0
1001
ACAD
1000
DSTYLE
1002
{
1070
    41
1040
1.5
1070
    77
1070
     0
1070
   371
1070
    13
1002
}
  0
LINE
  5
1E7F3
  8
SU
 10
135.84131798281919
 20
384.07347247786652
 30
0.0
 11
114.4796552965192
 21
384.07347247786652
 31
0.0
210
0.0
220
0.0
230
-1.0
1001
ACAD
1000
DSTYLE
1002
{
1070
    41
1040
1.5
1070
    77
1070
     0
1070
   371
1070
    13
1002
}
  0
LINE
  5
1E7F4
  8
OS
 10
219.1970416945683
 20
673.60574394563082
 30
0.0
 11
249.6970416945683
 21
673.60574394563082
 31
0.0
1001
GENIUS_GENREC_14
1002
{
1000
PYDIR
1011
219.1970416945683
1021
0.0
1031
0.0
1021
664.10574394563082
1031
0.0
1002
}
1002
{
1000
PXDIR
1011
249.6970416945683
1021
0.0
1031
0.0
1021
673.60574394563082
1031
0.0
1002
}
1002
{
1000
PORI
1011
219.1970416945683
1021
0.0
1031
0.0
1021
673.60574394563082
1031
0.0
1002
}
1002
{
1000
PINS
1011
219.1970416945683
1021
0.0
1031
0.0
1021
673.60574394563082
1031
0.0
1002
}
1002
{
1000
PINS2
1011
249.6970416945683
1021
0.0
1031
0.0
1021
664.10574394563082
1031
0.0
1002
}
1002
{
1000
C
1070
     1
1002
}
1001
GENIUS_GENODEF_13
1002
{
1000
HIER
1070
     0
1002
}
1002
{
1000
MANEDIT
1070
     0
1002
}
1002
{
1000
NOSEL
1070
     0
1002
}
1002
{
1000
BEHIND
1070
     0
1002
}
1002
{
1000
OTHER
1070
     0
1002
}
1002
{
1000
REACTOR
1002
}
1001
GENIUS_GENOBJ-N-REC_13
1002
{
1000
OWNER
1000
GEN
1002
}
  0
LINE
  5
1E7F5
  8
OS
 10
249.6970416945683
 20
673.60574394563082
 30
0.0
 11
249.6970416945683
 21
664.10574394563082
 31
0.0
1001
GENIUS_GENREC_14
1002
{
1000
PYDIR
1011
219.1970416945683
1021
0.0
1031
0.0
1021
664.10574394563082
1031
0.0
1002
}
1002
{
1000
PXDIR
1011
249.6970416945683
1021
0.0
1031
0.0
1021
673.60574394563082
1031
0.0
1002
}
1002
{
1000
PORI
1011
219.1970416945683
1021
0.0
1031
0.0
1021
673.60574394563082
1031
0.0
1002
}
1002
{
1000
PINS
1011
219.1970416945683
1021
0.0
1031
0.0
1021
673.60574394563082
1031
0.0
1002
}
1002
{
1000
PINS2
1011
249.6970416945683
1021
0.0
1031
0.0
1021
664.10574394563082
1031
0.0
1002
}
1002
{
1000
C
1070
     1
1002
}
1001
GENIUS_GENODEF_13
1002
{
1000
HIER
1070
     0
1002
}
1002
{
1000
MANEDIT
1070
     0
1002
}
1002
{
1000
NOSEL
1070
     0
1002
}
1002
{
1000
BEHIND
1070
     0
1002
}
1002
{
1000
OTHER
1070
     0
1002
}
1002
{
1000
REACTOR
1002
}
1001
GENIUS_GENOBJ-N-REC_13
1002
{
1000
OWNER
1000
GEN
1002
}
  0
LINE
  5
1E7F6
  8
OS
 10
249.6970416945683
 20
664.10574394563082
 30
0.0
 11
219.1970416945683
 21
664.10574394563082
 31
0.0
1001
GENIUS_GENREC_14
1002
{
1000
PYDIR
1011
219.1970416945683
1021
0.0
1031
0.0
1021
664.10574394563082
1031
0.0
1002
}
1002
{
1000
PXDIR
1011
249.6970416945683
1021
0.0
1031
0.0
1021
673.60574394563082
1031
0.0
1002
}
1002
{
1000
PORI
1011
219.1970416945683
1021
0.0
1031
0.0
1021
673.60574394563082
1031
0.0
1002
}
1002
{
1000
PINS
1011
219.1970416945683
1021
0.0
1031
0.0
1021
673.60574394563082
1031
0.0
1002
}
1002
{
1000
PINS2
1011
249.6970416945683
1021
0.0
1031
0.0
1021
664.10574394563082
1031
0.0
1002
}
1002
{
1000
C
1070
     1
1002
}
1001
GENIUS_GENODEF_13
1002
{
1000
HIER
1070
     0
1002
}
1002
{
1000
MANEDIT
1070
     0
1002
}
1002
{
1000
NOSEL
1070
     0
1002
}
1002
{
1000
BEHIND
1070
     0
1002
}
1002
{
1000
OTHER
1070
     0
1002
}
1002
{
1000
REACTOR
1002
}
1001
GENIUS_GENOBJ-N-REC_13
1002
{
1000
OWNER
1000
GEN
1002
}
  0
LINE
  5
1E7F7
  8
OS
 10
219.1970416945683
 20
664.10574394563082
 30
0.0
 11
219.1970416945683
 21
673.60574394563082
 31
0.0
1001
GENIUS_GENREC_14
1002
{
1000
PYDIR
1011
219.1970416945683
1021
0.0
1031
0.0
1021
664.10574394563082
1031
0.0
1002
}
1002
{
1000
PXDIR
1011
249.6970416945683
1021
0.0
1031
0.0
1021
673.60574394563082
1031
0.0
1002
}
1002
{
1000
PORI
1011
219.1970416945683
1021
0.0
1031
0.0
1021
673.60574394563082
1031
0.0
1002
}
1002
{
1000
PINS
1011
219.1970416945683
1021
0.0
1031
0.0
1021
673.60574394563082
1031
0.0
1002
}
1002
{
1000
PINS2
1011
249.6970416945683
1021
0.0
1031
0.0
1021
664.10574394563082
1031
0.0
1002
}
1002
{
1000
C
1070
     1
1002
}
1001
GENIUS_GENODEF_13
1002
{
1000
HIER
1070
     0
1002
}
1002
{
1000
MANEDIT
1070
     0
1002
}
1002
{
1000
NOSEL
1070
     0
1002
}
1002
{
1000
BEHIND
1070
     0
1002
}
1002
{
1000
OTHER
1070
     0
1002
}
1002
{
1000
REACTOR
1002
}
1001
GENIUS_GENOBJ-N-REC_13
1002
{
1000
OWNER
1000
GEN
1002
}
  0
LINE
  5
1E7F8
  8
SU
 10
691.38748865054845
 20
296.48474779943717
 30
0.0
 11
729.38748865054845
 21
296.48474779943717
 31
0.0
  0
LINE
  5
1E7F9
  8
SU
 10
691.38748865054845
 20
263.48474779943717
 30
0.0
 11
729.38748865054845
 21
263.48474779943717
 31
0.0
  0
LINE
  5
1E7FA
  8
SU
 10
726.38748865054845
 20
296.48474779943717
 30
0.0
 11
726.38748865054845
 21
263.48474779943717
 31
0.0
  0
LINE
  5
1E7FE
  8
SU
 10
1072.387488650548
 20
157.4847477994343
 30
0.0
 11
1082.387488650548
 21
163.4847477994343
 31
0.0
  0
LINE
  5
1E7FF
  8
SU
 10
1072.387488650548
 20
169.4847477994343
 30
0.0
 11
1082.387488650548
 21
163.4847477994343
 31
0.0
  0
LINE
  5
1E800
  8
SU
 10
1072.387488650548
 20
157.4847477994343
 30
0.0
 11
1072.387488650548
 21
169.4847477994343
 31
0.0
  0
LINE
  5
1E801
  8
SU
 10
1082.319760705981
 20
163.44411103269371
 30
0.0
 11
1082.319760705981
 21
163.52538456617469
 31
0.0
  0
LINE
  5
1E802
  8
SU
 10
1082.119760705981
 20
163.32411103269379
 30
0.0
 11
1082.119760705981
 21
163.64538456617461
 31
0.0
  0
LINE
  5
1E803
  8
SU
 10
1081.9197607059809
 20
163.2041110326937
 30
0.0
 11
1081.9197607059809
 21
163.7653845661747
 31
0.0
  0
LINE
  5
1E804
  8
SU
 10
1081.7197607059809
 20
163.08411103269381
 30
0.0
 11
1081.7197607059809
 21
163.88538456617479
 31
0.0
  0
LINE
  5
1E805
  8
SU
 10
1081.5197607059799
 20
162.96411103269389
 30
0.0
 11
1081.5197607059799
 21
164.00538456617471
 31
0.0
  0
LINE
  5
1E806
  8
SU
 10
1081.319760705981
 20
162.8441110326938
 30
0.0
 11
1081.319760705981
 21
164.1253845661746
 31
0.0
  0
LINE
  5
1E807
  8
SU
 10
1081.119760705981
 20
162.72411103269371
 30
0.0
 11
1081.119760705981
 21
164.24538456617469
 31
0.0
  0
LINE
  5
1E808
  8
SU
 10
1080.9197607059809
 20
162.60411103269379
 30
0.0
 11
1080.9197607059809
 21
164.36538456617481
 31
0.0
  0
LINE
  5
1E809
  8
SU
 10
1080.7197607059809
 20
162.4841110326939
 30
0.0
 11
1080.7197607059809
 21
164.4853845661747
 31
0.0
  0
LINE
  5
1E80A
  8
SU
 10
1080.5197607059811
 20
162.36411103269401
 30
0.0
 11
1080.5197607059811
 21
164.60538456617459
 31
0.0
  0
LINE
  5
1E80B
  8
SU
 10
1080.319760705981
 20
162.2441110326937
 30
0.0
 11
1080.319760705981
 21
164.72538456617471
 31
0.0
  0
LINE
  5
1E80C
  8
SU
 10
1080.119760705981
 20
162.1241110326938
 30
0.0
 11
1080.119760705981
 21
164.8453845661748
 31
0.0
  0
LINE
  5
1E80D
  8
SU
 10
1079.9197607059809
 20
162.00411103269391
 30
0.0
 11
1079.9197607059809
 21
164.96538456617469
 31
0.0
  0
LINE
  5
1E80E
  8
SU
 10
1079.7197607059809
 20
161.8841110326938
 30
0.0
 11
1079.7197607059809
 21
165.08538456617461
 31
0.0
  0
LINE
  5
1E80F
  8
SU
 10
1079.5197607059811
 20
161.7641110326939
 30
0.0
 11
1079.5197607059811
 21
165.2053845661747
 31
0.0
  0
LINE
  5
1E810
  8
SU
 10
1079.319760705981
 20
161.64411103269379
 30
0.0
 11
1079.319760705981
 21
165.32538456617459
 31
0.0
  0
LINE
  5
1E811
  8
SU
 10
1079.119760705981
 20
161.5241110326939
 30
0.0
 11
1079.119760705981
 21
165.44538456617471
 31
0.0
  0
LINE
  5
1E812
  8
SU
 10
1078.9197607059809
 20
161.40411103269381
 30
0.0
 11
1078.9197607059809
 21
165.5653845661746
 31
0.0
  0
LINE
  5
1E813
  8
SU
 10
1078.7197607059809
 20
161.28411103269389
 30
0.0
 11
1078.7197607059809
 21
165.6853845661748
 31
0.0
  0
LINE
  5
1E814
  8
SU
 10
1078.5197607059811
 20
161.16411103269371
 30
0.0
 11
1078.5197607059811
 21
165.80538456617461
 31
0.0
  0
LINE
  5
1E815
  8
SU
 10
1078.319760705981
 20
161.04411103269379
 30
0.0
 11
1078.319760705981
 21
165.92538456617481
 31
0.0
  0
LINE
  5
1E816
  8
SU
 10
1078.119760705981
 20
160.92411103269399
 30
0.0
 11
1078.119760705981
 21
166.0453845661747
 31
0.0
  0
LINE
  5
1E817
  8
SU
 10
1077.9197607059809
 20
160.80411103269381
 30
0.0
 11
1077.9197607059809
 21
166.16538456617479
 31
0.0
  0
LINE
  5
1E818
  8
SU
 10
1077.7197607059809
 20
160.68411103269369
 30
0.0
 11
1077.7197607059809
 21
166.28538456617471
 31
0.0
  0
LINE
  5
1E819
  8
SU
 10
1077.5197607059811
 20
160.5641110326938
 30
0.0
 11
1077.5197607059811
 21
166.4053845661748
 31
0.0
  0
LINE
  5
1E81A
  8
SU
 10
1077.319760705981
 20
160.44411103269371
 30
0.0
 11
1077.319760705981
 21
166.52538456617469
 31
0.0
  0
LINE
  5
1E81B
  8
SU
 10
1077.119760705981
 20
160.32411103269379
 30
0.0
 11
1077.119760705981
 21
166.64538456617461
 31
0.0
  0
LINE
  5
1E81C
  8
SU
 10
1076.9197607059809
 20
160.2041110326937
 30
0.0
 11
1076.9197607059809
 21
166.7653845661747
 31
0.0
  0
LINE
  5
1E81D
  8
SU
 10
1076.7197607059809
 20
160.08411103269381
 30
0.0
 11
1076.7197607059809
 21
166.88538456617479
 31
0.0
  0
LINE
  5
1E81E
  8
SU
 10
1076.5197607059811
 20
159.96411103269389
 30
0.0
 11
1076.5197607059811
 21
167.00538456617471
 31
0.0
  0
LINE
  5
1E81F
  8
SU
 10
1076.319760705981
 20
159.8441110326938
 30
0.0
 11
1076.319760705981
 21
167.1253845661746
 31
0.0
  0
LINE
  5
1E820
  8
SU
 10
1076.119760705981
 20
159.72411103269371
 30
0.0
 11
1076.119760705981
 21
167.24538456617469
 31
0.0
  0
LINE
  5
1E821
  8
SU
 10
1075.9197607059809
 20
159.60411103269379
 30
0.0
 11
1075.9197607059809
 21
167.36538456617481
 31
0.0
  0
LINE
  5
1E822
  8
SU
 10
1075.7197607059809
 20
159.4841110326939
 30
0.0
 11
1075.7197607059809
 21
167.4853845661747
 31
0.0
  0
LINE
  5
1E823
  8
SU
 10
1075.5197607059811
 20
159.36411103269401
 30
0.0
 11
1075.5197607059811
 21
167.60538456617459
 31
0.0
  0
LINE
  5
1E824
  8
SU
 10
1075.319760705981
 20
159.2441110326937
 30
0.0
 11
1075.319760705981
 21
167.72538456617471
 31
0.0
  0
LINE
  5
1E825
  8
SU
 10
1075.119760705981
 20
159.1241110326938
 30
0.0
 11
1075.119760705981
 21
167.8453845661748
 31
0.0
  0
LINE
  5
1E826
  8
SU
 10
1074.9197607059809
 20
159.00411103269391
 30
0.0
 11
1074.9197607059809
 21
167.96538456617469
 31
0.0
  0
LINE
  5
1E827
  8
SU
 10
1074.7197607059809
 20
158.8841110326938
 30
0.0
 11
1074.7197607059809
 21
168.08538456617461
 31
0.0
  0
LINE
  5
1E828
  8
SU
 10
1074.5197607059811
 20
158.7641110326939
 30
0.0
 11
1074.5197607059811
 21
168.2053845661747
 31
0.0
  0
LINE
  5
1E829
  8
SU
 10
1074.319760705981
 20
158.64411103269379
 30
0.0
 11
1074.319760705981
 21
168.32538456617459
 31
0.0
  0
LINE
  5
1E82A
  8
SU
 10
1074.119760705981
 20
158.5241110326939
 30
0.0
 11
1074.119760705981
 21
168.44538456617471
 31
0.0
  0
LINE
  5
1E82B
  8
SU
 10
1073.9197607059809
 20
158.40411103269381
 30
0.0
 11
1073.9197607059809
 21
168.5653845661746
 31
0.0
  0
LINE
  5
1E82C
  8
SU
 10
1073.7197607059809
 20
158.28411103269389
 30
0.0
 11
1073.7197607059809
 21
168.6853845661748
 31
0.0
  0
LINE
  5
1E82D
  8
SU
 10
1073.5197607059799
 20
158.16411103269371
 30
0.0
 11
1073.5197607059799
 21
168.80538456617461
 31
0.0
  0
LINE
  5
1E82E
  8
SU
 10
1073.319760705981
 20
158.04411103269391
 30
0.0
 11
1073.319760705981
 21
168.92538456617481
 31
0.0
  0
LINE
  5
1E82F
  8
SU
 10
1073.119760705981
 20
157.92411103269399
 30
0.0
 11
1073.119760705981
 21
169.0453845661747
 31
0.0
  0
LINE
  5
1E830
  8
SU
 10
1072.9197607059809
 20
157.80411103269381
 30
0.0
 11
1072.9197607059809
 21
169.16538456617479
 31
0.0
  0
LINE
  5
1E831
  8
SU
 10
1072.7197607059809
 20
157.68411103269369
 30
0.0
 11
1072.7197607059809
 21
169.28538456617471
 31
0.0
  0
LINE
  5
1E832
  8
SU
 10
1072.5197607059811
 20
157.5641110326938
 30
0.0
 11
1072.5197607059811
 21
169.4053845661748
 31
0.0
  0
LINE
  5
1E833
  8
SU
 10
541.38748865054936
 20
157.48474779943621
 30
0.0
 11
531.38748865054936
 21
163.48474779943621
 31
0.0
  0
LINE
  5
1E834
  8
SU
 10
541.38748865054936
 20
169.48474779943621
 30
0.0
 11
531.38748865054936
 21
163.48474779943621
 31
0.0
  0
LINE
  5
1E835
  8
SU
 10
541.38748865054936
 20
157.48474779943621
 30
0.0
 11
541.38748865054936
 21
169.48474779943621
 31
0.0
  0
LINE
  5
1E836
  8
SU
 10
531.45521659511655
 20
163.44411103269559
 30
0.0
 11
531.45521659511655
 21
163.5253845661766
 31
0.0
  0
LINE
  5
1E837
  8
SU
 10
531.65521659511637
 20
163.32411103269581
 30
0.0
 11
531.65521659511637
 21
163.64538456617649
 31
0.0
  0
LINE
  5
1E838
  8
SU
 10
531.85521659511664
 20
163.20411103269561
 30
0.0
 11
531.85521659511664
 21
163.76538456617661
 31
0.0
  0
LINE
  5
1E839
  8
SU
 10
532.05521659511646
 20
163.08411103269569
 30
0.0
 11
532.05521659511646
 21
163.8853845661767
 31
0.0
  0
LINE
  5
1E83A
  8
SU
 10
532.25521659511685
 20
162.96411103269591
 30
0.0
 11
532.25521659511685
 21
164.00538456617659
 31
0.0
  0
LINE
  5
1E83B
  8
SU
 10
532.45521659511667
 20
162.84411103269571
 30
0.0
 11
532.45521659511667
 21
164.12538456617651
 31
0.0
  0
LINE
  5
1E83C
  8
SU
 10
532.65521659511649
 20
162.72411103269559
 30
0.0
 11
532.65521659511649
 21
164.2453845661766
 31
0.0
  0
LINE
  5
1E83D
  8
SU
 10
532.85521659511664
 20
162.6041110326957
 30
0.0
 11
532.85521659511664
 21
164.36538456617669
 31
0.0
  0
LINE
  5
1E83E
  8
SU
 10
533.05521659511646
 20
162.48411103269581
 30
0.0
 11
533.05521659511646
 21
164.48538456617661
 31
0.0
  0
LINE
  5
1E83F
  8
SU
 10
533.25521659511685
 20
162.36411103269589
 30
0.0
 11
533.25521659511685
 21
164.6053845661765
 31
0.0
  0
LINE
  5
1E840
  8
SU
 10
533.45521659511655
 20
162.2441110326956
 30
0.0
 11
533.45521659511655
 21
164.72538456617659
 31
0.0
  0
LINE
  5
1E841
  8
SU
 10
533.65521659511637
 20
162.12411103269571
 30
0.0
 11
533.65521659511637
 21
164.84538456617679
 31
0.0
  0
LINE
  5
1E842
  8
SU
 10
533.85521659511664
 20
162.00411103269579
 30
0.0
 11
533.85521659511664
 21
164.96538456617671
 31
0.0
  0
LINE
  5
1E843
  8
SU
 10
534.05521659511646
 20
161.8841110326957
 30
0.0
 11
534.05521659511646
 21
165.0853845661766
 31
0.0
  0
LINE
  5
1E844
  8
SU
 10
534.25521659511685
 20
161.76411103269581
 30
0.0
 11
534.25521659511685
 21
165.20538456617669
 31
0.0
  0
LINE
  5
1E845
  8
SU
 10
534.45521659511655
 20
161.64411103269569
 30
0.0
 11
534.45521659511655
 21
165.3253845661765
 31
0.0
  0
LINE
  5
1E846
  8
SU
 10
534.65521659511637
 20
161.5241110326958
 30
0.0
 11
534.65521659511637
 21
165.4453845661767
 31
0.0
  0
LINE
  5
1E847
  8
SU
 10
534.85521659511676
 20
161.40411103269571
 30
0.0
 11
534.85521659511676
 21
165.56538456617659
 31
0.0
  0
LINE
  5
1E848
  8
SU
 10
535.05521659511658
 20
161.28411103269579
 30
0.0
 11
535.05521659511658
 21
165.68538456617671
 31
0.0
  0
LINE
  5
1E849
  8
SU
 10
535.25521659511685
 20
161.1641110326957
 30
0.0
 11
535.25521659511685
 21
165.8053845661766
 31
0.0
  0
LINE
  5
1E84A
  8
SU
 10
535.45521659511655
 20
161.04411103269581
 30
0.0
 11
535.45521659511655
 21
165.92538456617669
 31
0.0
  0
LINE
  5
1E84B
  8
SU
 10
535.65521659511637
 20
160.92411103269589
 30
0.0
 11
535.65521659511637
 21
166.04538456617661
 31
0.0
  0
LINE
  5
1E84C
  8
SU
 10
535.85521659511664
 20
160.8041110326958
 30
0.0
 11
535.85521659511664
 21
166.1653845661767
 31
0.0
  0
LINE
  5
1E84D
  8
SU
 10
536.05521659511646
 20
160.68411103269571
 30
0.0
 11
536.05521659511646
 21
166.28538456617659
 31
0.0
  0
LINE
  5
1E84E
  8
SU
 10
536.25521659511685
 20
160.56411103269579
 30
0.0
 11
536.25521659511685
 21
166.40538456617671
 31
0.0
  0
LINE
  5
1E84F
  8
SU
 10
536.45521659511655
 20
160.44411103269559
 30
0.0
 11
536.45521659511655
 21
166.5253845661766
 31
0.0
  0
LINE
  5
1E850
  8
SU
 10
536.65521659511649
 20
160.32411103269581
 30
0.0
 11
536.65521659511649
 21
166.64538456617649
 31
0.0
  0
LINE
  5
1E851
  8
SU
 10
536.85521659511664
 20
160.20411103269561
 30
0.0
 11
536.85521659511664
 21
166.76538456617661
 31
0.0
  0
LINE
  5
1E852
  8
SU
 10
537.05521659511646
 20
160.0841110326958
 30
0.0
 11
537.05521659511646
 21
166.8853845661767
 31
0.0
  0
LINE
  5
1E853
  8
SU
 10
537.25521659511685
 20
159.96411103269591
 30
0.0
 11
537.25521659511685
 21
167.00538456617659
 31
0.0
  0
LINE
  5
1E854
  8
SU
 10
537.45521659511667
 20
159.84411103269571
 30
0.0
 11
537.45521659511667
 21
167.12538456617651
 31
0.0
  0
LINE
  5
1E855
  8
SU
 10
537.65521659511649
 20
159.72411103269559
 30
0.0
 11
537.65521659511649
 21
167.2453845661766
 31
0.0
  0
LINE
  5
1E856
  8
SU
 10
537.85521659511664
 20
159.6041110326957
 30
0.0
 11
537.85521659511664
 21
167.3653845661768
 31
0.0
  0
LINE
  5
1E857
  8
SU
 10
538.05521659511646
 20
159.48411103269581
 30
0.0
 11
538.05521659511646
 21
167.48538456617661
 31
0.0
  0
LINE
  5
1E858
  8
SU
 10
538.25521659511685
 20
159.364111032696
 30
0.0
 11
538.25521659511685
 21
167.6053845661765
 31
0.0
  0
LINE
  5
1E859
  8
SU
 10
538.45521659511655
 20
159.2441110326956
 30
0.0
 11
538.45521659511655
 21
167.72538456617659
 31
0.0
  0
LINE
  5
1E85A
  8
SU
 10
538.65521659511637
 20
159.12411103269571
 30
0.0
 11
538.65521659511637
 21
167.84538456617679
 31
0.0
  0
LINE
  5
1E85B
  8
SU
 10
538.85521659511664
 20
159.00411103269579
 30
0.0
 11
538.85521659511664
 21
167.96538456617671
 31
0.0
  0
LINE
  5
1E85C
  8
SU
 10
539.05521659511658
 20
158.8841110326957
 30
0.0
 11
539.05521659511658
 21
168.08538456617649
 31
0.0
  0
LINE
  5
1E85D
  8
SU
 10
539.25521659511685
 20
158.76411103269581
 30
0.0
 11
539.25521659511685
 21
168.20538456617669
 31
0.0
  0
LINE
  5
1E85E
  8
SU
 10
539.45521659511655
 20
158.64411103269569
 30
0.0
 11
539.45521659511655
 21
168.32538456617661
 31
0.0
  0
LINE
  5
1E85F
  8
SU
 10
539.65521659511637
 20
158.5241110326958
 30
0.0
 11
539.65521659511637
 21
168.4453845661767
 31
0.0
  0
LINE
  5
1E860
  8
SU
 10
539.85521659511664
 20
158.40411103269571
 30
0.0
 11
539.85521659511664
 21
168.56538456617659
 31
0.0
  0
LINE
  5
1E861
  8
SU
 10
540.05521659511646
 20
158.28411103269579
 30
0.0
 11
540.05521659511646
 21
168.68538456617671
 31
0.0
  0
LINE
  5
1E862
  8
SU
 10
540.25521659511685
 20
158.1641110326957
 30
0.0
 11
540.25521659511685
 21
168.8053845661766
 31
0.0
  0
LINE
  5
1E863
  8
SU
 10
540.45521659511655
 20
158.04411103269581
 30
0.0
 11
540.45521659511655
 21
168.92538456617669
 31
0.0
  0
LINE
  5
1E864
  8
SU
 10
540.65521659511649
 20
157.92411103269589
 30
0.0
 11
540.65521659511649
 21
169.04538456617661
 31
0.0
  0
LINE
  5
1E865
  8
SU
 10
540.85521659511664
 20
157.8041110326958
 30
0.0
 11
540.85521659511664
 21
169.1653845661767
 31
0.0
  0
LINE
  5
1E866
  8
SU
 10
541.05521659511646
 20
157.68411103269571
 30
0.0
 11
541.05521659511646
 21
169.28538456617659
 31
0.0
  0
LINE
  5
1E867
  8
SU
 10
541.25521659511685
 20
157.56411103269579
 30
0.0
 11
541.25521659511685
 21
169.40538456617671
 31
0.0
  0
LINE
  5
1E868
  8
SU
 10
958.38748865054913
 20
262.48474875116239
 30
0.0
 11
958.38748865054913
 21
180.4847477994343
 31
0.0
  0
LINE
  5
1E869
  8
SU
 10
806.88748865054924
 20
183.4847477994343
 30
0.0
 11
958.38748865054913
 21
183.4847477994343
 31
0.0
  0
LINE
  5
1E86C
  8
SU
 10
923.3874886505489
 20
304.48474779943427
 30
0.0
 11
923.3874886505489
 21
200.4847477994343
 31
0.0
  0
LINE
  5
1E86D
  8
SU
 10
958.38748865054913
 20
203.4847477994343
 30
0.0
 11
923.3874886505489
 21
203.4847477994343
 31
0.0
  0
LINE
  5
1E871
  8
SU
 10
691.38748865054845
 20
305.48474779943427
 30
0.0
 11
729.38748865054856
 21
305.48474779943427
 31
0.0
  0
LINE
  5
1E872
  8
SU
 10
726.38748865054868
 20
296.484747799437
 30
0.0
 11
726.38748865054868
 21
305.48474779943427
 31
0.0
  0
LINE
  5
1E875
  8
SU
 10
917.38748865054902
 20
367.48474779943439
 30
0.0
 11
917.38748865054902
 21
411.4847477994345
 31
0.0
  0
LINE
  5
1E876
  8
SU
 10
696.38748865054845
 20
367.48474779943439
 30
0.0
 11
696.38748865054845
 21
411.4847477994345
 31
0.0
  0
LINE
  5
1E877
  8
SU
 10
917.38748865054902
 20
408.4847477994345
 30
0.0
 11
696.38748865054845
 21
408.4847477994345
 31
0.0
  0
LINE
  5
1E87B
  8
SU
 10
690.38748865054845
 20
304.48474779943427
 30
0.0
 11
690.38748865054845
 21
200.4847477994343
 31
0.0
  0
LINE
  5
1E87C
  8
SU
 10
655.38748865054879
 20
203.4847477994343
 30
0.0
 11
690.38748865054845
 21
203.4847477994343
 31
0.0
  0
LINE
  5
1E880
  8
SU
 10
806.88748865054856
 20
262.48474875116239
 30
0.0
 11
806.88748865054856
 21
180.4847477994343
 31
0.0
  0
LINE
  5
1E881
  8
SU
 10
655.38748865054879
 20
262.48474875116239
 30
0.0
 11
655.38748865054879
 21
180.4847477994343
 31
0.0
  0
LINE
  5
1E882
  8
SU
 10
806.88748865054856
 20
183.4847477994343
 30
0.0
 11
655.38748865054879
 21
183.4847477994343
 31
0.0
  0
LINE
  5
1E886
  8
SU
 10
531.38748865054959
 20
229.4847477994343
 30
0.0
 11
531.38748865054959
 21
160.4847477994343
 31
0.0
  0
LINE
  5
1E887
  8
SU
 10
1082.3874886505489
 20
229.4847477994343
 30
0.0
 11
1082.3874886505489
 21
160.4847477994343
 31
0.0
  0
LINE
  5
1E888
  8
SU
 10
531.38748865054959
 20
163.4847477994343
 30
0.0
 11
1082.3874886505489
 21
163.4847477994343
 31
0.0
  0
TEXT
  5
1E88A
  8
SU
 10
347.64710624401698
 20
144.62300748772091
 30
0.0
 40
7.0
  1
1.5
 50
90.0
 41
0.8299999999999999
  0
TEXT
  5
1E88D
  8
SU
 10
179.5103750279016
 20
598.40571154064867
 30
0.0
 40
7.0
  1
10.3
 41
0.8299999999999999
  0
TEXT
  5
1E890
  8
SU
 10
227.08843719618301
 20
598.40574394563055
 30
0.0
 40
7.0
  1
36.1
 41
0.8299999999999999
  0
TEXT
  5
1E892
  8
SU
 10
265.36704169456829
 20
704.90574100736126
 30
0.0
 40
7.0
  1
5.6
 41
0.8299999999999999
  0
TEXT
  5
1E895
  8
SU
 10
187.81037502790161
 20
154.4786145953754
 30
0.0
 40
7.0
  1
15
 41
0.8299999999999999
  0
TEXT
  5
1E897
  8
SU
 10
179.5103750279016
 20
72.583007487720849
 30
0.0
 40
7.0
  1
18.5
 41
0.8299999999999999
  0
TEXT
  5
1E899
  8
SU
 10
179.5103750279016
 20
296.40574394672592
 30
0.0
 40
7.0
  1
15.5
 41
0.8299999999999999
  0
TEXT
  5
1E89C
  8
SU
 10
178.97370836123491
 20
704.90577189412033
 30
0.0
 40
7.0
  1
10.3
 41
0.8299999999999999
  0
TEXT
  5
1E89F
  8
SU
 10
210.81871214453821
 20
578.40574394562975
 30
0.0
 40
7.0
  1
9
 41
0.8299999999999999
  0
TEXT
  5
1E8A2
  8
SU
 10
265.36704169456829
 20
578.40574394563066
 30
0.0
 40
7.0
  1
4.4
 41
0.8299999999999999
  0
TEXT
  5
1E8A5
  8
SU
 10
224.76370836123499
 20
704.90574100736126
 30
0.0
 40
7.0
  1
30.5
 41
0.8299999999999999
  0
TEXT
  5
1E8A6
  8
SU
 10
229.74321695843699
 20
154.4786145953754
 30
0.0
 40
7.0
  1
21
 41
0.8299999999999999
  0
TEXT
  5
1E8A9
  8
SU
 10
387.64710624401579
 20
112.3346741543875
 30
0.0
 40
7.0
  1
12
 50
90.0
 41
0.8299999999999999
  0
TEXT
  5
1E8AB
  8
SU
 10
228.3603825945082
 20
72.583007487720849
 30
0.0
 40
7.0
  1
14
 41
0.8299999999999999
  0
TEXT
  5
1E8AE
  8
SU
 10
228.49821695843701
 20
92.583007487720835
 30
0.0
 40
7.0
  1
12
 41
0.8299999999999999
  0
TEXT
  5
1E8B1
  8
SU
 10
367.64710624401579
 20
125.0163408210542
 30
0.0
 40
7.0
  1
7
 50
90.0
 41
0.8299999999999999
  0
TEXT
  5
1E8B3
  8
SU
 10
387.6471062440155
 20
211.5433046439457
 30
0.0
 40
10.0
  1
H
 50
90.0
 41
0.8299999999999999
  0
TEXT
  5
1E8B4
  8
SU
 10
367.64710624401579
 20
209.67438750812241
 30
0.0
 40
7.0
  1
DH
 50
90.0
 41
0.8299999999999999
  0
TEXT
  5
1E8B6
  8
SU
 10
347.64710624401698
 20
599.7024106122974
 30
0.0
 40
7.0
  1
3.5
 50
90.0
 41
0.8299999999999999
  0
TEXT
  5
1E8B9
  8
SU
 10
367.64710624401698
 20
640.67241061229743
 30
0.0
 40
7.0
  1
27.5
 50
90.0
 41
0.8299999999999999
  0
TEXT
  5
1E8BC
  8
SU
 10
367.64710624401698
 20
603.20241109208109
 30
0.0
 40
7.0
  1
9.5
 50
90.0
 41
0.8299999999999999
  0
TEXT
  5
1E8BD
  8
SU
 10
229.6559562671701
 20
296.40574394672592
 30
0.0
 40
7.0
  1
28.5
 41
0.8299999999999999
  0
TEXT
  5
1E8BF
  8
SU
 10
347.64710624401698
 20
312.5024106133925
 30
0.0
 40
7.0
  1
5
 50
90.0
 41
0.8299999999999999
  0
TEXT
  5
1E8C2
  8
SU
 10
228.91371214453841
 20
578.40574394563066
 30
0.0
 40
7.0
  1
33
 41
0.8299999999999999
  0
TEXT
  5
1E8C3
  8
SU
 10
367.6471062440171
 20
329.97741061339241
 30
0.0
 40
7.0
  1
9
 50
90.0
 41
0.8299999999999999
  0
TEXT
  5
1E8C5
  8
SU
 10
387.64710624401692
 20
478.42451881580507
 30
0.0
 40
10.0
  1
H
 50
90.0
 41
0.8299999999999999
  0
TEXT
  5
1E8C6
  8
SU
 10
367.64710624401698
 20
476.1574112449706
 30
0.0
 40
7.0
  1
DH
 50
90.0
 41
0.8299999999999999
  0
TEXT
  5
1E8C9
  8
SU
 10
725.08748865054849
 20
274.45141446610398
 30
0.0
 40
7.0
  1
33
 50
90.0
 41
0.8299999999999999
  0
TEXT
  5
1E8CC
  8
SU
 10
876.13582198388235
 20
184.78474779943431
 30
0.0
 40
7.0
  1
DW
 41
0.8299999999999999
  0
TEXT
  5
1E8CE
  8
SU
 10
931.48082198388227
 20
216.451414466101
 30
0.0
 40
7.0
  1
(25)
 41
0.8299999999999999
  0
TEXT
  5
1E8CF
  8
SU
 10
935.3541553172156
 20
204.7847477994344
 30
0.0
 40
7.0
  1
35
 41
0.8299999999999999
  0
TEXT
  5
1E8D2
  8
SU
 10
725.08748865054861
 20
298.35641446610231
 30
0.0
 40
7.0
  1
9
 50
90.0
 41
0.8299999999999999
  0
TEXT
  5
1E8D4
  8
SU
 10
793.91182198388196
 20
409.78474779943463
 30
0.0
 40
7.0
  1
有効開口
 41
0.8299999999999999
  0
TEXT
  5
1E8D7
  8
SU
 10
663.48082198388204
 20
216.451414466101
 30
0.0
 40
7.0
  1
(25)
 41
0.8299999999999999
  0
TEXT
  5
1E8D8
  8
SU
 10
667.35415531721515
 20
204.7847477994344
 30
0.0
 40
7.0
  1
35
 41
0.8299999999999999
  0
TEXT
  5
1E8DB
  8
SU
 10
724.6358219838819
 20
184.78474779943431
 30
0.0
 40
7.0
  1
DW
 41
0.8299999999999999
  0
TEXT
  5
1E8DE
  8
SU
 10
802.144631507692
 20
164.78474779943431
 30
0.0
 40
10.0
  1
W
 41
0.8299999999999999
  0
ARC
  5
1E8DF
  8
SU
 10
348.94710624401699
 20
125.78300748772079
 30
0.0
 40
0.5999999999999944
 50
90.0
 51
270.0
  0
ARC
  5
1E8E0
  8
SU
 10
348.94710624401699
 20
125.78300748772079
 30
0.0
 40
0.5999999999999944
 50
270.0
 51
90.0
  0
ARC
  5
1E8E1
  8
SU
 10
348.94710624401699
 20
124.28300748772079
 30
0.0
 40
0.5999999999999944
 50
270.0
 51
90.0
  0
ARC
  5
1E8E2
  8
SU
 10
348.94710624401699
 20
124.28300748772079
 30
0.0
 40
0.5999999999999944
 50
90.0
 51
270.0
  0
ARC
  5
1E8E3
  8
SU
 10
208.9470416945683
 20
597.10571154064871
 30
0.0
 40
0.5999999999999944
 50
0.0
 51
180.0
  0
ARC
  5
1E8E4
  8
SU
 10
208.9470416945683
 20
597.10571154064871
 30
0.0
 40
0.5999999999999944
 50
180.0
 51
0.0
  0
ARC
  5
1E8E5
  8
SU
 10
219.1970416945683
 20
597.10571154064871
 30
0.0
 40
0.5999999999999944
 50
180.0
 51
0.0
  0
ARC
  5
1E8E6
  8
SU
 10
219.1970416945683
 20
597.10571154064871
 30
0.0
 40
0.5999999999999944
 50
0.0
 51
180.0
  0
ARC
  5
1E8E7
  8
SU
 10
255.29704169456829
 20
597.10574394563059
 30
0.0
 40
0.5999999999999944
 50
180.0
 51
0.0
  0
ARC
  5
1E8E8
  8
SU
 10
255.29704169456829
 20
597.10574394563059
 30
0.0
 40
0.5999999999999944
 50
0.0
 51
180.0
  0
ARC
  5
1E8E9
  8
SU
 10
255.29704169456829
 20
703.60574100736142
 30
0.0
 40
0.5999999999999944
 50
180.0
 51
0.0
  0
ARC
  5
1E8EA
  8
SU
 10
255.29704169456829
 20
703.60574100736142
 30
0.0
 40
0.5999999999999944
 50
0.0
 51
180.0
  0
ARC
  5
1E8EB
  8
SU
 10
249.6970416945683
 20
703.60574100736142
 30
0.0
 40
0.5999999999999944
 50
0.0
 51
180.0
  0
ARC
  5
1E8EC
  8
SU
 10
249.6970416945683
 20
703.60574100736142
 30
0.0
 40
0.5999999999999944
 50
180.0
 51
0.0
  0
ARC
  5
1E8ED
  8
SU
 10
208.9470416945683
 20
153.17861459537539
 30
0.0
 40
0.5999999999999944
 50
0.0
 51
180.0
  0
ARC
  5
1E8EE
  8
SU
 10
208.9470416945683
 20
153.17861459537539
 30
0.0
 40
0.5999999999999944
 50
180.0
 51
0.0
  0
ARC
  5
1E8EF
  8
SU
 10
208.9470416945683
 20
71.283007487720852
 30
0.0
 40
0.5999999999999944
 50
0.0
 51
180.0
  0
ARC
  5
1E8F0
  8
SU
 10
208.9470416945683
 20
71.283007487720852
 30
0.0
 40
0.5999999999999944
 50
180.0
 51
0.0
  0
ARC
  5
1E8F1
  8
SU
 10
208.9470416945683
 20
295.10574394672591
 30
0.0
 40
0.5999999999999944
 50
0.0
 51
180.0
  0
ARC
  5
1E8F2
  8
SU
 10
208.9470416945683
 20
295.10574394672591
 30
0.0
 40
0.5999999999999944
 50
180.0
 51
0.0
  0
ARC
  5
1E8F3
  8
SU
 10
224.44704926124621
 20
295.10574394672591
 30
0.0
 40
0.5999999999999944
 50
180.0
 51
0.0
  0
ARC
  5
1E8F4
  8
SU
 10
224.44704926124621
 20
295.10574394672591
 30
0.0
 40
0.5999999999999944
 50
0.0
 51
180.0
  0
ARC
  5
1E8F5
  8
SU
 10
208.9470416945683
 20
703.60577189412027
 30
0.0
 40
0.5999999999999944
 50
0.0
 51
180.0
  0
ARC
  5
1E8F6
  8
SU
 10
208.9470416945683
 20
703.60577189412027
 30
0.0
 40
0.5999999999999944
 50
180.0
 51
0.0
  0
ARC
  5
1E8F7
  8
SU
 10
219.1970416945683
 20
703.60577189412027
 30
0.0
 40
0.5999999999999944
 50
180.0
 51
0.0
  0
ARC
  5
1E8F8
  8
SU
 10
219.1970416945683
 20
703.60577189412027
 30
0.0
 40
0.5999999999999944
 50
0.0
 51
180.0
  0
ARC
  5
1E8F9
  8
SU
 10
208.9470416945683
 20
577.1057439456298
 30
0.0
 40
0.5999999999999944
 50
0.0
 51
180.0
  0
ARC
  5
1E8FA
  8
SU
 10
208.9470416945683
 20
577.1057439456298
 30
0.0
 40
0.5999999999999944
 50
180.0
 51
0.0
  0
ARC
  5
1E8FB
  8
SU
 10
217.9470492611749
 20
577.1057439456298
 30
0.0
 40
0.5999999999999944
 50
180.0
 51
0.0
  0
ARC
  5
1E8FC
  8
SU
 10
217.9470492611749
 20
577.1057439456298
 30
0.0
 40
0.5999999999999944
 50
0.0
 51
180.0
  0
ARC
  5
1E8FD
  8
SU
 10
255.29704169456829
 20
577.10574394563082
 30
0.0
 40
0.5999999999999944
 50
180.0
 51
0.0
  0
ARC
  5
1E8FE
  8
SU
 10
255.29704169456829
 20
577.10574394563082
 30
0.0
 40
0.5999999999999944
 50
0.0
 51
180.0
  0
ARC
  5
1E8FF
  8
SU
 10
250.9470404794929
 20
577.10574394563082
 30
0.0
 40
0.5999999999999944
 50
0.0
 51
180.0
  0
ARC
  5
1E900
  8
SU
 10
250.9470404794929
 20
577.10574394563082
 30
0.0
 40
0.5999999999999944
 50
180.0
 51
0.0
  0
ARC
  5
1E901
  8
SU
 10
244.94655029177031
 20
153.17861459537539
 30
0.0
 40
0.5999999999999944
 50
180.0
 51
0.0
  0
ARC
  5
1E902
  8
SU
 10
244.94655029177031
 20
153.17861459537539
 30
0.0
 40
0.5999999999999944
 50
0.0
 51
180.0
  0
ARC
  5
1E903
  8
SU
 10
223.94655029177031
 20
153.17861459537539
 30
0.0
 40
0.5999999999999944
 50
0.0
 51
180.0
  0
ARC
  5
1E904
  8
SU
 10
223.94655029177031
 20
153.17861459537539
 30
0.0
 40
0.5999999999999944
 50
180.0
 51
0.0
  0
ARC
  5
1E905
  8
SU
 10
388.94710624401569
 20
112.28300748772079
 30
0.0
 40
0.5999999999999944
 50
90.0
 51
270.0
  0
ARC
  5
1E906
  8
SU
 10
388.94710624401569
 20
112.28300748772079
 30
0.0
 40
0.5999999999999944
 50
270.0
 51
90.0
  0
ARC
  5
1E907
  8
SU
 10
241.4470492611749
 20
71.283007487720852
 30
0.0
 40
0.5999999999999944
 50
180.0
 51
0.0
  0
ARC
  5
1E908
  8
SU
 10
241.4470492611749
 20
71.283007487720852
 30
0.0
 40
0.5999999999999944
 50
0.0
 51
180.0
  0
ARC
  5
1E909
  8
SU
 10
227.4470492611749
 20
71.283007487720852
 30
0.0
 40
0.5999999999999944
 50
0.0
 51
180.0
  0
ARC
  5
1E90A
  8
SU
 10
227.4470492611749
 20
71.283007487720852
 30
0.0
 40
0.5999999999999944
 50
180.0
 51
0.0
  0
ARC
  5
1E90B
  8
SU
 10
240.44655029177039
 20
91.283007487720852
 30
0.0
 40
0.5999999999999944
 50
180.0
 51
0.0
  0
ARC
  5
1E90C
  8
SU
 10
240.44655029177039
 20
91.283007487720852
 30
0.0
 40
0.5999999999999944
 50
0.0
 51
180.0
  0
ARC
  5
1E90D
  8
SU
 10
228.44655029177031
 20
91.283007487720852
 30
0.0
 40
0.5999999999999944
 50
0.0
 51
180.0
  0
ARC
  5
1E90E
  8
SU
 10
228.44655029177031
 20
91.283007487720852
 30
0.0
 40
0.5999999999999944
 50
180.0
 51
0.0
  0
ARC
  5
1E90F
  8
SU
 10
368.9471062440158
 20
124.28300748772079
 30
0.0
 40
0.5999999999999944
 50
90.0
 51
270.0
  0
ARC
  5
1E910
  8
SU
 10
368.9471062440158
 20
124.28300748772079
 30
0.0
 40
0.5999999999999944
 50
270.0
 51
90.0
  0
ARC
  5
1E911
  8
SU
 10
368.9471062440158
 20
131.28300748772079
 30
0.0
 40
0.5999999999999944
 50
90.0
 51
270.0
  0
ARC
  5
1E912
  8
SU
 10
368.9471062440158
 20
131.28300748772079
 30
0.0
 40
0.5999999999999944
 50
270.0
 51
90.0
  0
ARC
  5
1E913
  8
SU
 10
348.94710624401711
 20
623.60574394563071
 30
0.0
 40
0.6000000000000229
 50
90.0
 51
270.0
  0
ARC
  5
1E914
  8
SU
 10
348.94710624401711
 20
623.60574394563071
 30
0.0
 40
0.6000000000000229
 50
270.0
 51
90.0
  0
ARC
  5
1E915
  8
SU
 10
348.94710624401711
 20
627.1057444254144
 30
0.0
 40
0.6000000000000229
 50
270.0
 51
90.0
  0
ARC
  5
1E916
  8
SU
 10
348.94710624401711
 20
627.1057444254144
 30
0.0
 40
0.6000000000000229
 50
90.0
 51
270.0
  0
ARC
  5
1E917
  8
SU
 10
368.94710624401699
 20
636.60574394563071
 30
0.0
 40
0.6000000000000229
 50
90.0
 51
270.0
  0
ARC
  5
1E918
  8
SU
 10
368.94710624401699
 20
636.60574394563071
 30
0.0
 40
0.6000000000000229
 50
270.0
 51
90.0
  0
ARC
  5
1E919
  8
SU
 10
368.94710624401711
 20
664.10574394563093
 30
0.0
 40
0.6000000000000229
 50
270.0
 51
90.0
  0
ARC
  5
1E91A
  8
SU
 10
368.94710624401711
 20
664.10574394563093
 30
0.0
 40
0.6000000000000229
 50
90.0
 51
270.0
  0
ARC
  5
1E91B
  8
SU
 10
252.94704926124621
 20
295.10574394672591
 30
0.0
 40
0.5999999999999944
 50
180.0
 51
0.0
  0
ARC
  5
1E91C
  8
SU
 10
252.94704926124621
 20
295.10574394672591
 30
0.0
 40
0.5999999999999944
 50
0.0
 51
180.0
  0
ARC
  5
1E91D
  8
SU
 10
348.94710624401699
 20
328.1057439467258
 30
0.0
 40
0.6000000000000229
 50
90.0
 51
270.0
  0
ARC
  5
1E91E
  8
SU
 10
348.94710624401699
 20
328.1057439467258
 30
0.0
 40
0.6000000000000229
 50
270.0
 51
90.0
  0
ARC
  5
1E91F
  8
SU
 10
348.94710624401699
 20
333.10573902738793
 30
0.0
 40
0.6000000000000229
 50
270.0
 51
90.0
  0
ARC
  5
1E920
  8
SU
 10
348.94710624401699
 20
333.10573902738793
 30
0.0
 40
0.6000000000000229
 50
90.0
 51
270.0
  0
ARC
  5
1E921
  8
SU
 10
368.94710624401711
 20
328.1057439467258
 30
0.0
 40
0.6000000000000229
 50
90.0
 51
270.0
  0
ARC
  5
1E922
  8
SU
 10
368.94710624401711
 20
328.1057439467258
 30
0.0
 40
0.6000000000000229
 50
270.0
 51
90.0
  0
ARC
  5
1E923
  8
SU
 10
368.94710624401699
 20
627.105745209882
 30
0.0
 40
0.6000000000000229
 50
270.0
 51
90.0
  0
ARC
  5
1E924
  8
SU
 10
368.94710624401699
 20
627.105745209882
 30
0.0
 40
0.6000000000000229
 50
90.0
 51
270.0
  0
ARC
  5
1E925
  8
SU
 10
368.94710624401699
 20
337.1057439467258
 30
0.0
 40
0.6000000000000229
 50
90.0
 51
270.0
  0
ARC
  5
1E926
  8
SU
 10
368.94710624401699
 20
337.1057439467258
 30
0.0
 40
0.6000000000000229
 50
270.0
 51
90.0
  0
ARC
  5
1E927
  8
SU
 10
726.38748865054845
 20
263.48474779943717
 30
0.0
 40
0.6000000000000229
 50
90.0
 51
270.0
  0
ARC
  5
1E928
  8
SU
 10
726.38748865054845
 20
263.48474779943717
 30
0.0
 40
0.6000000000000229
 50
270.0
 51
90.0
  0
ARC
  5
1E929
  8
SU
 10
726.38748865054845
 20
296.48474779943717
 30
0.0
 40
0.6000000000000229
 50
270.0
 51
90.0
  0
ARC
  5
1E92A
  8
SU
 10
726.38748865054845
 20
296.48474779943717
 30
0.0
 40
0.6000000000000229
 50
90.0
 51
270.0
  0
ARC
  5
1E92B
  8
SU
 10
958.38748865054913
 20
183.4847477994343
 30
0.0
 40
0.6000000000000229
 50
180.0
 51
0.0
  0
ARC
  5
1E92C
  8
SU
 10
958.38748865054913
 20
183.4847477994343
 30
0.0
 40
0.6000000000000229
 50
0.0
 51
180.0
  0
ARC
  5
1E92D
  8
SU
 10
923.3874886505489
 20
203.4847477994343
 30
0.0
 40
0.6000000000000229
 50
0.0
 51
180.0
  0
ARC
  5
1E92E
  8
SU
 10
923.3874886505489
 20
203.4847477994343
 30
0.0
 40
0.6000000000000229
 50
180.0
 51
0.0
  0
ARC
  5
1E92F
  8
SU
 10
958.38748865054913
 20
203.4847477994343
 30
0.0
 40
0.6000000000000229
 50
180.0
 51
0.0
  0
ARC
  5
1E930
  8
SU
 10
958.38748865054913
 20
203.4847477994343
 30
0.0
 40
0.6000000000000229
 50
0.0
 51
180.0
  0
ARC
  5
1E931
  8
SU
 10
726.38748865054868
 20
305.48474779943427
 30
0.0
 40
0.6000000000000229
 50
270.0
 51
90.0
  0
ARC
  5
1E932
  8
SU
 10
726.38748865054868
 20
305.48474779943427
 30
0.0
 40
0.6000000000000229
 50
90.0
 51
270.0
  0
ARC
  5
1E933
  8
SU
 10
696.38748865054845
 20
408.4847477994345
 30
0.0
 40
0.6000000000000229
 50
0.0
 51
180.0
  0
ARC
  5
1E934
  8
SU
 10
696.38748865054845
 20
408.4847477994345
 30
0.0
 40
0.6000000000000229
 50
180.0
 51
0.0
  0
ARC
  5
1E935
  8
SU
 10
917.38748865054902
 20
408.4847477994345
 30
0.0
 40
0.6000000000000229
 50
180.0
 51
0.0
  0
ARC
  5
1E936
  8
SU
 10
917.38748865054902
 20
408.4847477994345
 30
0.0
 40
0.6000000000000229
 50
0.0
 51
180.0
  0
ARC
  5
1E937
  8
SU
 10
690.38748865054845
 20
203.4847477994343
 30
0.0
 40
0.6000000000000229
 50
180.0
 51
0.0
  0
ARC
  5
1E938
  8
SU
 10
690.38748865054845
 20
203.4847477994343
 30
0.0
 40
0.6000000000000229
 50
0.0
 51
180.0
  0
ARC
  5
1E939
  8
SU
 10
655.38748865054879
 20
203.4847477994343
 30
0.0
 40
0.6000000000000229
 50
0.0
 51
180.0
  0
ARC
  5
1E93A
  8
SU
 10
655.38748865054879
 20
203.4847477994343
 30
0.0
 40
0.6000000000000229
 50
180.0
 51
0.0
  0
ARC
  5
1E93B
  8
SU
 10
655.38748865054879
 20
183.4847477994343
 30
0.0
 40
0.6000000000000229
 50
0.0
 51
180.0
  0
ARC
  5
1E93C
  8
SU
 10
655.38748865054879
 20
183.4847477994343
 30
0.0
 40
0.6000000000000229
 50
180.0
 51
0.0
  0
ARC
  5
1E93D
  8
SU
 10
806.88748865054856
 20
183.4847477994343
 30
0.0
 40
0.6000000000000229
 50
180.0
 51
0.0
  0
ARC
  5
1E93E
  8
SU
 10
806.88748865054856
 20
183.4847477994343
 30
0.0
 40
0.6000000000000229
 50
0.0
 51
180.0
  0
ENDSEC
  0
EOF
