  0
SECTION
  2
HEADER
  9
$ACADVER
  1
AC1009
  9
$INSBASE
 10
0.0
 20
0.0
 30
0.0
  9
$EXTMIN
 10
19.300000000000001
 20
16.25
 30
0.0
  9
$EXTMAX
 10
1165.5
 20
830.74999999999989
 30
0.0
  9
$LIMMIN
 10
0.0
 20
0.0
  9
$LIMMAX
 10
1189.0
 20
841.0
  9
$ORTHOMODE
 70
     1
  9
$REGENMODE
 70
     1
  9
$FILLMODE
 70
     1
  9
$QTEXTMODE
 70
     0
  9
$MIRRTEXT
 70
     0
  9
$DRAGMODE
 70
     2
  9
$LTSCALE
 40
1.0
  9
$OSMODE
 70
  3071
  9
$ATTMODE
 70
     1
  9
$TEXTSIZE
 40
12.5
  9
$TRACEWID
 40
1.0
  9
$TEXTSTYLE
  7
STANDARD
  9
$CLAYER
  8
0
  9
$CELTYPE
  6
BYLAYER
  9
$CECOLOR
 62
   256
  9
$DIMSCALE
 40
1.0
  9
$DIMASZ
 40
7.0
  9
$DIMEXO
 40
1.0
  9
$DIMDLI
 40
7.0
  9
$DIMRND
 40
0.0
  9
$DIMDLE
 40
0.0
  9
$DIMEXE
 40
3.0
  9
$DIMTP
 40
0.1
  9
$DIMTM
 40
0.1
  9
$DIMTXT
 40
7.0
  9
$DIMCEN
 40
0.0
  9
$DIMTSZ
 40
0.0
  9
$DIMTOL
 70
     0
  9
$DIMLIM
 70
     0
  9
$DIMTIH
 70
     0
  9
$DIMTOH
 70
     0
  9
$DIMSE1
 70
     0
  9
$DIMSE2
 70
     0
  9
$DIMTAD
 70
     1
  9
$DIMZIN
 70
     8
  9
$DIMBLK
  1
DOTSMALL
  9
$DIMASO
 70
     1
  9
$DIMSHO
 70
     1
  9
$DIMPOST
  1

  9
$DIMAPOST
  1
"
  9
$DIMALT
 70
     0
  9
$DIMALTD
 70
     2
  9
$DIMALTF
 40
0.0393701
  9
$DIMLFAC
 40
1.0
  9
$DIMTOFL
 70
     1
  9
$DIMTVP
 40
0.0
  9
$DIMTIX
 70
     0
  9
$DIMSOXD
 70
     0
  9
$DIMSAH
 70
     0
  9
$DIMBLK1
  1

  9
$DIMBLK2
  1

  9
$DIMSTYLE
  2
SANKYO
  9
$DIMCLRD
 70
   256
  9
$DIMCLRE
 70
   256
  9
$DIMCLRT
 70
   256
  9
$DIMTFAC
 40
0.71
  9
$DIMGAP
 40
1.3
  9
$LUNITS
 70
     2
  9
$LUPREC
 70
     4
  9
$SKETCHINC
 40
1.0
  9
$FILLETRAD
 40
0.0
  9
$AUNITS
 70
     0
  9
$AUPREC
 70
     0
  9
$MENU
  1
.
  9
$ELEVATION
 40
0.0
  9
$PELEVATION
 40
0.0
  9
$THICKNESS
 40
0.0
  9
$LIMCHECK
 70
     0
  9
$BLIPMODE
 70
     0
  9
$CHAMFERA
 40
10.0
  9
$CHAMFERB
 40
10.0
  9
$SKPOLY
 70
     0
  9
$TDCREATE
 40
2455110.561913426
  9
$TDUPDATE
 40
2459033.4916180549
  9
$TDINDWG
 40
1.9896243980999999
  9
$TDUSRTIMER
 40
1.9894287500000001
  9
$USRTIMER
 70
     1
  9
$ANGBASE
 50
0.0
  9
$ANGDIR
 70
     0
  9
$PDMODE
 70
     0
  9
$PDSIZE
 40
0.0
  9
$PLINEWID
 40
0.0
  9
$COORDS
 70
     2
  9
$SPLFRAME
 70
     0
  9
$SPLINETYPE
 70
     6
  9
$SPLINESEGS
 70
     8
  9
$ATTDIA
 70
     1
  9
$ATTREQ
 70
     1
  9
$HANDLING
 70
     1
  9
$HANDSEED
  5
24CF2
  9
$SURFTAB1
 70
     6
  9
$SURFTAB2
 70
     6
  9
$SURFTYPE
 70
     6
  9
$SURFU
 70
     6
  9
$SURFV
 70
     6
  9
$UCSNAME
  2

  9
$UCSORG
 10
0.0
 20
0.0
 30
0.0
  9
$UCSXDIR
 10
1.0
 20
0.0
 30
0.0
  9
$UCSYDIR
 10
0.0
 20
1.0
 30
0.0
  9
$PUCSNAME
  2

  9
$PUCSORG
 10
0.0
 20
0.0
 30
0.0
  9
$PUCSXDIR
 10
1.0
 20
0.0
 30
0.0
  9
$PUCSYDIR
 10
0.0
 20
1.0
 30
0.0
  9
$USERI1
 70
     0
  9
$USERI2
 70
     0
  9
$USERI3
 70
     0
  9
$USERI4
 70
     0
  9
$USERI5
 70
     0
  9
$USERR1
 40
0.0
  9
$USERR2
 40
0.0
  9
$USERR3
 40
0.0
  9
$USERR4
 40
0.0
  9
$USERR5
 40
0.0
  9
$WORLDVIEW
 70
     1
  9
$SHADEDGE
 70
     3
  9
$SHADEDIF
 70
    70
  9
$TILEMODE
 70
     1
  9
$MAXACTVP
 70
    48
  9
$PLIMCHECK
 70
     0
  9
$PEXTMIN
 10
1.0000000000000000E+020
 20
1.0000000000000000E+020
 30
1.0000000000000000E+020
  9
$PEXTMAX
 10
-1.0000000000000000E+020
 20
-1.0000000000000000E+020
 30
-1.0000000000000000E+020
  9
$PLIMMIN
 10
0.0
 20
0.0
  9
$PLIMMAX
 10
420.0
 20
297.0
  9
$UNITMODE
 70
     0
  9
$VISRETAIN
 70
     1
  9
$PLINEGEN
 70
     0
  9
$PSLTSCALE
 70
     1
  0
ENDSEC
  0
SECTION
  2
TABLES
  0
TABLE
  2
VPORT
 70
     1
  0
VPORT
  2
*ACTIVE
 70
     0
 10
0.0
 20
0.0
 11
1.0
 21
1.0
 12
592.41359224346638
 22
423.48359113394218
 13
0.0
 23
0.0
 14
2.5
 24
2.5
 15
10.0
 25
10.0
 16
0.0
 26
0.0
 36
1.0
 17
0.0
 27
0.0
 37
0.0
 40
820.92390940123255
 41
2.050913838120104
 42
50.0
 43
0.0
 44
0.0
 50
0.0
 51
0.0
 71
     0
 72
   100
 73
     1
 74
     1
 75
     0
 76
     0
 77
     0
 78
     0
  0
ENDTAB
  0
TABLE
  2
LTYPE
 70
    21
  0
LTYPE
  2
CONTINUOUS
 70
     0
  3
Solid line
 72
    65
 73
     0
 40
0.0
  0
LTYPE
  2
CENTER2
 70
     0
  3
Center (.5x) ___ _ ___ _ ___ _ ___ _ ___ _ ___
 72
    65
 73
     4
 40
28.574999999999999
 49
19.050000000000001
 49
-3.1749999999999989
 49
3.1749999999999989
 49
-3.1749999999999989
  0
LTYPE
  2
PHANTOM2
 70
     0
  3
Phantom (.5x) ___ _ _ ___ _ _ ___ _ _ ___ _ _
 72
    65
 73
     6
 40
31.75
 49
15.875
 49
-3.1749999999999989
 49
3.1749999999999989
 49
-3.1749999999999989
 49
3.1749999999999989
 49
-3.1749999999999989
  0
LTYPE
  2
HIDDEN
 70
     0
  3
Hidden __ __ __ __ __ __ __ __ __ __ __ __ __ _
 72
    65
 73
     2
 40
9.5249999999999986
 49
6.3499999999999988
 49
-3.1749999999999989
  0
LTYPE
  2
CENTER
 70
     0
  3
Center ____ _ ____ _ ____ _ ____ _ ____ _ ____
 72
    65
 73
     4
 40
50.799999999999997
 49
31.75
 49
-6.3499999999999988
 49
6.3499999999999988
 49
-6.3499999999999988
  0
LTYPE
  2
ACISOWELD
 70
     0
  3
_ _ _ _ _
 72
    65
 73
     2
 40
2.0
 49
2.0
 49
-1.0
  0
LTYPE
  2
ACISOTGL
 70
     0
  3
_ _ _ _ _
 72
    65
 73
     2
 40
3.0
 49
2.0
 49
-1.0
  0
LTYPE
  2
ACISOTGB
 70
     0
  3
__ . . __ . .
 72
    65
 73
     6
 40
9.0
 49
4.0
 49
-1.0
 49
1.0
 49
-1.0
 49
1.0
 49
-1.0
  0
LTYPE
  2
DDM
 70
     0
  3
中点線
 72
    65
 73
     2
 40
3.0
 49
2.0
 49
-1.0
  0
LTYPE
  2
DD2
 70
     0
  3
二点鎖線
 72
    65
 73
     6
 40
12.0
 49
6.0
 49
-1.1999999999999991
 49
1.1999999999999991
 49
-1.1999999999999991
 49
1.1999999999999991
 49
-1.1999999999999991
  0
LTYPE
  2
AM_ISO02W050
 70
     0
  3
__ __ __ __ __ __ __ __ __ __ __ __ __ __ __
 72
    65
 73
     2
 40
7.5
 49
6.0
 49
-1.5
  0
LTYPE
  2
AMCONSTR
 70
     0
  3
_______________________
 72
    65
 73
     2
 40
9999.0
 49
9999.0
 49
0.0
  0
LTYPE
  2
AMZIGZAG
 70
     0
  3
/\/-/\/-/\/-/\/-/\/-/\/
 72
    65
 73
     2
 40
11.0001
 49
0.0001
 49
-11.0
  0
LTYPE
  2
AM_ISO08W050
 70
     0
  3
____ . ____ . ____ . ____ . ____ . ____ . ____
 72
    65
 73
     4
 40
18.0
 49
12.0
 49
-1.5
 49
3.0
 49
-1.5
  0
LTYPE
  2
AM_ISO09W050
 70
     0
  3
_____ . . _____ . . _____ . . ____ .. ____
 72
    65
 73
     6
 40
22.5
 49
12.0
 49
-1.5
 49
3.0
 49
-1.5
 49
3.0
 49
-1.5
  0
LTYPE
  2
AM_ISO08W050X2
 70
     0
  3
__ . __ . __ . __ . __ . __
 72
    65
 73
     4
 40
9.0
 49
6.0
 49
-0.75
 49
1.5
 49
-0.75
  0
LTYPE
  2
AM_ISO02W050X2
 70
     0
  3
 _ _ _ _ _ _ _ _ _ _ _ _
 72
    65
 73
     2
 40
3.75
 49
3.0
 49
-0.75
  0
LTYPE
  2
DASHED2
 70
     0
  3
Dashed (.5x) _ _ _ _ _ _ _ _ _ _ _ _ _ _ _ _ _
 72
    65
 73
     2
 40
9.5249999999999986
 49
6.3499999999999988
 49
-3.1749999999999989
  0
LTYPE
  2
HIDDEN2
 70
     0
  3
Hidden (.5x) _ _ _ _ _ _ _ _ _ _ _ _ _ _ _ _ _
 72
    65
 73
     2
 40
0.1875
 49
0.125
 49
-0.0625
  0
LTYPE
  2
ACANSTGB
 70
     0
  3
__ . . __ . .
 72
    65
 73
     6
 40
0.35433070866
 49
0.15748031496
 49
-0.03937007874
 49
0.03937007874
 49
-0.03937007874
 49
0.03937007874
 49
-0.03937007874
  0
LTYPE
  2
ACANSTGL
 70
     0
  3
_ _ _ _ _
 72
    65
 73
     2
 40
0.11811023622
 49
0.07874015748
 49
-0.03937007874
  0
ENDTAB
  0
TABLE
  2
LAYER
 70
    11
  0
LAYER
  2
0
 70
     0
 62
     7
  6
CONTINUOUS
  0
LAYER
  2
KI1
 70
     0
 62
     7
  6
CONTINUOUS
  0
LAYER
  2
SU
 70
     0
 62
     3
  6
CONTINUOUS
  0
LAYER
  2
MJ
 70
     0
 62
     2
  6
CONTINUOUS
  0
LAYER
  2
OS
 70
     0
 62
     2
  6
CONTINUOUS
  0
LAYER
  2
KI2
 70
     0
 62
     4
  6
CONTINUOUS
  0
LAYER
  2
PH
 70
     0
 62
     6
  6
PHANTOM2
  0
LAYER
  2
WK
 70
     4
 62
     7
  6
CONTINUOUS
  0
LAYER
  2
DEFPOINTS
 70
     1
 62
    -7
  6
CONTINUOUS
  0
LAYER
  2
TS
 70
     0
 62
     6
  6
DASHED2
  0
LAYER
  2
CL
 70
     0
 62
     4
  6
CENTER2
  0
ENDTAB
  0
TABLE
  2
STYLE
 70
     4
  0
STYLE
  2
STANDARD
 70
     0
 40
0.0
 41
0.8299999999999999
 50
0.0
 71
     0
 42
12.5
  3
romans.shx
  4
extfont.shx
  0
STYLE
  2
ACISOGDT
 70
     0
 40
0.0
 41
1.0
 50
0.0
 71
     0
 42
12.5
  3
amgdt.shx
  4

  0
STYLE
  2

 70
     1
 40
0.0
 41
1.0
 50
0.0
 71
     0
 42
2.5
  3
ltypeshp.shx
  4

  0
STYLE
  2
ACANSGDT
 70
     0
 40
0.0
 41
1.0
 50
0.0
 71
     0
 42
12.5
  3
amgdt.shx
  4

  0
ENDTAB
  0
TABLE
  2
VIEW
 70
     6
  0
VIEW
  2
AM_VIEW1
 70
     0
 40
297.5
 10
-194.33547008547001
 20
148.25
 41
457.32905982905982
 11
0.0
 21
0.0
 31
1.0
 12
0.0
 22
0.0
 32
0.0
 42
50.0
 43
0.0
 44
0.0
 50
0.0
 71
     0
  0
VIEW
  2
AM_VIEW2
 70
     0
 40
297.5
 10
189.33547008547001
 20
148.25
 41
457.32905982905982
 11
0.0
 21
0.0
 31
1.0
 12
0.0
 22
0.0
 32
0.0
 42
50.0
 43
0.0
 44
0.0
 50
0.0
 71
     0
  0
VIEW
  2
AM_VIEW3
 70
     0
 40
297.5
 10
-194.33547008547001
 20
-149.25
 41
457.32905982905982
 11
0.0
 21
0.0
 31
1.0
 12
0.0
 22
0.0
 32
0.0
 42
50.0
 43
0.0
 44
0.0
 50
0.0
 71
     0
  0
VIEW
  2
AM_VIEW4
 70
     0
 40
297.5
 10
189.33547008547001
 20
-149.25
 41
457.32905982905982
 11
0.0
 21
0.0
 31
1.0
 12
0.0
 22
0.0
 32
0.0
 42
50.0
 43
0.0
 44
0.0
 50
0.0
 71
     0
  0
VIEW
  2
AM_VIEW5
 70
     0
 40
297.5
 10
-2.5
 20
-0.5
 41
457.32905982905982
 11
0.0
 21
0.0
 31
1.0
 12
0.0
 22
0.0
 32
0.0
 42
50.0
 43
0.0
 44
0.0
 50
0.0
 71
     0
  0
VIEW
  2
AM_VIEW6
 70
     0
 40
594.99405000000002
 10
-2.5
 20
-0.5
 41
914.6489730769232
 11
0.0
 21
0.0
 31
1.0
 12
0.0
 22
0.0
 32
0.0
 42
50.0
 43
0.0
 44
0.0
 50
0.0
 71
     0
  0
ENDTAB
  0
TABLE
  2
UCS
 70
     0
  0
ENDTAB
  0
TABLE
  2
APPID
 70
    47
  0
APPID
  2
ACAD
 70
     0
  0
APPID
  2
MCAD_NO_VIS
 70
     0
  0
APPID
  2
ACAD_TEMP_GRAPHIC
 70
     0
  0
APPID
  2
ACATTRIBSERVICES
 70
     0
  0
APPID
  2
GENIUS_GENDIMSH_14
 70
     0
  0
APPID
  2
GENIUS_GENODEF_13
 70
     0
  0
APPID
  2
GENIUS_GENOENT_13
 70
     0
  0
APPID
  2
GENIUS_GENOBJ-N-TIT_13
 70
     0
  0
APPID
  2
GENIUS_GENOLIS_13
 70
     0
  0
APPID
  2
GENIUS_GENTITLE_13
 70
     0
  0
APPID
  2
GENIUS_GENOREF_13
 70
     0
  0
APPID
  2
GENIUS_GENSCREG_15
 70
     0
  0
APPID
  2
GENIUS_GENOBJ-N-SDF_13
 70
     0
  0
APPID
  2
GENIUS_GENOBJ-N-REV_13
 70
     0
  0
APPID
  2
GENIUS_GENOBJ-N-RSSYM_13
 70
     0
  0
APPID
  2
GENIUS_GENSYMENT_13
 70
     0
  0
APPID
  2
GENIUS_GENSCSYM_13
 70
     0
  0
APPID
  2
GENIUS_GENOBJ-N-CEN_13
 70
     0
  0
APPID
  2
GENIUS_GENOBJ-N-FIL_13
 70
     0
  0
APPID
  2
GENIUS_GENBH_13
 70
     0
  0
APPID
  2
GENIUS_GENOBJ-NBEHI-BHF_13
 70
     0
  0
APPID
  2
GENIUS_GENFIL_13
 70
     0
  0
APPID
  2
GENIUS_GENOBJ-N-CHA_13
 70
     0
  0
APPID
  2
GENIUS_GENOBJ-NBEHI-BHB_13
 70
     0
  0
APPID
  2
GENIUS_GENOBJ-N-CRS_13
 70
     0
  0
APPID
  2
GENIUS_GENDTOL_13
 70
     0
  0
APPID
  2
AD_DRAW
 70
     0
  0
APPID
  2
DESIGNERASSEMBLIES
 70
     0
  0
APPID
  2
ACADM_DIM_EDIT
 70
     0
  0
APPID
  2
AMDT_DM_ADJ
 70
     0
  0
APPID
  2
ACAD_PSEXT
 70
     0
  0
APPID
  2
ACAECLAYERSTANDARD
 70
     0
  0
APPID
  2
DCO15
 70
     0
  0
APPID
  2
GENIUS_GENOBJ-N-HTC_13
 70
     0
  0
APPID
  2
GENIUS_GENHATCH_13
 70
     0
  0
APPID
  2
ACAD_NAV_VCDISPLAY
 70
     0
  0
APPID
  2
ACAD_DSTYLE_DIMARC_LENGTH_
 70
     0
  0
APPID
  2
GENIUS_GENREC_14
 70
     0
  0
APPID
  2
GENIUS_GENOBJ-N-REC_13
 70
     0
  0
APPID
  2
GENIUS_GENCEN_19
 70
     0
  0
APPID
  2
ACAD_EXEMPT_FROM_CAD_STANDARDS
 70
     0
  0
APPID
  2
ACAD_DSTYLE_DIMJAG
 70
     0
  0
APPID
  2
ACAD_DSTYLE_DIMBREAK
 70
     0
  0
APPID
  2
ACAD_DSTYLE_DIMINSPECT
 70
     0
  0
APPID
  2
ACADANNOMONITORALERTICONDI
 70
     0
  0
APPID
  2
CONTENTBLOCKICON
 70
     0
  0
APPID
  2
ACAD_MLEADERVER
 70
     0
  0
ENDTAB
  0
TABLE
  2
DIMSTYLE
 70
    15
  0
DIMSTYLE
  2
SANKYO
 70
     0
  3

  4
"
  5
DOTSMALL
  6

  7

 40
1.0
 41
7.0
 42
1.0
 43
7.0
 44
3.0
 45
0.0
 46
0.0
 47
0.1
 48
0.1
140
7.0
141
0.0
142
0.0
143
0.0393701
144
1.0
145
0.0
146
0.71
147
1.3
 71
     0
 72
     0
 73
     0
 74
     0
 75
     0
 76
     0
 77
     1
 78
     8
170
     0
171
     2
172
     1
173
     0
174
     0
175
     0
176
   256
177
   256
178
   256
  0
DIMSTYLE
  2
AM_ISO
 70
     0
  3

  4
"
  5

  6

  7

 40
1.0
 41
3.5
 42
1.0
 43
10.0
 44
1.0
 45
0.0
 46
0.0
 47
0.1
 48
0.1
140
3.5
141
0.0
142
0.0
143
0.0393701
144
1.0
145
0.0
146
0.71
147
1.5
 71
     0
 72
     0
 73
     0
 74
     0
 75
     0
 76
     0
 77
     1
 78
     8
170
     0
171
     2
172
     1
173
     0
174
     0
175
     0
176
   256
177
   256
178
     2
  0
DIMSTYLE
  2
AM_ISO$3
 70
     0
  3

  4
"
  5

  6

  7

 40
1.0
 41
3.5
 42
1.0
 43
10.0
 44
1.0
 45
0.0
 46
0.0
 47
0.1
 48
0.1
140
3.5
141
0.0
142
0.0
143
0.0393701
144
1.0
145
0.0
146
0.71
147
1.5
 71
     0
 72
     0
 73
     0
 74
     1
 75
     0
 76
     0
 77
     1
 78
     8
170
     0
171
     2
172
     0
173
     0
174
     0
175
     0
176
   256
177
   256
178
     2
  0
DIMSTYLE
  2
AM_ISO$4
 70
     0
  3

  4
"
  5

  6

  7

 40
1.0
 41
3.5
 42
1.0
 43
10.0
 44
1.0
 45
0.0
 46
0.0
 47
0.1
 48
0.1
140
3.5
141
0.0
142
0.0
143
0.0393701
144
1.0
145
0.0
146
0.71
147
1.5
 71
     0
 72
     0
 73
     0
 74
     1
 75
     0
 76
     0
 77
     1
 78
     8
170
     0
171
     2
172
     0
173
     0
174
     0
175
     0
176
   256
177
   256
178
     2
  0
DIMSTYLE
  2
AM_ISO$6
 70
     0
  3

  4
"
  5

  6

  7

 40
1.0
 41
3.5
 42
1.0
 43
10.0
 44
1.0
 45
0.0
 46
0.0
 47
0.1
 48
0.1
140
3.5
141
0.0
142
0.0
143
0.0393701
144
1.0
145
0.0
146
0.71
147
1.5
 71
     0
 72
     0
 73
     0
 74
     0
 75
     0
 76
     0
 77
     0
 78
     8
170
     0
171
     2
172
     1
173
     0
174
     0
175
     0
176
   256
177
   256
178
     2
  0
DIMSTYLE
  2
AM_ISO$7
 70
     0
  3

  4
"
  5

  6

  7

 40
1.0
 41
3.5
 42
1.0
 43
10.0
 44
1.0
 45
0.0
 46
0.0
 47
0.1
 48
0.1
140
3.5
141
0.0
142
0.0
143
0.0393701
144
1.0
145
0.0
146
0.71
147
1.5
 71
     0
 72
     0
 73
     0
 74
     0
 75
     0
 76
     0
 77
     1
 78
     8
170
     0
171
     2
172
     1
173
     0
174
     0
175
     0
176
   256
177
   256
178
     2
  0
DIMSTYLE
  2
AM_ISO$SF
 70
     0
  3

  4
"
  5

  6

  7

 40
1.0
 41
3.5
 42
1.0
 43
10.0
 44
1.0
 45
0.0
 46
0.0
 47
0.1
 48
0.1
140
3.5
141
0.0
142
0.0
143
0.0393701
144
1.0
145
0.0
146
0.71
147
1.5
 71
     0
 72
     0
 73
     0
 74
     0
 75
     1
 76
     1
 77
     1
 78
     8
170
     0
171
     2
172
     1
173
     0
174
     0
175
     0
176
   256
177
   256
178
     2
  0
DIMSTYLE
  2
AM_ISO$SH
 70
     0
  3

  4
"
  5

  6
GENAXEH
  7

 40
1.0
 41
3.5
 42
1.0
 43
10.0
 44
1.0
 45
0.0
 46
0.0
 47
0.1
 48
0.1
140
3.5
141
0.0
142
0.0
143
0.0393701
144
2.0
145
0.0
146
0.71
147
1.5
 71
     0
 72
     0
 73
     0
 74
     0
 75
     1
 76
     1
 77
     1
 78
     8
170
     0
171
     2
172
     1
173
     1
174
     0
175
     0
176
   256
177
   256
178
     2
  0
DIMSTYLE
  2
SANKYO$0
 70
     0
  3

  4
"
  5
DOTSMALL
  6

  7

 40
1.0
 41
7.0
 42
1.0
 43
7.0
 44
3.0
 45
0.0
 46
0.0
 47
0.1
 48
0.1
140
7.0
141
0.0
142
0.0
143
0.0393701
144
1.0
145
0.0
146
0.71
147
1.3
 71
     0
 72
     0
 73
     0
 74
     0
 75
     0
 76
     0
 77
     1
 78
     8
170
     0
171
     2
172
     1
173
     0
174
     0
175
     0
176
   256
177
   256
178
   256
  0
DIMSTYLE
  2
AM_ANSI
 70
     0
  3

  4
mm
  5

  6

  7

 40
1.0
 41
0.12
 42
0.05
 43
0.5
 44
0.1
 45
0.0
 46
0.0
 47
0.1
 48
0.1
140
0.12
141
0.0
142
0.0
143
25.399999999999999
144
1.0
145
0.0
146
0.71
147
0.06
 71
     0
 72
     0
 73
     1
 74
     1
 75
     0
 76
     0
 77
     0
 78
     7
170
     0
171
     2
172
     0
173
     0
174
     0
175
     0
176
   256
177
   256
178
     2
  0
DIMSTYLE
  2
AM_ANSI$3
 70
     0
  3

  4
mm
  5

  6

  7

 40
1.0
 41
0.12
 42
0.05
 43
0.5
 44
0.1
 45
0.0
 46
0.0
 47
0.1
 48
0.1
140
0.12
141
0.0
142
0.0
143
25.399999999999999
144
1.0
145
0.0
146
0.71
147
0.06
 71
     0
 72
     0
 73
     1
 74
     1
 75
     0
 76
     0
 77
     0
 78
     7
170
     0
171
     2
172
     0
173
     0
174
     0
175
     0
176
   256
177
   256
178
     2
  0
DIMSTYLE
  2
AM_ANSI$4
 70
     0
  3

  4
mm
  5

  6

  7

 40
1.0
 41
0.12
 42
0.05
 43
0.5
 44
0.1
 45
0.0
 46
0.0
 47
0.1
 48
0.1
140
0.12
141
0.0
142
0.0
143
25.399999999999999
144
1.0
145
0.0
146
0.71
147
0.06
 71
     0
 72
     0
 73
     1
 74
     1
 75
     0
 76
     0
 77
     0
 78
     7
170
     0
171
     2
172
     0
173
     0
174
     0
175
     0
176
   256
177
   256
178
     2
  0
DIMSTYLE
  2
AM_ANSI$7
 70
     0
  3

  4
mm
  5

  6

  7

 40
1.0
 41
0.12
 42
0.05
 43
0.5
 44
0.1
 45
0.0
 46
0.0
 47
0.1
 48
0.1
140
0.12
141
0.0
142
0.0
143
25.399999999999999
144
1.0
145
0.0
146
0.71
147
0.06
 71
     0
 72
     0
 73
     1
 74
     1
 75
     0
 76
     0
 77
     0
 78
     7
170
     0
171
     2
172
     0
173
     0
174
     0
175
     0
176
   256
177
   256
178
     2
  0
DIMSTYLE
  2
AM_ANSI$SF
 70
     0
  3

  4
mm
  5

  6

  7

 40
1.0
 41
0.12
 42
0.05
 43
0.5
 44
0.1
 45
0.0
 46
0.0
 47
0.1
 48
0.1
140
0.12
141
0.0
142
0.0
143
25.399999999999999
144
1.0
145
0.0
146
0.71
147
0.06
 71
     0
 72
     0
 73
     1
 74
     1
 75
     1
 76
     1
 77
     0
 78
     7
170
     0
171
     2
172
     0
173
     0
174
     0
175
     0
176
   256
177
   256
178
     2
  0
DIMSTYLE
  2
AM_ANSI$SH
 70
     0
  3

  4
mm
  5

  6
GENAXEH
  7

 40
1.0
 41
0.12
 42
0.05
 43
0.5
 44
0.1
 45
0.0
 46
0.0
 47
0.1
 48
0.1
140
0.12
141
0.0
142
0.0
143
25.399999999999999
144
1.0
145
0.0
146
0.71
147
0.06
 71
     0
 72
     0
 73
     1
 74
     1
 75
     1
 76
     1
 77
     0
 78
     7
170
     0
171
     2
172
     0
173
     1
174
     0
175
     0
176
   256
177
   256
178
     2
  0
ENDTAB
  0
ENDSEC
  0
SECTION
  2
BLOCKS
  0
BLOCK
  8
0
  2
$MODEL_SPACE
 70
     0
 10
0.0
 20
0.0
 30
0.0
  3
$MODEL_SPACE
  1

  0
ENDBLK
  5
1A
  8
0
  0
BLOCK
 67
     1
  8
0
  2
$PAPER_SPACE
 70
     0
 10
0.0
 20
0.0
 30
0.0
  3
$PAPER_SPACE
  1

  0
ENDBLK
  5
17
 67
     1
  8
0
  0
BLOCK
  8
0
  2
_OPEN
 70
     0
 10
0.0
 20
0.0
 30
0.0
  3
_OPEN
  1

  0
LINE
  5
30B
  8
0
  6
BYBLOCK
 62
     0
 10
-1.0
 20
0.1666666666666666
 30
0.0
 11
0.0
 21
0.0
 31
0.0
  0
LINE
  5
30C
  8
0
  6
BYBLOCK
 62
     0
 10
-1.0
 20
-0.1666666666666666
 30
0.0
 11
0.0
 21
0.0
 31
0.0
  0
LINE
  5
30D
  8
0
  6
BYBLOCK
 62
     0
 10
0.0
 20
0.0
 30
0.0
 11
-1.0
 21
0.0
 31
0.0
  0
ENDBLK
  5
30F
  8
0
  0
BLOCK
  8
0
  2
_DOTSMALL
 70
     0
 10
0.0
 20
0.0
 30
0.0
  3
_DOTSMALL
  1

  0
POLYLINE
  5
A331
  8
0
  6
BYBLOCK
 62
     0
 66
     1
 10
0.0
 20
0.0
 30
0.0
 70
     1
 40
0.5
 41
0.5
  0
VERTEX
  5
24CD7
  8
0
  6
BYBLOCK
 62
     0
 10
-0.0625
 20
0.0
 30
0.0
 42
1.0
  0
VERTEX
  5
24CD8
  8
0
  6
BYBLOCK
 62
     0
 10
0.0625
 20
0.0
 30
0.0
 42
1.0
  0
SEQEND
  5
24CD9
  8
0
  6
BYBLOCK
 62
     0
  0
ENDBLK
  5
A333
  8
0
  0
BLOCK
  8
0
  2
GENAXEH
 70
     0
 10
0.0
 20
0.0
 30
0.0
  3
GENAXEH
  1

  0
LINE
  5
18179
  8
0
 10
-1.0
 20
0.0
 30
0.0
 11
1.0
 21
0.0
 31
0.0
  0
ENDBLK
  5
1817B
  8
0
  0
ENDSEC
  0
SECTION
  2
ENTITIES
  0
LINE
  5
9B1A
  8
WK
 10
23.5
 20
16.25
 30
0.0
 11
1165.5
 21
16.25
 31
0.0
  0
LINE
  5
9B1C
  8
WK
 10
23.5
 20
824.75
 30
0.0
 11
23.5
 21
16.25
 31
0.0
  0
TEXT
  5
9BE2
  8
WK
 10
22.5
 20
16.25
 30
0.0
 40
3.2000000000000002
  1
A0
 50
90.0
 41
0.8299999999999999
  0
LINE
  5
9C31
  8
WK
 10
1085.5
 20
34.25
 30
0.0
 11
1085.5
 21
16.25
 31
0.0
  0
LINE
  5
9C32
  8
WK
 10
890.49999999999989
 20
34.25
 30
0.0
 11
890.49999999999989
 21
16.25
 31
0.0
  0
LINE
  5
9C34
  8
WK
 10
1045.5
 20
34.25
 30
0.0
 11
1045.5
 21
16.25
 31
0.0
  0
LINE
  5
9C35
  8
WK
 10
1065.5
 20
34.25
 30
0.0
 11
1065.5
 21
16.25
 31
0.0
  0
LINE
  5
9C37
  8
WK
 10
1005.5
 20
34.25
 30
0.0
 11
1005.5
 21
16.25
 31
0.0
  0
LINE
  5
9C38
  8
WK
 10
985.5
 20
34.25
 30
0.0
 11
985.5
 21
16.25
 31
0.0
  0
LINE
  5
9C3A
  8
WK
 10
890.49999999999989
 20
34.25
 30
0.0
 11
1165.5
 21
34.25
 31
0.0
  0
LINE
  5
9C3B
  8
WK
 10
899.5
 20
26.25
 30
0.0
 11
972.49999999999989
 21
26.25
 31
0.0
  0
LINE
  5
9C3E
  8
WK
 10
1005.5
 20
22.25
 30
0.0
 11
1045.5
 21
22.25
 31
0.0
  0
LINE
  5
9C3F
  8
WK
 10
1005.5
 20
28.25
 30
0.0
 11
1045.5
 21
28.25
 31
0.0
  0
LINE
  5
9C46
  8
WK
 10
1151.8094750193111
 20
25.25
 30
0.0
 11
1163.8094750193111
 21
25.25
 31
0.0
  0
CIRCLE
  5
9C47
  8
WK
 10
1157.8094750193111
 20
25.25
 30
0.0
 40
6.0
  0
TEXT
  5
9C56
  8
WK
 10
992.52780952380954
 20
20.649999643948512
 30
0.0
 40
3.2000000000000002
  1
1:1
 41
0.8299999999999999
 72
     4
 11
995.5
 21
22.249999643948509
 31
0.0
  0
TEXT
  5
9C57
  8
WK
 10
1087.8031333333331
 20
30.150000000000009
 30
0.0
 40
3.2000000000000002
  1
図番
 41
0.8299999999999999
  0
TEXT
  5
9C58
  8
WK
 10
1067.9290000000001
 20
30.150000000000009
 30
0.0
 40
3.2000000000000002
  1
検図
 41
0.8299999999999999
  0
TEXT
  5
9C59
  8
WK
 10
1047.9290000000001
 20
30.150000000000009
 30
0.0
 40
3.2000000000000002
  1
作図
 41
0.8299999999999999
  0
TEXT
  5
9C5A
  8
WK
 10
1006.5535725057121
 20
29.149999999999999
 30
0.0
 40
3.2000000000000002
  1
作成
 41
0.8299999999999999
  0
TEXT
  5
9C5B
  8
WK
 10
1006.5535725057121
 20
23.149999999999999
 30
0.0
 40
3.2000000000000002
  1
制定
 41
0.8299999999999999
  0
TEXT
  5
9C5C
  8
WK
 10
1006.5535725057121
 20
17.149999999999999
 30
0.0
 40
3.2000000000000002
  1
廃止
 41
0.8299999999999999
  0
TEXT
  5
9C5D
  8
WK
 10
986.42899999999997
 20
30.149999999999999
 30
0.0
 40
3.2000000000000002
  1
尺度
 41
0.8299999999999999
  0
TEXT
  5
9C5E
  8
WK
 10
973.49999999999989
 20
18.25
 30
0.0
 40
4.0
  1
基準図
 41
0.8
  0
TEXT
  5
9C77
  8
WK
 10
892.30313333333345
 20
30.150000000000009
 30
0.0
 40
3.2000000000000002
  1
図名
 41
0.8299999999999999
  0
LINE
  5
9E0D
  8
WK
 10
23.5
 20
824.75
 30
0.0
 11
1165.5
 21
824.75
 31
0.0
  0
LINE
  5
9E18
  8
WK
 10
1165.5
 20
824.75
 30
0.0
 11
1165.5
 21
16.25
 31
0.0
  0
TEXT
  5
12887
  8
WK
 10
1130.0726417273511
 20
826.75
 30
0.0
 40
4.0
  1
大栄建材株式会社
 41
0.9
 72
     2
 11
1163.672641727351
 21
826.75
 31
0.0
  0
TEXT
  5
13021
  8
MJ
 10
1005.587466534463
 20
42.25
 30
0.0
 40
7.0
  1
cl11a010
 41
0.8299999999999999
  0
TEXT
  5
13022
  8
MJ
 10
1005.587466534463
 20
69.25
 30
0.0
 40
7.0
  1
クレーヴァ35　Ｙレール引戸
 41
0.8299999999999999
  0
TEXT
  5
13023
  8
MJ
 10
1005.587466534463
 20
60.25
 30
0.0
 40
7.0
  1
Ｌ型コーナー引戸　片引き戸＋2枚片引き
 41
0.8299999999999999
  0
TEXT
  5
13024
  8
MJ
 10
1005.587466534463
 20
78.25
 30
0.0
 40
7.0
  1
スーパースクリーン　クレーヴァ
 41
0.8299999999999999
  0
TEXT
  5
13025
  8
MJ
 10
1005.587466534463
 20
51.25
 30
0.0
 40
7.0
  1
たて横断面
 41
0.8299999999999999
  0
LINE
  5
189E8
  8
KI1
 10
527.02228933397271
 20
363.47466605125129
 30
0.0
 11
560.02228055229057
 21
363.47466605125129
 31
0.0
  0
LINE
  5
189F8
  8
KI1
 10
527.02228933397271
 20
363.47466605125129
 30
0.0
 11
527.02228933397271
 21
113.47466526787851
 31
0.0
  0
LINE
  5
189F9
  8
KI1
 10
560.02228933397271
 20
363.47466605125129
 30
0.0
 11
560.02228933397271
 21
113.47466526787851
 31
0.0
  0
LINE
  5
189FB
  8
OS
 10
528.27228176736605
 20
400.47466526678357
 30
0.0
 11
418.02234631681478
 21
400.47466526678357
 31
0.0
  0
LINE
  5
189FC
  8
OS
 10
528.27228176736605
 20
409.97466526678352
 30
0.0
 11
418.02234631681478
 21
409.97466526678352
 31
0.0
  0
LINE
  5
189FD
  8
OS
 10
580.52228176736605
 20
484.97466526678352
 30
0.0
 11
580.52228176736605
 21
409.97466526678352
 31
0.0
  0
LINE
  5
189FE
  8
OS
 10
475.52228176736611
 20
484.97466526678352
 30
0.0
 11
475.52228176736611
 21
409.97466526678352
 31
0.0
  0
LINE
  5
189FF
  8
OS
 10
638.02234631681483
 20
407.97466526678352
 30
0.0
 11
558.77228176736605
 21
407.97466526678352
 31
0.0
  0
LINE
  5
18A00
  8
OS
 10
528.27228176736605
 20
407.97466526678352
 30
0.0
 11
418.02234631681478
 21
407.97466526678352
 31
0.0
  0
LINE
  5
18A01
  8
OS
 10
638.02234631681483
 20
402.47466526678352
 30
0.0
 11
558.77228176736605
 21
402.47466526678352
 31
0.0
  0
LINE
  5
18A02
  8
OS
 10
528.27228176736605
 20
402.47466526678352
 30
0.0
 11
418.02234631681478
 21
402.47466526678352
 31
0.0
  0
LINE
  5
18A03
  8
OS
 10
430.52239752376391
 20
454.97466526678357
 30
0.0
 11
430.52239752376391
 21
409.97466526678352
 31
0.0
  0
LINE
  5
18A04
  8
OS
 10
430.52239752376391
 20
454.97466526678357
 30
0.0
 11
475.52228176736611
 21
454.97466526678357
 31
0.0
  0
LINE
  5
18A05
  8
OS
 10
430.52239752376391
 20
409.97466526678352
 30
0.0
 11
475.52228176736611
 21
454.97466526678357
 31
0.0
  0
LINE
  5
18A06
  8
OS
 10
625.5206805246188
 20
454.97714099882648
 30
0.0
 11
625.52182318224686
 21
409.97714101333389
 31
0.0
  0
LINE
  5
18A07
  8
OS
 10
625.5206805246188
 20
454.97714099882648
 30
0.0
 11
580.52079629552418
 21
454.97599834413779
 31
0.0
  0
LINE
  5
18A08
  8
OS
 10
580.52228176736605
 20
409.97466526678352
 30
0.0
 11
625.5206805246188
 21
454.97714099882648
 31
0.0
  0
LINE
  5
18A09
  8
OS
 10
638.02234631681483
 20
400.47466526678369
 30
0.0
 11
558.77228176736605
 21
400.47466526678357
 31
0.0
  0
LINE
  5
18A0A
  8
OS
 10
638.02234631681483
 20
409.97466526678352
 30
0.0
 11
558.77228176736605
 21
409.97466526678352
 31
0.0
  0
LINE
  5
18A0C
  8
KI1
 10
528.27228176736605
 20
400.47466526678357
 30
0.0
 11
558.77228176736605
 21
409.97466526678352
 31
0.0
  0
LINE
  5
18A0D
  8
OS
 10
463.02228176736611
 20
400.47466526678357
 30
0.0
 11
463.02228176736611
 21
164.47466526787849
 31
0.0
  0
LINE
  5
18A0E
  8
OS
 10
518.02228176736605
 20
400.47466526678357
 30
0.0
 11
518.02228176736583
 21
164.47466526787849
 31
0.0
  0
LINE
  5
18A0F
  8
OS
 10
593.02228176736605
 20
400.47466526678357
 30
0.0
 11
593.02228176736605
 21
164.47466526787849
 31
0.0
  0
LINE
  5
18A11
  8
OS
 10
599.02228176736605
 20
164.47466526787849
 30
0.0
 11
560.02228933397248
 21
164.47466526787849
 31
0.0
  0
LINE
  5
18A12
  8
TS
 10
593.02228176736605
 20
164.47466526787849
 30
0.0
 11
593.02228176736605
 21
104.47466526787851
 31
0.0
  0
LINE
  5
18A13
  8
OS
 10
599.02228176736605
 20
164.47466526787849
 30
0.0
 11
599.02228176736605
 21
104.47466526787851
 31
0.0
  0
LINE
  5
18A15
  8
OS
 10
527.02228933397271
 20
164.47466526787849
 30
0.0
 11
457.022281767366
 21
164.47466526787849
 31
0.0
  0
LINE
  5
18A16
  8
TS
 10
518.02228176736605
 20
164.47466526787849
 30
0.0
 11
518.02228176736605
 21
104.47466526787851
 31
0.0
  0
LINE
  5
18A17
  8
OS
 10
524.02228176736605
 20
164.47466526787849
 30
0.0
 11
524.02228176736605
 21
104.47466526787851
 31
0.0
  0
LINE
  5
18A19
  8
OS
 10
457.022281767366
 20
164.47466526787849
 30
0.0
 11
457.022281767366
 21
104.47466526787851
 31
0.0
  0
TEXT
  5
18A1B
  8
SU
 10
426.06337929817101
 20
162.85211122930519
 30
0.0
 40
7.9999999999999956
  1
巾木
 41
0.9
  0
LINE
  5
18A1C
  8
OS
 10
550.52200294536522
 20
484.97466526678352
 30
0.0
 11
475.52228176736611
 21
409.97466526678352
 31
0.0
  0
LINE
  5
18A35
  8
KI1
 10
157.35879133627881
 20
363.47466605125129
 30
0.0
 11
190.35878255459701
 21
363.47466605125129
 31
0.0
  0
LINE
  5
18A4C
  8
KI1
 10
157.35879133627881
 20
363.47466605125129
 30
0.0
 11
157.35879133627881
 21
113.47466526787829
 31
0.0
  0
LINE
  5
18A4D
  8
KI1
 10
190.35879133627881
 20
363.47466605125129
 30
0.0
 11
190.35879133627881
 21
113.47466526787829
 31
0.0
  0
LINE
  5
18A60
  8
KI1
 10
193.35879133627881
 20
363.47466605125129
 30
0.0
 11
226.35878255459701
 21
363.47466605125129
 31
0.0
  0
LINE
  5
18A6C
  8
KI1
 10
193.35879133627881
 20
363.47466605125129
 30
0.0
 11
193.35879133627881
 21
113.47466526787829
 31
0.0
  0
LINE
  5
18A6D
  8
KI1
 10
226.35879133627881
 20
363.47466605125129
 30
0.0
 11
226.35879133627881
 21
113.47466526787839
 31
0.0
  0
LINE
  5
18A9A
  8
OS
 10
158.60872678683
 20
400.47466486470472
 30
0.0
 11
48.358855885727621
 21
400.47466486470472
 31
0.0
  0
LINE
  5
18A9B
  8
OS
 10
158.60872678683
 20
409.97466486470461
 30
0.0
 11
48.358855885727621
 21
409.97466486470461
 31
0.0
  0
LINE
  5
18A9C
  8
OS
 10
239.35878694543811
 20
484.97466486470461
 30
0.0
 11
239.35878694543811
 21
409.97466486470461
 31
0.0
  0
LINE
  5
18A9D
  8
OS
 10
134.358786945438
 20
484.97466486470461
 30
0.0
 11
134.358786945438
 21
409.97466486470461
 31
0.0
  0
LINE
  5
18A9E
  8
OS
 10
292.35885588572762
 20
407.97466486470461
 30
0.0
 11
225.10872678682961
 21
407.97466486470461
 31
0.0
  0
LINE
  5
18A9F
  8
OS
 10
158.60872678683
 20
407.97466486470461
 30
0.0
 11
48.358855885727621
 21
407.97466486470461
 31
0.0
  0
LINE
  5
18AA0
  8
OS
 10
292.35885588572762
 20
402.47466486470472
 30
0.0
 11
225.10872678682961
 21
402.47466486470472
 31
0.0
  0
LINE
  5
18AA1
  8
OS
 10
158.60872678683
 20
402.47466486470472
 30
0.0
 11
48.358855885727621
 21
402.47466486470472
 31
0.0
  0
LINE
  5
18AA2
  8
OS
 10
89.358902701836428
 20
454.97466486470472
 30
0.0
 11
89.358902701836428
 21
409.97466486470461
 31
0.0
  0
LINE
  5
18AA3
  8
OS
 10
89.358902701836428
 20
454.97466486470472
 30
0.0
 11
134.358786945438
 21
454.97466486470472
 31
0.0
  0
LINE
  5
18AA4
  8
OS
 10
89.358902701836428
 20
409.97466486470461
 30
0.0
 11
134.358786945438
 21
454.97466486470472
 31
0.0
  0
LINE
  5
18AA5
  8
OS
 10
284.3571857026912
 20
454.97714059674757
 30
0.0
 11
284.35832836031921
 21
409.97714061125498
 31
0.0
  0
LINE
  5
18AA6
  8
OS
 10
284.3571857026912
 20
454.97714059674757
 30
0.0
 11
239.35730147359649
 21
454.97599794205888
 31
0.0
  0
LINE
  5
18AA7
  8
OS
 10
239.35878694543811
 20
409.97466486470461
 30
0.0
 11
284.3571857026912
 21
454.97714059674757
 31
0.0
  0
LINE
  5
18AA8
  8
OS
 10
292.35885588572762
 20
400.47466486470472
 30
0.0
 11
225.10872678682961
 21
400.47466486470472
 31
0.0
  0
LINE
  5
18AA9
  8
OS
 10
292.35885588572762
 20
409.97466486470461
 30
0.0
 11
225.10872678682961
 21
409.97466486470461
 31
0.0
  0
LINE
  5
18AAB
  8
OS
 10
158.60872678683
 20
400.47466486470472
 30
0.0
 11
225.10872678682961
 21
409.97466486470461
 31
0.0
  0
LINE
  5
18AAE
  8
OS
 10
93.358791336278841
 20
400.47466486470472
 30
0.0
 11
93.358791336278841
 21
164.47466526787849
 31
0.0
  0
LINE
  5
18AAF
  8
OS
 10
148.35879133627881
 20
400.47466486470472
 30
0.0
 11
148.35879133627881
 21
164.47466526787849
 31
0.0
  0
LINE
  5
18AB0
  8
OS
 10
157.35879133627881
 20
164.47466526787849
 30
0.0
 11
87.358791336279296
 21
164.47466526787849
 31
0.0
  0
LINE
  5
18AB1
  8
TS
 10
148.35879133627881
 20
164.47466526787849
 30
0.0
 11
148.35879133627881
 21
104.47466526787851
 31
0.0
  0
LINE
  5
18AB2
  8
OS
 10
154.3587913362793
 20
164.47466526787849
 30
0.0
 11
154.35879133627881
 21
104.47466526787851
 31
0.0
  0
LINE
  5
18AB3
  8
TS
 10
93.358791336278841
 20
164.47466526787849
 30
0.0
 11
93.358791336278841
 21
104.47466526787851
 31
0.0
  0
LINE
  5
18AB4
  8
OS
 10
87.358791336278841
 20
164.47466526787849
 30
0.0
 11
87.358791336278841
 21
104.47466526787851
 31
0.0
  0
TEXT
  5
18AB6
  8
SU
 10
56.399888867084307
 20
162.85211122930519
 30
0.0
 40
7.9999999999999956
  1
巾木
 41
0.9
  0
LINE
  5
18AB7
  8
OS
 10
253.35879133627881
 20
164.47466526787849
 30
0.0
 11
226.35879133627881
 21
164.47466526787849
 31
0.0
  0
LINE
  5
18AB8
  8
TS
 10
247.35879133627881
 20
164.47466526787849
 30
0.0
 11
247.35879133627881
 21
104.47466526787851
 31
0.0
  0
LINE
  5
18AB9
  8
OS
 10
253.35879133627881
 20
164.47466526787849
 30
0.0
 11
253.35879133627881
 21
104.47466526787851
 31
0.0
  0
LINE
  5
18ABD
  8
OS
 10
209.35850812343719
 20
484.97466486470461
 30
0.0
 11
134.358786945438
 21
409.97466486470461
 31
0.0
  0
LINE
  5
18AC4
  8
OS
 10
193.35879133627881
 20
164.47466526787849
 30
0.0
 11
190.35879133627881
 21
164.47466526787849
 31
0.0
  0
LINE
  5
195E8
  8
KI2
 10
205.85878255475549
 20
381.17466605125122
 30
0.0
 11
213.85878255475549
 21
381.17466605125122
 31
0.0
  0
LINE
  5
195E9
  8
KI2
 10
203.95878255475549
 20
377.36466605125122
 30
0.0
 11
215.7587825547555
 21
377.36466605125122
 31
0.0
  0
LINE
  5
195EA
  8
KI2
 10
203.95878255475549
 20
379.36466605125122
 30
0.0
 11
215.7587825547555
 21
379.36466605125122
 31
0.0
  0
LINE
  5
195EB
  8
KI2
 10
205.85878255475549
 20
381.17466605125122
 30
0.0
 11
205.85878255475549
 21
379.36466605125122
 31
0.0
  0
LINE
  5
195EC
  8
KI2
 10
203.95878255475549
 20
379.36466605125122
 30
0.0
 11
203.95878255475549
 21
377.36466605125122
 31
0.0
  0
LINE
  5
195ED
  8
KI2
 10
212.85878255475549
 20
377.36466605125122
 30
0.0
 11
212.85878255475549
 21
363.47466605125129
 31
0.0
  0
LINE
  5
195EE
  8
KI2
 10
206.85878255475549
 20
377.36466605125122
 30
0.0
 11
206.85878255475549
 21
363.47466605125129
 31
0.0
  0
LINE
  5
195EF
  8
KI2
 10
206.85878255475549
 20
374.85466605125117
 30
0.0
 11
212.85878255475549
 21
374.85466605125117
 31
0.0
  0
LINE
  5
195F0
  8
KI2
 10
208.13878255475549
 20
389.5746660512512
 30
0.0
 11
211.57878255475549
 21
389.5746660512512
 31
0.0
  0
LINE
  5
195F1
  8
KI2
 10
212.07878255475549
 20
389.07466605125109
 30
0.0
 11
207.63878255475549
 21
389.07466605125109
 31
0.0
  0
LINE
  5
195F2
  8
KI2
 10
207.63878255475549
 20
389.07466605125109
 30
0.0
 11
207.63878255475549
 21
381.17466605125122
 31
0.0
  0
LINE
  5
195F3
  8
KI2
 10
208.13878255475549
 20
389.5746660512512
 30
0.0
 11
207.63878255475549
 21
389.07466605125109
 31
0.0
  0
LINE
  5
195F4
  8
KI2
 10
212.07878255475549
 20
389.07466605125109
 30
0.0
 11
212.07878255475549
 21
381.17466605125122
 31
0.0
  0
LINE
  5
195F5
  8
KI2
 10
212.07878255475549
 20
389.07466605125109
 30
0.0
 11
211.57878255475549
 21
389.5746660512512
 31
0.0
  0
LINE
  5
195F6
  8
KI2
 10
213.85878255475549
 20
381.17466605125122
 30
0.0
 11
213.85878255475549
 21
379.36466605125122
 31
0.0
  0
LINE
  5
195F7
  8
KI2
 10
215.7587825547555
 20
379.36466605125122
 30
0.0
 11
215.7587825547555
 21
377.36466605125122
 31
0.0
  0
LINE
  5
195F8
  8
KI2
 10
169.85878255475549
 20
381.17466605125122
 30
0.0
 11
177.85878255475549
 21
381.17466605125122
 31
0.0
  0
LINE
  5
195F9
  8
KI2
 10
167.95878255475549
 20
377.36466605125122
 30
0.0
 11
179.7587825547555
 21
377.36466605125122
 31
0.0
  0
LINE
  5
195FA
  8
KI2
 10
167.95878255475549
 20
379.36466605125122
 30
0.0
 11
179.7587825547555
 21
379.36466605125122
 31
0.0
  0
LINE
  5
195FB
  8
KI2
 10
169.85878255475549
 20
381.17466605125122
 30
0.0
 11
169.85878255475549
 21
379.36466605125122
 31
0.0
  0
LINE
  5
195FC
  8
KI2
 10
167.95878255475549
 20
379.36466605125122
 30
0.0
 11
167.95878255475549
 21
377.36466605125122
 31
0.0
  0
LINE
  5
195FD
  8
KI2
 10
176.85878255475549
 20
377.36466605125122
 30
0.0
 11
176.85878255475549
 21
363.47466605125129
 31
0.0
  0
LINE
  5
195FE
  8
KI2
 10
170.85878255475549
 20
377.36466605125122
 30
0.0
 11
170.85878255475549
 21
363.47466605125129
 31
0.0
  0
LINE
  5
195FF
  8
KI2
 10
170.85878255475549
 20
374.85466605125117
 30
0.0
 11
176.85878255475549
 21
374.85466605125117
 31
0.0
  0
LINE
  5
19600
  8
KI2
 10
172.13878255475549
 20
389.5746660512512
 30
0.0
 11
175.57878255475549
 21
389.5746660512512
 31
0.0
  0
LINE
  5
19601
  8
KI2
 10
176.07878255475549
 20
389.07466605125109
 30
0.0
 11
171.63878255475549
 21
389.07466605125109
 31
0.0
  0
LINE
  5
19602
  8
KI2
 10
171.63878255475549
 20
389.07466605125109
 30
0.0
 11
171.63878255475549
 21
381.17466605125122
 31
0.0
  0
LINE
  5
19603
  8
KI2
 10
172.13878255475549
 20
389.5746660512512
 30
0.0
 11
171.63878255475549
 21
389.07466605125109
 31
0.0
  0
LINE
  5
19604
  8
KI2
 10
176.07878255475549
 20
389.07466605125109
 30
0.0
 11
176.07878255475549
 21
381.17466605125122
 31
0.0
  0
LINE
  5
19605
  8
KI2
 10
176.07878255475549
 20
389.07466605125109
 30
0.0
 11
175.57878255475549
 21
389.5746660512512
 31
0.0
  0
LINE
  5
19606
  8
KI2
 10
177.85878255475549
 20
381.17466605125122
 30
0.0
 11
177.85878255475549
 21
379.36466605125122
 31
0.0
  0
LINE
  5
19607
  8
KI2
 10
179.7587825547555
 20
379.36466605125122
 30
0.0
 11
179.7587825547555
 21
377.36466605125122
 31
0.0
  0
LINE
  5
19608
  8
KI2
 10
539.52228055244927
 20
381.17466605125122
 30
0.0
 11
547.52228055244927
 21
381.17466605125122
 31
0.0
  0
LINE
  5
19609
  8
KI2
 10
537.62228055244941
 20
377.36466605125122
 30
0.0
 11
549.42228055244925
 21
377.36466605125122
 31
0.0
  0
LINE
  5
1960A
  8
KI2
 10
537.62228055244941
 20
379.36466605125122
 30
0.0
 11
549.42228055244925
 21
379.36466605125122
 31
0.0
  0
LINE
  5
1960B
  8
KI2
 10
539.52228055244927
 20
381.17466605125122
 30
0.0
 11
539.52228055244927
 21
379.36466605125122
 31
0.0
  0
LINE
  5
1960C
  8
KI2
 10
537.62228055244941
 20
379.36466605125122
 30
0.0
 11
537.62228055244941
 21
377.36466605125122
 31
0.0
  0
LINE
  5
1960D
  8
KI2
 10
546.52228055244939
 20
377.36466605125122
 30
0.0
 11
546.52228055244939
 21
363.47466605125129
 31
0.0
  0
LINE
  5
1960E
  8
KI2
 10
540.52228055244939
 20
377.36466605125122
 30
0.0
 11
540.52228055244939
 21
363.47466605125129
 31
0.0
  0
LINE
  5
1960F
  8
KI2
 10
540.52228055244939
 20
374.85466605125117
 30
0.0
 11
546.52228055244939
 21
374.85466605125117
 31
0.0
  0
LINE
  5
19610
  8
KI2
 10
541.80228055244925
 20
389.5746660512512
 30
0.0
 11
545.24228055244942
 21
389.5746660512512
 31
0.0
  0
LINE
  5
19611
  8
KI2
 10
545.74228055244942
 20
389.07466605125109
 30
0.0
 11
541.30228055244925
 21
389.07466605125109
 31
0.0
  0
LINE
  5
19612
  8
KI2
 10
541.30228055244925
 20
389.07466605125109
 30
0.0
 11
541.30228055244925
 21
381.17466605125122
 31
0.0
  0
LINE
  5
19613
  8
KI2
 10
541.80228055244925
 20
389.5746660512512
 30
0.0
 11
541.30228055244925
 21
389.07466605125109
 31
0.0
  0
LINE
  5
19614
  8
KI2
 10
545.74228055244942
 20
389.07466605125109
 30
0.0
 11
545.74228055244942
 21
381.17466605125122
 31
0.0
  0
LINE
  5
19615
  8
KI2
 10
545.74228055244942
 20
389.07466605125109
 30
0.0
 11
545.24228055244942
 21
389.5746660512512
 31
0.0
  0
LINE
  5
19616
  8
KI2
 10
547.52228055244927
 20
381.17466605125122
 30
0.0
 11
547.52228055244927
 21
379.36466605125122
 31
0.0
  0
LINE
  5
19617
  8
KI2
 10
549.42228055244925
 20
379.36466605125122
 30
0.0
 11
549.42228055244925
 21
377.36466605125122
 31
0.0
  0
LINE
  5
19618
  8
KI1
 10
529.27228176736583
 20
398.77466526678359
 30
0.0
 11
538.02228176736583
 21
398.77466526678359
 31
0.0
  0
LINE
  5
19619
  8
KI1
 10
536.72228176736576
 20
372.97466526678357
 30
0.0
 11
531.42228176736592
 21
372.97466526678357
 31
0.0
  0
LINE
  5
1961A
  8
KI1
 10
535.57228176736578
 20
374.12466526678361
 30
0.0
 11
532.07228176736589
 21
374.12466526678361
 31
0.0
  0
LINE
  5
1961B
  8
KI1
 10
529.9222817673658
 20
397.6246652667835
 30
0.0
 11
557.12228176736585
 21
397.6246652667835
 31
0.0
  0
ARC
  5
1961C
  8
KI1
 10
528.77228176736583
 20
399.97466526678357
 30
0.0
 40
0.5
 50
0.0
 51
180.0
  0
ARC
  5
1961D
  8
KI1
 10
528.84728176736587
 20
374.70466526678359
 30
0.0
 40
0.575000000000003
 50
180.0
 51
0.0
  0
LINE
  5
1961E
  8
KI1
 10
528.27228176736583
 20
374.70466526678359
 30
0.0
 11
528.27228176736583
 21
399.97466526678357
 31
0.0
  0
ARC
  5
1961F
  8
KI1
 10
531.57228176736578
 20
377.1246652667835
 30
0.0
 40
0.5
 50
0.0
 51
90.0
  0
LINE
  5
19620
  8
KI1
 10
529.27228176736583
 20
399.97466526678357
 30
0.0
 11
529.27228176736583
 21
398.77466526678359
 31
0.0
  0
LINE
  5
19621
  8
KI1
 10
531.57228176736578
 20
377.62466526678361
 30
0.0
 11
529.4222817673658
 21
377.62466526678361
 31
0.0
  0
LINE
  5
19622
  8
KI1
 10
529.4222817673658
 20
376.47466526678357
 30
0.0
 11
530.92228176736592
 21
376.47466526678357
 31
0.0
  0
LINE
  5
19623
  8
KI1
 10
529.4222817673658
 20
377.62466526678361
 30
0.0
 11
529.4222817673658
 21
397.12466526678361
 31
0.0
  0
LINE
  5
19624
  8
KI1
 10
529.4222817673658
 20
374.70466526678359
 30
0.0
 11
529.4222817673658
 21
376.47466526678357
 31
0.0
  0
ARC
  5
19625
  8
KI1
 10
529.9222817673658
 20
397.12466526678361
 30
0.0
 40
0.4999999999999999
 50
90.0
 51
180.0
  0
ARC
  5
19626
  8
KI1
 10
531.42228176736592
 20
373.47466526678357
 30
0.0
 40
0.5
 50
180.0
 51
270.0
  0
LINE
  5
19627
  8
KI1
 10
530.92228176736592
 20
373.47466526678357
 30
0.0
 11
530.92228176736592
 21
376.47466526678357
 31
0.0
  0
LINE
  5
19628
  8
KI1
 10
532.07228176736589
 20
377.1246652667835
 30
0.0
 11
532.07228176736589
 21
374.12466526678361
 31
0.0
  0
LINE
  5
19629
  8
KI1
 10
563.87228176736585
 20
373.97466526678357
 30
0.0
 11
558.77228176736571
 21
373.97466526678357
 31
0.0
  0
LINE
  5
1962A
  8
KI1
 10
563.07228176736589
 20
372.97466526678357
 30
0.0
 11
550.32228176736578
 21
372.97466526678357
 31
0.0
  0
LINE
  5
1962B
  8
KI1
 10
548.07228176736578
 20
373.97466526678352
 30
0.0
 11
550.02228176736583
 21
373.97466526678352
 31
0.0
  0
LINE
  5
1962C
  8
KI1
 10
548.07354590671468
 20
381.42466526678351
 30
0.0
 11
550.02228176736583
 21
381.42466526678351
 31
0.0
  0
ARC
  5
1962D
  8
KI1
 10
548.27354590671473
 20
380.77466526678342
 30
0.0
 40
0.5
 50
180.0
 51
270.0
  0
LINE
  5
1962E
  8
KI1
 10
548.07228176736578
 20
376.67466526678339
 30
0.0
 11
548.27228176736583
 21
376.67466526678339
 31
0.0
  0
ARC
  5
1962F
  8
KI1
 10
548.52228176736571
 20
399.97466526678357
 30
0.0
 40
0.5
 50
0.0
 51
180.0
  0
LINE
  5
19630
  8
KI1
 10
539.02228176736583
 20
398.77466526678359
 30
0.0
 11
548.02228176736583
 21
398.77466526678359
 31
0.0
  0
LINE
  5
19631
  8
KI1
 10
538.77354590671473
 20
380.27466526678342
 30
0.0
 11
537.22228176736576
 21
380.27466526678342
 31
0.0
  0
LINE
  5
19632
  8
KI1
 10
538.97228176736576
 20
373.97466526678352
 30
0.0
 11
537.02228176736583
 21
373.97466526678352
 31
0.0
  0
LINE
  5
19633
  8
KI1
 10
538.97354590671466
 20
381.42466526678351
 30
0.0
 11
537.02228176736583
 21
381.42466526678351
 31
0.0
  0
LINE
  5
19634
  8
KI1
 10
538.12228176736585
 20
375.67466526678351
 30
0.0
 11
538.77228176736583
 21
376.67466526678339
 31
0.0
  0
ARC
  5
19635
  8
KI1
 10
538.52228176736583
 20
399.97466526678357
 30
0.0
 40
0.5
 50
0.0
 51
180.0
  0
LINE
  5
19636
  8
KI1
 10
538.02228176736583
 20
399.97466526678357
 30
0.0
 11
538.02228176736583
 21
398.77466526678359
 31
0.0
  0
ARC
  5
19637
  8
KI1
 10
536.44728176736578
 20
382.14966526678359
 30
0.0
 40
0.5749999999999959
 50
0.0
 51
180.0
  0
ARC
  5
19638
  8
KI1
 10
536.72228176736576
 20
373.27466526678359
 30
0.0
 40
0.3
 50
270.0
 51
0.0
  0
LINE
  5
19639
  8
KI1
 10
535.87228176736585
 20
374.42466526678362
 30
0.0
 11
535.87228176736585
 21
382.14966526678359
 31
0.0
  0
ARC
  5
1963A
  8
KI1
 10
535.57228176736578
 20
374.42466526678362
 30
0.0
 40
0.3
 50
270.0
 51
0.0
  0
LINE
  5
1963B
  8
KI1
 10
537.22228176736576
 20
380.27466526678342
 30
0.0
 11
537.02228176736583
 21
378.77466526678342
 31
0.0
  0
LINE
  5
1963C
  8
KI1
 10
537.02228176736583
 20
375.27466526678342
 30
0.0
 11
537.02228176736583
 21
378.77466526678342
 31
0.0
  0
LINE
  5
1963D
  8
KI1
 10
538.12228176736585
 20
375.27466526678342
 30
0.0
 11
537.02228176736583
 21
375.27466526678342
 31
0.0
  0
LINE
  5
1963E
  8
KI1
 10
538.12228176736585
 20
375.67466526678351
 30
0.0
 11
538.12228176736585
 21
375.27466526678342
 31
0.0
  0
LINE
  5
1963F
  8
KI1
 10
537.02228176736583
 20
382.14966526678359
 30
0.0
 11
537.02228176736583
 21
381.42466526678351
 31
0.0
  0
LINE
  5
19640
  8
KI1
 10
537.02228176736583
 20
373.27466526678359
 30
0.0
 11
537.02228176736583
 21
373.97466526678352
 31
0.0
  0
LINE
  5
19641
  8
KI1
 10
539.02228176736583
 20
399.97466526678357
 30
0.0
 11
539.02228176736583
 21
398.77466526678359
 31
0.0
  0
ARC
  5
19642
  8
KI1
 10
538.97228176736576
 20
374.27466526678342
 30
0.0
 40
0.3
 50
270.0
 51
0.0
  0
ARC
  5
19643
  8
KI1
 10
538.97354590671466
 20
381.1246652667835
 30
0.0
 40
0.3
 50
0.0
 51
90.0
  0
LINE
  5
19644
  8
KI1
 10
539.27354590671473
 20
381.1246652667835
 30
0.0
 11
539.27354590671473
 21
380.77466526678342
 31
0.0
  0
LINE
  5
19645
  8
KI1
 10
539.27228176736583
 20
376.37466526678338
 30
0.0
 11
539.27228176736583
 21
374.27466526678342
 31
0.0
  0
ARC
  5
19646
  8
KI1
 10
538.97228176736576
 20
376.37466526678338
 30
0.0
 40
0.3
 50
0.0
 51
90.0
  0
LINE
  5
19647
  8
KI1
 10
538.97228176736576
 20
376.67466526678339
 30
0.0
 11
538.77228176736583
 21
376.67466526678339
 31
0.0
  0
ARC
  5
19648
  8
KI1
 10
538.77354590671473
 20
380.77466526678342
 30
0.0
 40
0.5
 50
270.0
 51
0.0
  0
LINE
  5
19649
  8
KI1
 10
548.02228176736583
 20
399.97466526678357
 30
0.0
 11
548.02228176736583
 21
398.77466526678359
 31
0.0
  0
ARC
  5
1964A
  8
KI1
 10
548.07228176736578
 20
374.27466526678342
 30
0.0
 40
0.3
 50
180.0
 51
270.0
  0
ARC
  5
1964B
  8
KI1
 10
548.07354590671468
 20
381.1246652667835
 30
0.0
 40
0.3
 50
90.0
 51
180.0
  0
LINE
  5
1964C
  8
KI1
 10
547.77354590671462
 20
381.1246652667835
 30
0.0
 11
547.77354590671462
 21
380.77466526678342
 31
0.0
  0
LINE
  5
1964D
  8
KI1
 10
547.77228176736583
 20
376.37466526678338
 30
0.0
 11
547.77228176736583
 21
374.27466526678342
 31
0.0
  0
ARC
  5
1964E
  8
KI1
 10
548.07228176736578
 20
376.37466526678338
 30
0.0
 40
0.3
 50
90.0
 51
180.0
  0
LINE
  5
1964F
  8
KI1
 10
551.47228176736576
 20
374.12466526678361
 30
0.0
 11
557.62228176736585
 21
374.12466526678361
 31
0.0
  0
LINE
  5
19650
  8
KI1
 10
557.77228176736583
 20
398.77466526678359
 30
0.0
 11
549.02228176736583
 21
398.77466526678359
 31
0.0
  0
ARC
  5
19651
  8
KI1
 10
551.47228176736576
 20
374.42466526678362
 30
0.0
 40
0.3
 50
180.0
 51
270.0
  0
LINE
  5
19652
  8
KI1
 10
549.02228176736583
 20
399.97466526678357
 30
0.0
 11
549.02228176736583
 21
398.77466526678359
 31
0.0
  0
LINE
  5
19653
  8
KI1
 10
548.27354590671473
 20
380.27466526678342
 30
0.0
 11
549.82228176736578
 21
380.27466526678342
 31
0.0
  0
LINE
  5
19654
  8
KI1
 10
548.92228176736592
 20
375.27466526678342
 30
0.0
 11
550.02228176736583
 21
375.27466526678342
 31
0.0
  0
LINE
  5
19655
  8
KI1
 10
548.92228176736592
 20
375.67466526678351
 30
0.0
 11
548.92228176736592
 21
375.27466526678342
 31
0.0
  0
LINE
  5
19656
  8
KI1
 10
548.92228176736592
 20
375.67466526678351
 30
0.0
 11
548.27228176736583
 21
376.67466526678339
 31
0.0
  0
LINE
  5
19657
  8
KI1
 10
549.82228176736578
 20
380.27466526678342
 30
0.0
 11
550.02228176736583
 21
378.77466526678342
 31
0.0
  0
LINE
  5
19658
  8
KI1
 10
550.02228176736583
 20
375.27466526678342
 30
0.0
 11
550.02228176736583
 21
378.77466526678342
 31
0.0
  0
LINE
  5
19659
  8
KI1
 10
551.17228176736592
 20
374.42466526678362
 30
0.0
 11
551.17228176736592
 21
382.14966526678359
 31
0.0
  0
LINE
  5
1965A
  8
KI1
 10
550.02228176736583
 20
382.14966526678359
 30
0.0
 11
550.02228176736583
 21
381.42466526678351
 31
0.0
  0
ARC
  5
1965B
  8
KI1
 10
550.59728176736576
 20
382.14966526678359
 30
0.0
 40
0.5749999999999959
 50
0.0
 51
180.0
  0
LINE
  5
1965C
  8
KI1
 10
550.02228176736583
 20
373.27466526678359
 30
0.0
 11
550.02228176736583
 21
373.97466526678352
 31
0.0
  0
ARC
  5
1965D
  8
KI1
 10
550.32228176736578
 20
373.27466526678359
 30
0.0
 40
0.3
 50
180.0
 51
270.0
  0
ARC
  5
1965E
  8
KI1
 10
558.27228176736583
 20
399.97466526678357
 30
0.0
 40
0.5
 50
0.0
 51
180.0
  0
LINE
  5
1965F
  8
KI1
 10
557.77228176736583
 20
399.97466526678357
 30
0.0
 11
557.77228176736583
 21
398.77466526678359
 31
0.0
  0
LINE
  5
19660
  8
KI1
 10
557.62228176736585
 20
374.12466526678361
 30
0.0
 11
557.62228176736585
 21
397.12466526678361
 31
0.0
  0
ARC
  5
19661
  8
KI1
 10
557.12228176736585
 20
397.12466526678361
 30
0.0
 40
0.4999999999999999
 50
0.0
 51
90.0
  0
LINE
  5
19662
  8
KI1
 10
558.77228176736571
 20
373.97466526678357
 30
0.0
 11
558.77228176736571
 21
399.97466526678357
 31
0.0
  0
ARC
  5
19663
  8
KI1
 10
563.87228176736585
 20
373.47466526678357
 30
0.0
 40
0.5
 50
0.0
 51
90.0
  0
LINE
  5
19664
  8
KI1
 10
564.37228176736585
 20
373.47466526678357
 30
0.0
 11
564.37228176736585
 21
360.47466526678357
 31
0.0
  0
ARC
  5
19665
  8
KI1
 10
563.07228176736589
 20
372.67466526678362
 30
0.0
 40
0.3
 50
0.0
 51
90.0
  0
LINE
  5
19666
  8
KI1
 10
563.37228176736585
 20
372.67466526678362
 30
0.0
 11
563.37228176736585
 21
360.47466526678357
 31
0.0
  0
ARC
  5
19667
  8
KI1
 10
563.87228176736585
 20
360.47466526678357
 30
0.0
 40
0.5
 50
180.0
 51
0.0
  0
LINE
  5
1966A
  8
KI1
 10
201.9087273546007
 20
374.12466429251538
 30
0.0
 11
195.75872735460069
 21
374.1246640207807
 31
0.0
  0
LINE
  5
1966B
  8
KI1
 10
203.0587274054129
 20
372.9746643433275
 30
0.0
 11
186.6787274054129
 21
372.97466361958539
 31
0.0
  0
LINE
  5
1966C
  8
KI1
 10
195.60872626545259
 20
398.77466401415302
 30
0.0
 11
204.3587262654527
 21
398.77466440076739
 31
0.0
  0
LINE
  5
1966D
  8
KI1
 10
196.2587263162649
 20
397.62466404287289
 30
0.0
 11
223.4587263162648
 21
397.6246652446913
 31
0.0
  0
LINE
  5
1966E
  8
KI1
 10
194.6087273546006
 20
374.12466396996848
 30
0.0
 11
187.87872735460061
 21
374.1246636726068
 31
0.0
  0
ARC
  5
1966F
  8
KI1
 10
187.2787272993701
 20
375.37466364609611
 30
0.0
 40
0.5999999999999996
 50
0.0000025315855514
 51
180.00000253158549
  0
LINE
  5
19670
  8
KI1
 10
186.67872729937011
 20
375.37466361958542
 30
0.0
 11
186.6787274054129
 21
372.97466361958539
 31
0.0
  0
LINE
  5
19671
  8
KI1
 10
187.87872729937001
 20
375.3746636726068
 30
0.0
 11
187.87872735460061
 21
374.1246636726068
 31
0.0
  0
ARC
  5
19672
  8
KI1
 10
195.10872621243121
 20
399.97466399206081
 30
0.0
 40
0.5
 50
0.0000025315855514
 51
180.00000253158549
  0
LINE
  5
19673
  8
KI1
 10
194.6087273546006
 20
374.12466396996848
 30
0.0
 11
194.60872621243121
 21
399.9746639699685
 31
0.0
  0
LINE
  5
19674
  8
KI1
 10
195.60872621243121
 20
399.97466401415301
 30
0.0
 11
195.60872626545259
 21
398.77466401415302
 31
0.0
  0
LINE
  5
19675
  8
KI1
 10
195.75872735460069
 20
374.1246640207807
 30
0.0
 11
195.75872633835721
 21
397.1246640207807
 31
0.0
  0
ARC
  5
19676
  8
KI1
 10
196.25872633835721
 20
397.12466404287289
 30
0.0
 40
0.4999999999999999
 50
90.000002531585565
 51
180.00000253158549
  0
LINE
  5
19677
  8
KI1
 10
229.40872740541289
 20
372.97466550758929
 30
0.0
 11
216.65872740541289
 21
372.97466494423679
 31
0.0
  0
LINE
  5
19678
  8
KI1
 10
230.20872736122831
 20
373.9746655429368
 30
0.0
 11
225.10872736122829
 21
373.97466531759579
 31
0.0
  0
LINE
  5
19679
  8
KI1
 10
214.40872736122839
 20
373.97466484482158
 30
0.0
 11
216.35872736122829
 21
373.97466493098142
 31
0.0
  0
LINE
  5
1967A
  8
KI1
 10
214.40999117140279
 20
381.42466484487738
 30
0.0
 11
216.35872703205379
 21
381.42466493098141
 31
0.0
  0
ARC
  5
1967B
  8
KI1
 10
214.60999120012261
 20
380.77466485371428
 30
0.0
 40
0.5
 50
180.00000253158549
 51
270.00000253158549
  0
LINE
  5
1967C
  8
KI1
 10
214.40872724193019
 20
376.67466484482151
 30
0.0
 11
214.60872724193021
 21
376.67466485365838
 31
0.0
  0
ARC
  5
1967D
  8
KI1
 10
214.85872621243121
 20
399.97466486470472
 30
0.0
 40
0.5
 50
0.0000025315855514
 51
180.00000253158549
  0
LINE
  5
1967E
  8
KI1
 10
205.10999122221489
 20
380.2746644339615
 30
0.0
 11
203.558727082866
 21
380.27466436541971
 31
0.0
  0
LINE
  5
1967F
  8
KI1
 10
205.30872736122839
 20
373.97466444274261
 30
0.0
 11
203.35872736122829
 21
373.97466435658282
 31
0.0
  0
LINE
  5
19680
  8
KI1
 10
205.30999117140269
 20
381.42466444279842
 30
0.0
 11
203.35872703205379
 21
381.42466435658281
 31
0.0
  0
LINE
  5
19681
  8
KI1
 10
204.45872728611471
 20
375.67466440518581
 30
0.0
 11
205.10872724193021
 21
376.6746644339056
 31
0.0
  0
ARC
  5
19682
  8
KI1
 10
204.85872621243129
 20
399.97466442285958
 30
0.0
 40
0.5
 50
0.0000025315855514
 51
180.00000253158549
  0
LINE
  5
19683
  8
KI1
 10
204.35872621243121
 20
399.97466440076738
 30
0.0
 11
204.3587262654527
 21
398.77466440076739
 31
0.0
  0
ARC
  5
19684
  8
KI1
 10
202.78372700002009
 20
382.14966433117678
 30
0.0
 40
0.5749999999999959
 50
0.0000025315855514
 51
180.00000253158549
  0
ARC
  5
19685
  8
KI1
 10
203.05872739215749
 20
373.27466434332757
 30
0.0
 40
0.2999999999999999
 50
270.00000253158549
 51
0.0000025315855514
  0
LINE
  5
19686
  8
KI1
 10
202.20872734134539
 20
374.4246643057707
 30
0.0
 11
202.20872700001999
 21
382.14966430577073
 31
0.0
  0
ARC
  5
19687
  8
KI1
 10
201.90872734134541
 20
374.42466429251539
 30
0.0
 40
0.2999999999999999
 50
270.00000253158549
 51
0.0000025315855514
  0
LINE
  5
19688
  8
KI1
 10
203.558727082866
 20
380.27466436541971
 30
0.0
 11
203.35872714914271
 21
378.77466435658278
 31
0.0
  0
LINE
  5
19689
  8
KI1
 10
203.3587273037885
 20
375.27466435658278
 30
0.0
 11
203.35872714914271
 21
378.77466435658278
 31
0.0
  0
LINE
  5
1968A
  8
KI1
 10
204.45872730378849
 20
375.27466440518572
 30
0.0
 11
203.3587273037885
 21
375.27466435658278
 31
0.0
  0
LINE
  5
1968B
  8
KI1
 10
204.45872730378849
 20
375.27466440518572
 30
0.0
 11
204.45872728611471
 21
375.67466440518581
 31
0.0
  0
LINE
  5
1968C
  8
KI1
 10
203.35872700002
 20
382.149664356583
 30
0.0
 11
203.35872703205379
 21
381.42466435658281
 31
0.0
  0
LINE
  5
1968D
  8
KI1
 10
203.3587273921575
 20
373.274664356583
 30
0.0
 11
203.35872736122829
 21
373.97466435658282
 31
0.0
  0
LINE
  5
1968E
  8
KI1
 10
205.35872621243129
 20
399.97466444495188
 30
0.0
 11
205.3587262654527
 21
398.7746644449519
 31
0.0
  0
ARC
  5
1968F
  8
KI1
 10
205.30872734797299
 20
374.27466444274251
 30
0.0
 40
0.2999999999999999
 50
270.00000253158549
 51
0.0000025315855514
  0
ARC
  5
19690
  8
KI1
 10
205.30999118465809
 20
381.12466444279841
 30
0.0
 40
0.2999999999999999
 50
0.0000025315855514
 51
90.000002531585565
  0
LINE
  5
19691
  8
KI1
 10
205.6099911846581
 20
381.12466445605378
 30
0.0
 11
205.60999120012261
 21
380.77466445605381
 31
0.0
  0
LINE
  5
19692
  8
KI1
 10
205.6087272551855
 20
376.3746644559979
 30
0.0
 11
205.608727347973
 21
374.27466445599788
 31
0.0
  0
ARC
  5
19693
  8
KI1
 10
205.3087272551856
 20
376.37466444274258
 30
0.0
 40
0.2999999999999999
 50
0.0000025315855514
 51
90.000002531585565
  0
LINE
  5
19694
  8
KI1
 10
205.3087272419302
 20
376.6746644427426
 30
0.0
 11
205.10872724193021
 21
376.6746644339056
 31
0.0
  0
ARC
  5
19695
  8
KI1
 10
205.10999120012261
 20
380.7746644339615
 30
0.0
 40
0.5
 50
270.00000253158549
 51
0.0000025315855514
  0
LINE
  5
19696
  8
KI1
 10
214.3587262654527
 20
398.77466484261242
 30
0.0
 11
205.3587262654527
 21
398.7746644449519
 31
0.0
  0
LINE
  5
19697
  8
KI1
 10
214.35872621243129
 20
399.97466484261241
 30
0.0
 11
214.3587262654527
 21
398.77466484261242
 31
0.0
  0
ARC
  5
19698
  8
KI1
 10
214.40872734797301
 20
374.27466484482147
 30
0.0
 40
0.2999999999999999
 50
180.00000253158549
 51
270.00000253158549
  0
ARC
  5
19699
  8
KI1
 10
214.40999118465811
 20
381.12466484487737
 30
0.0
 40
0.2999999999999999
 50
90.000002531585565
 51
180.00000253158549
  0
LINE
  5
1969A
  8
KI1
 10
214.10999118465801
 20
381.12466483162211
 30
0.0
 11
214.10999120012261
 21
380.77466483162209
 31
0.0
  0
LINE
  5
1969B
  8
KI1
 10
214.1087272551855
 20
376.37466483156618
 30
0.0
 11
214.108727347973
 21
374.2746648315661
 31
0.0
  0
ARC
  5
1969C
  8
KI1
 10
214.4087272551856
 20
376.3746648448215
 30
0.0
 40
0.2999999999999999
 50
90.000002531585565
 51
180.00000253158549
  0
LINE
  5
1969D
  8
KI1
 10
217.80872735460071
 20
374.12466499504899
 30
0.0
 11
223.9587273546006
 21
374.12466526678361
 31
0.0
  0
LINE
  5
1969E
  8
KI1
 10
224.10872626545259
 20
398.77466527341142
 30
0.0
 11
215.35872626545259
 21
398.77466488679693
 31
0.0
  0
ARC
  5
1969F
  8
KI1
 10
217.8087273413453
 20
374.42466499504911
 30
0.0
 40
0.2999999999999999
 50
180.00000253158549
 51
270.00000253158549
  0
LINE
  5
196A0
  8
KI1
 10
215.35872621243121
 20
399.97466488679692
 30
0.0
 11
215.35872626545259
 21
398.77466488679693
 31
0.0
  0
LINE
  5
196A1
  8
KI1
 10
214.6099912222148
 20
380.27466485371428
 30
0.0
 11
216.15872708286599
 21
380.27466492214438
 31
0.0
  0
LINE
  5
196A2
  8
KI1
 10
215.25872730378859
 20
375.27466488237837
 30
0.0
 11
216.3587273037885
 21
375.27466493098132
 31
0.0
  0
LINE
  5
196A3
  8
KI1
 10
215.25872730378859
 20
375.27466488237837
 30
0.0
 11
215.25872728611481
 21
375.67466488237841
 31
0.0
  0
LINE
  5
196A4
  8
KI1
 10
215.25872728611481
 20
375.67466488237841
 30
0.0
 11
214.60872724193021
 21
376.67466485365838
 31
0.0
  0
LINE
  5
196A5
  8
KI1
 10
216.15872708286599
 20
380.27466492214438
 30
0.0
 11
216.35872714914271
 21
378.77466493098132
 31
0.0
  0
LINE
  5
196A6
  8
KI1
 10
216.3587273037885
 20
375.27466493098132
 30
0.0
 11
216.35872714914271
 21
378.77466493098132
 31
0.0
  0
LINE
  5
196A7
  8
KI1
 10
217.50872734134541
 20
374.42466498179368
 30
0.0
 11
217.50872700002009
 21
382.14966498179371
 31
0.0
  0
LINE
  5
196A8
  8
KI1
 10
216.35872700002
 20
382.14966493098149
 30
0.0
 11
216.35872703205379
 21
381.42466493098141
 31
0.0
  0
ARC
  5
196A9
  8
KI1
 10
216.9337270000201
 20
382.14966495638748
 30
0.0
 40
0.5749999999999959
 50
0.0000025315855514
 51
180.00000253158549
  0
LINE
  5
196AA
  8
KI1
 10
216.3587273921575
 20
373.27466493098149
 30
0.0
 11
216.35872736122829
 21
373.97466493098142
 31
0.0
  0
ARC
  5
196AB
  8
KI1
 10
216.65872739215749
 20
373.2746649442368
 30
0.0
 40
0.2999999999999999
 50
180.00000253158549
 51
270.00000253158549
  0
ARC
  5
196AC
  8
KI1
 10
224.60872621243121
 20
399.9746652955036
 30
0.0
 40
0.5
 50
0.0000025315855514
 51
180.00000253158549
  0
LINE
  5
196AD
  8
KI1
 10
224.10872621243121
 20
399.97466527341129
 30
0.0
 11
224.10872626545259
 21
398.77466527341142
 31
0.0
  0
LINE
  5
196AE
  8
KI1
 10
223.9587273546006
 20
374.12466526678361
 30
0.0
 11
223.95872633835711
 21
397.12466526678361
 31
0.0
  0
ARC
  5
196AF
  8
KI1
 10
223.45872633835711
 20
397.12466524469141
 30
0.0
 40
0.4999999999999999
 50
0.0000025315855514
 51
90.000002531585565
  0
LINE
  5
196B0
  8
KI1
 10
225.10872736122829
 20
373.97466531759579
 30
0.0
 11
225.10872621243121
 21
399.97466531759591
 31
0.0
  0
ARC
  5
196B1
  8
KI1
 10
230.20872738332059
 20
373.4746655429368
 30
0.0
 40
0.5
 50
0.0000025315855514
 51
90.000002531585565
  0
ARC
  5
196B2
  8
KI1
 10
229.40872741866821
 20
372.67466550758928
 30
0.0
 40
0.2999999999999999
 50
0.0000025315855514
 51
90.000002531585565
  0
LINE
  5
196B3
  8
KI1
 10
229.70872741866819
 20
372.6746655208446
 30
0.0
 11
229.70872795771911
 21
360.47466552084461
 31
0.0
  0
LINE
  5
196B4
  8
KI1
 10
230.70872738332059
 20
373.47466556502911
 30
0.0
 11
230.70872795771911
 21
360.47466556502911
 31
0.0
  0
ARC
  5
196B5
  8
KI1
 10
230.20872795771911
 20
360.47466554293692
 30
0.0
 40
0.5
 50
180.00000253158549
 51
0.0000025315855514
  0
LINE
  5
196B6
  8
KI1
 10
188.10872626545279
 20
398.77466368276941
 30
0.0
 11
179.35872626545279
 21
398.77466329615493
 31
0.0
  0
LINE
  5
196B7
  8
KI1
 10
180.65872740541289
 20
372.97466335359479
 30
0.0
 11
185.9587274054129
 21
372.97466358777268
 31
0.0
  0
LINE
  5
196B8
  8
KI1
 10
181.80872735460071
 20
374.12466340440699
 30
0.0
 11
185.30872735460071
 21
374.12466355905281
 31
0.0
  0
LINE
  5
196B9
  8
KI1
 10
187.4587263162648
 20
397.62466365404941
 30
0.0
 11
160.2587263162649
 21
397.62466245223089
 31
0.0
  0
ARC
  5
196BA
  8
KI1
 10
188.60872621243141
 20
399.9746637048616
 30
0.0
 40
0.5
 50
0.0000025315855514
 51
180.00000253158549
  0
ARC
  5
196BB
  8
KI1
 10
188.5337273289737
 20
374.70466370154782
 30
0.0
 40
0.575000000000003
 50
180.00000253158549
 51
0.0000025315855514
  0
LINE
  5
196BC
  8
KI1
 10
189.10872732897371
 20
374.70466372695392
 30
0.0
 11
189.10872621243129
 21
399.97466372695379
 31
0.0
  0
ARC
  5
196BD
  8
KI1
 10
185.8087272220472
 20
377.12466358114489
 30
0.0
 40
0.5
 50
90.000002531585565
 51
180.00000253158549
  0
LINE
  5
196BE
  8
KI1
 10
188.10872621243141
 20
399.9746636827694
 30
0.0
 11
188.10872626545279
 21
398.77466368276941
 31
0.0
  0
LINE
  5
196BF
  8
KI1
 10
185.808727199955
 20
377.624663581145
 30
0.0
 11
187.95872719995489
 21
377.62466367614172
 31
0.0
  0
LINE
  5
196C0
  8
KI1
 10
187.95872725076711
 20
376.47466367614169
 30
0.0
 11
186.45872725076711
 21
376.47466360986488
 31
0.0
  0
LINE
  5
196C1
  8
KI1
 10
187.95872719995489
 20
377.62466367614172
 30
0.0
 11
187.95872633835711
 21
397.12466367614161
 31
0.0
  0
LINE
  5
196C2
  8
KI1
 10
187.95872732897359
 20
374.70466367614171
 30
0.0
 11
187.95872725076711
 21
376.47466367614169
 31
0.0
  0
ARC
  5
196C3
  8
KI1
 10
187.45872633835711
 20
397.1246636540493
 30
0.0
 40
0.4999999999999999
 50
0.0000025315855514
 51
90.000002531585565
  0
ARC
  5
196C4
  8
KI1
 10
185.95872738332059
 20
373.47466358777268
 30
0.0
 40
0.5
 50
270.00000253158549
 51
0.0000025315855514
  0
LINE
  5
196C5
  8
KI1
 10
186.45872738332059
 20
373.47466360986488
 30
0.0
 11
186.45872725076711
 21
376.47466360986488
 31
0.0
  0
LINE
  5
196C6
  8
KI1
 10
185.3087272220472
 20
377.12466355905269
 30
0.0
 11
185.30872735460071
 21
374.12466355905281
 31
0.0
  0
LINE
  5
196C7
  8
KI1
 10
153.50872736122841
 20
373.97466215398549
 30
0.0
 11
158.60872736122849
 21
373.9746623793265
 31
0.0
  0
LINE
  5
196C8
  8
KI1
 10
154.3087274054129
 20
372.97466218933312
 30
0.0
 11
167.0587274054129
 21
372.97466275268562
 31
0.0
  0
LINE
  5
196C9
  8
KI1
 10
169.30872736122839
 20
373.97466285210061
 30
0.0
 11
167.35872736122849
 21
373.97466276594082
 31
0.0
  0
LINE
  5
196CA
  8
KI1
 10
169.30746289270499
 20
381.42466285204472
 30
0.0
 11
167.35872703205391
 21
381.42466276594081
 31
0.0
  0
ARC
  5
196CB
  8
KI1
 10
169.10746292142491
 20
380.77466284320781
 30
0.0
 40
0.5
 50
270.00000253158549
 51
0.0000025315855514
  0
LINE
  5
196CC
  8
KI1
 10
169.3087272419302
 20
376.67466285210048
 30
0.0
 11
169.1087272419303
 21
376.6746628432636
 31
0.0
  0
ARC
  5
196CD
  8
KI1
 10
168.85872621243141
 20
399.97466283221758
 30
0.0
 40
0.5
 50
0.0000025315855514
 51
180.00000253158549
  0
LINE
  5
196CE
  8
KI1
 10
178.35872626545279
 20
398.77466325197042
 30
0.0
 11
169.35872626545279
 21
398.7746628543099
 31
0.0
  0
LINE
  5
196CF
  8
KI1
 10
178.60746294351719
 20
380.27466326296059
 30
0.0
 11
180.15872708286599
 21
380.27466333150238
 31
0.0
  0
LINE
  5
196D0
  8
KI1
 10
178.40872736122839
 20
373.97466325417957
 30
0.0
 11
180.3587273612284
 21
373.9746633403393
 31
0.0
  0
LINE
  5
196D1
  8
KI1
 10
178.40746289270501
 20
381.42466325412369
 30
0.0
 11
180.35872703205391
 21
381.42466334033929
 31
0.0
  0
LINE
  5
196D2
  8
KI1
 10
179.25872728611481
 20
375.67466329173629
 30
0.0
 11
178.6087272419303
 21
376.67466326301638
 31
0.0
  0
ARC
  5
196D3
  8
KI1
 10
178.85872621243129
 20
399.97466327406272
 30
0.0
 40
0.5
 50
0.0000025315855514
 51
180.00000253158549
  0
LINE
  5
196D4
  8
KI1
 10
179.35872621243141
 20
399.97466329615492
 30
0.0
 11
179.35872626545279
 21
398.77466329615493
 31
0.0
  0
ARC
  5
196D5
  8
KI1
 10
180.9337270000201
 20
382.1496633657456
 30
0.0
 40
0.5749999999999959
 50
0.0000025315855514
 51
180.00000253158549
  0
ARC
  5
196D6
  8
KI1
 10
180.65872739215749
 20
373.2746633535948
 30
0.0
 40
0.3
 50
180.00000253158549
 51
270.00000253158549
  0
LINE
  5
196D7
  8
KI1
 10
181.50872734134541
 20
374.42466339115168
 30
0.0
 11
181.50872700002009
 21
382.14966339115159
 31
0.0
  0
ARC
  5
196D8
  8
KI1
 10
181.80872734134539
 20
374.424663404407
 30
0.0
 40
0.3
 50
180.00000253158549
 51
270.00000253158549
  0
LINE
  5
196D9
  8
KI1
 10
180.15872708286599
 20
380.27466333150238
 30
0.0
 11
180.35872714914279
 21
378.77466334033932
 31
0.0
  0
LINE
  5
196DA
  8
KI1
 10
180.35872730378861
 20
375.27466334033932
 30
0.0
 11
180.35872714914279
 21
378.77466334033932
 31
0.0
  0
LINE
  5
196DB
  8
KI1
 10
179.25872730378859
 20
375.27466329173632
 30
0.0
 11
180.35872730378861
 21
375.27466334033932
 31
0.0
  0
LINE
  5
196DC
  8
KI1
 10
179.25872728611481
 20
375.67466329173629
 30
0.0
 11
179.25872730378859
 21
375.27466329173632
 31
0.0
  0
LINE
  5
196DD
  8
KI1
 10
180.3587270000202
 20
382.14966334033937
 30
0.0
 11
180.35872703205391
 21
381.42466334033929
 31
0.0
  0
LINE
  5
196DE
  8
KI1
 10
180.35872739215759
 20
373.27466334033949
 30
0.0
 11
180.3587273612284
 21
373.9746633403393
 31
0.0
  0
LINE
  5
196DF
  8
KI1
 10
178.35872621243141
 20
399.97466325197041
 30
0.0
 11
178.35872626545279
 21
398.77466325197042
 31
0.0
  0
ARC
  5
196E0
  8
KI1
 10
178.4087273479731
 20
374.27466325417947
 30
0.0
 40
0.3
 50
180.00000253158549
 51
270.00000253158549
  0
ARC
  5
196E1
  8
KI1
 10
178.4074629059603
 20
381.12466325412367
 30
0.0
 40
0.3
 50
90.000002531585565
 51
180.00000253158549
  0
LINE
  5
196E2
  8
KI1
 10
178.10746290596029
 20
381.1246632408683
 30
0.0
 11
178.10746292142491
 21
380.77466324086828
 31
0.0
  0
LINE
  5
196E3
  8
KI1
 10
178.10872725518561
 20
376.37466324092418
 30
0.0
 11
178.10872734797309
 21
374.27466324092421
 31
0.0
  0
ARC
  5
196E4
  8
KI1
 10
178.4087272551856
 20
376.37466325417961
 30
0.0
 40
0.3
 50
90.000002531585565
 51
180.00000253158549
  0
LINE
  5
196E5
  8
KI1
 10
178.40872724193031
 20
376.67466325417951
 30
0.0
 11
178.6087272419303
 21
376.67466326301638
 31
0.0
  0
ARC
  5
196E6
  8
KI1
 10
178.60746292142491
 20
380.77466326296047
 30
0.0
 40
0.5
 50
180.00000253158549
 51
270.00000253158549
  0
LINE
  5
196E7
  8
KI1
 10
169.35872621243141
 20
399.97466285430988
 30
0.0
 11
169.35872626545279
 21
398.7746628543099
 31
0.0
  0
ARC
  5
196E8
  8
KI1
 10
169.3087273479731
 20
374.27466285210051
 30
0.0
 40
0.3
 50
270.00000253158549
 51
0.0000025315855514
  0
ARC
  5
196E9
  8
KI1
 10
169.30746290596031
 20
381.12466285204471
 30
0.0
 40
0.3
 50
0.0000025315855514
 51
90.000002531585565
  0
LINE
  5
196EA
  8
KI1
 10
169.60746290596029
 20
381.12466286530002
 30
0.0
 11
169.60746292142491
 21
380.7746628653
 31
0.0
  0
LINE
  5
196EB
  8
KI1
 10
169.60872725518561
 20
376.3746628653559
 30
0.0
 11
169.60872734797309
 21
374.27466286535588
 31
0.0
  0
ARC
  5
196EC
  8
KI1
 10
169.3087272551856
 20
376.37466285210053
 30
0.0
 40
0.3
 50
0.0000025315855514
 51
90.000002531585565
  0
LINE
  5
196ED
  8
KI1
 10
165.9087273546007
 20
374.12466270187338
 30
0.0
 11
159.75872735460081
 21
374.12466243013859
 31
0.0
  0
LINE
  5
196EE
  8
KI1
 10
159.60872626545279
 20
398.77466242351102
 30
0.0
 11
168.35872626545279
 21
398.77466281012539
 31
0.0
  0
ARC
  5
196EF
  8
KI1
 10
165.90872734134541
 20
374.4246627018735
 30
0.0
 40
0.3
 50
270.00000253158549
 51
0.0000025315855514
  0
LINE
  5
196F0
  8
KI1
 10
168.35872621243141
 20
399.97466281012538
 30
0.0
 11
168.35872626545279
 21
398.77466281012539
 31
0.0
  0
LINE
  5
196F1
  8
KI1
 10
169.10746294351719
 20
380.27466284320769
 30
0.0
 11
167.558727082866
 21
380.2746627747776
 31
0.0
  0
LINE
  5
196F2
  8
KI1
 10
168.45872730378849
 20
375.27466281454372
 30
0.0
 11
167.35872730378861
 21
375.27466276594077
 31
0.0
  0
LINE
  5
196F3
  8
KI1
 10
168.45872728611471
 20
375.67466281454381
 30
0.0
 11
168.45872730378849
 21
375.27466281454372
 31
0.0
  0
LINE
  5
196F4
  8
KI1
 10
168.45872728611471
 20
375.67466281454381
 30
0.0
 11
169.1087272419303
 21
376.6746628432636
 31
0.0
  0
LINE
  5
196F5
  8
KI1
 10
167.558727082866
 20
380.2746627747776
 30
0.0
 11
167.35872714914291
 21
378.77466276594077
 31
0.0
  0
LINE
  5
196F6
  8
KI1
 10
167.35872730378861
 20
375.27466276594077
 30
0.0
 11
167.35872714914291
 21
378.77466276594077
 31
0.0
  0
LINE
  5
196F7
  8
KI1
 10
166.20872734134539
 20
374.42466271512882
 30
0.0
 11
166.20872700001999
 21
382.14966271512873
 31
0.0
  0
LINE
  5
196F8
  8
KI1
 10
167.35872700002011
 20
382.14966276594089
 30
0.0
 11
167.35872703205391
 21
381.42466276594081
 31
0.0
  0
ARC
  5
196F9
  8
KI1
 10
166.78372700002009
 20
382.14966274053478
 30
0.0
 40
0.5749999999999959
 50
0.0000025315855514
 51
180.00000253158549
  0
LINE
  5
196FA
  8
KI1
 10
167.35872739215759
 20
373.27466276594089
 30
0.0
 11
167.35872736122849
 21
373.97466276594082
 31
0.0
  0
ARC
  5
196FB
  8
KI1
 10
167.05872739215761
 20
373.27466275268557
 30
0.0
 40
0.3
 50
270.00000253158549
 51
0.0000025315855514
  0
ARC
  5
196FC
  8
KI1
 10
159.10872621243141
 20
399.9746624014187
 30
0.0
 40
0.5
 50
0.0000025315855514
 51
180.00000253158549
  0
LINE
  5
196FD
  8
KI1
 10
159.60872621243141
 20
399.97466242351101
 30
0.0
 11
159.60872626545279
 21
398.77466242351102
 31
0.0
  0
LINE
  5
196FE
  8
KI1
 10
159.75872735460081
 20
374.12466243013859
 30
0.0
 11
159.75872633835721
 21
397.12466243013859
 31
0.0
  0
ARC
  5
196FF
  8
KI1
 10
160.25872633835721
 20
397.12466245223089
 30
0.0
 40
0.4999999999999999
 50
90.000002531585565
 51
180.00000253158549
  0
LINE
  5
19700
  8
KI1
 10
158.60872736122849
 20
373.9746623793265
 30
0.0
 11
158.60872621243141
 21
399.9746623793265
 31
0.0
  0
ARC
  5
19701
  8
KI1
 10
153.50872738332069
 20
373.47466215398549
 30
0.0
 40
0.5
 50
90.000002531585565
 51
180.00000253158549
  0
LINE
  5
19702
  8
KI1
 10
153.00872738332069
 20
373.4746621318933
 30
0.0
 11
153.0087279577192
 21
360.4746621318933
 31
0.0
  0
ARC
  5
19703
  8
KI1
 10
154.3087274186683
 20
372.67466218933322
 30
0.0
 40
0.3
 50
90.000002531585565
 51
180.00000253158549
  0
LINE
  5
19704
  8
KI1
 10
154.00872741866829
 20
372.67466217607779
 30
0.0
 11
154.0087279577192
 21
360.4746621760778
 31
0.0
  0
ARC
  5
19705
  8
KI1
 10
153.5087279577192
 20
360.47466215398561
 30
0.0
 40
0.5
 50
180.00000253158549
 51
0.0000025315855514
  0
LINE
  5
1971A
  8
SU
 10
85.108791336278856
 20
143.3717795849085
 30
0.0
 11
75.25306762452999
 21
160.44239379901919
 31
0.0
210
0.0
220
0.0
230
-1.0
1001
ACAD
1000
DSTYLE
1002
{
1070
    41
1040
1.5
1070
    77
1070
     0
1070
   371
1070
    13
1002
}
  0
LINE
  5
1971B
  8
SU
 10
75.25306762452999
 20
160.44239379901919
 30
0.0
 11
53.891404938230039
 21
160.44239379901919
 31
0.0
210
0.0
220
0.0
230
-1.0
1001
ACAD
1000
DSTYLE
1002
{
1070
    41
1040
1.5
1070
    77
1070
     0
1070
   371
1070
    13
1002
}
  0
LINE
  5
1971C
  8
SU
 10
84.459272283440541
 20
142.9967795849085
 30
0.0
 11
87.358791336278841
 21
139.47466526787849
 31
0.0
210
0.0
220
0.0
230
-1.0
  0
LINE
  5
1971D
  8
SU
 10
85.758310389117199
 20
143.7467795849085
 30
0.0
 11
87.358791336278841
 21
139.47466526787849
 31
0.0
210
0.0
220
0.0
230
-1.0
  0
LINE
  5
1971E
  8
SU
 10
87.358791336278841
 20
139.47466526787849
 30
0.0
 11
85.108791336278856
 21
143.3717795849085
 31
0.0
210
0.0
220
0.0
230
-1.0
  0
LINE
  5
19721
  8
SU
 10
454.12276271452771
 20
142.9967795849085
 30
0.0
 11
457.022281767366
 21
139.47466526787849
 31
0.0
210
0.0
220
0.0
230
-1.0
  0
LINE
  5
19722
  8
SU
 10
455.42180082020428
 20
143.7467795849085
 30
0.0
 11
457.022281767366
 21
139.47466526787849
 31
0.0
210
0.0
220
0.0
230
-1.0
  0
LINE
  5
19723
  8
SU
 10
457.022281767366
 20
139.47466526787849
 30
0.0
 11
454.77228176736588
 21
143.3717795849085
 31
0.0
210
0.0
220
0.0
230
-1.0
  0
LINE
  5
19724
  8
SU
 10
454.77228176736588
 20
143.3717795849085
 30
0.0
 11
444.91655805561669
 21
160.44239379901919
 31
0.0
210
0.0
220
0.0
230
-1.0
1001
ACAD
1000
DSTYLE
1002
{
1070
    41
1040
1.5
1070
    77
1070
     0
1070
   371
1070
    13
1002
}
  0
LINE
  5
19725
  8
SU
 10
444.91655805561669
 20
160.44239379901919
 30
0.0
 11
423.55489536931668
 21
160.44239379901919
 31
0.0
210
0.0
220
0.0
230
-1.0
1001
ACAD
1000
DSTYLE
1002
{
1070
    41
1040
1.5
1070
    77
1070
     0
1070
   371
1070
    13
1002
}
  0
LINE
  5
1974B
  8
TS
 10
463.02228176736611
 20
164.4746672605994
 30
0.0
 11
463.02228176736611
 21
104.4746672605994
 31
0.0
  0
TEXT
  5
1F9B3
  8
MJ
 10
171.60480768447701
 20
55.974665267878613
 30
0.0
 40
7.0
  1
直貼りレール
 41
0.8299999999999999
 72
     4
 11
191.35880768447689
 21
59.474665267878599
 31
0.0
  0
TEXT
  5
1F9BC
  8
MJ
 10
523.26830568213643
 20
55.974665267878613
 30
0.0
 40
7.0
  1
直貼りレール
 41
0.8299999999999999
 72
     4
 11
543.02230568213645
 21
59.474665267878599
 31
0.0
  0
LINE
  5
21291
  8
OS
 10
418.02234631681478
 20
92.474665267878549
 30
0.0
 11
638.02234631681483
 21
92.474665267878549
 31
0.0
  0
LINE
  5
21292
  8
KI1
 10
432.52234631681551
 20
112.2688939019375
 30
0.0
 11
428.0223463168154
 21
104.4746652678774
 31
0.0
  0
LINE
  5
21293
  8
KI1
 10
423.5223463168154
 20
112.2688939019375
 30
0.0
 11
432.52234631681551
 21
112.2688939019375
 31
0.0
  0
LINE
  5
21294
  8
OS
 10
418.02234631681478
 20
94.474665267878535
 30
0.0
 11
638.02234631681483
 21
94.474665267878535
 31
0.0
  0
LINE
  5
21295
  8
OS
 10
418.02234631681478
 20
98.474665267878535
 30
0.0
 11
638.02234631681483
 21
98.474665267878535
 31
0.0
  0
LINE
  5
21296
  8
OS
 10
418.02234631681478
 20
102.47466526787851
 30
0.0
 11
638.02234631681483
 21
102.47466526787851
 31
0.0
  0
LINE
  5
21297
  8
KI1
 10
428.0223463168154
 20
104.4746652678774
 30
0.0
 11
423.5223463168154
 21
112.2688939019375
 31
0.0
  0
LINE
  5
21298
  8
OS
 10
418.02234631681478
 20
96.474665267878549
 30
0.0
 11
638.02234631681483
 21
96.474665267878095
 31
0.0
  0
LINE
  5
21299
  8
OS
 10
418.02234631681478
 20
100.47466526787851
 30
0.0
 11
638.02234631681483
 21
100.47466526787851
 31
0.0
  0
LINE
  5
2129A
  8
OS
 10
418.02234631681478
 20
104.47466526787851
 30
0.0
 11
638.02234631681483
 21
104.47466526787851
 31
0.0
  0
TEXT
  5
2129B
  8
OS
 10
422.39020345967259
 20
116.50096526257551
 30
0.0
 40
7.5
  1
FL
 41
0.8299999999999999
 72
     1
 11
428.0223463168154
 21
116.50096526257551
 31
0.0
 73
     1
  0
LINE
  5
21304
  8
OS
 10
48.358855885727621
 20
92.474665267878549
 30
0.0
 11
292.35885588572762
 21
92.474665267878549
 31
0.0
  0
LINE
  5
21305
  8
KI1
 10
62.858855885728303
 20
112.2688939019375
 30
0.0
 11
58.358855885728303
 21
104.4746652678774
 31
0.0
  0
LINE
  5
21306
  8
KI1
 10
53.858855885728303
 20
112.2688939019375
 30
0.0
 11
62.858855885728303
 21
112.2688939019375
 31
0.0
  0
LINE
  5
21307
  8
OS
 10
48.358855885727621
 20
94.474665267878535
 30
0.0
 11
292.35885588572762
 21
94.474665267878535
 31
0.0
  0
LINE
  5
21308
  8
OS
 10
48.358855885727621
 20
98.474665267878535
 30
0.0
 11
292.35885588572762
 21
98.474665267878535
 31
0.0
  0
LINE
  5
21309
  8
OS
 10
48.358855885727621
 20
102.47466526787851
 30
0.0
 11
292.35885588572762
 21
102.47466526787851
 31
0.0
  0
LINE
  5
2130A
  8
KI1
 10
58.358855885728303
 20
104.4746652678774
 30
0.0
 11
53.858855885728303
 21
112.2688939019375
 31
0.0
  0
LINE
  5
2130B
  8
OS
 10
48.358855885727621
 20
96.474665267878549
 30
0.0
 11
292.35885588572762
 21
96.474665267878095
 31
0.0
  0
LINE
  5
2130C
  8
OS
 10
48.358855885727621
 20
100.47466526787851
 30
0.0
 11
292.35885588572762
 21
100.47466526787851
 31
0.0
  0
LINE
  5
2130D
  8
OS
 10
48.358855885727621
 20
104.47466526787851
 30
0.0
 11
292.35885588572762
 21
104.47466526787851
 31
0.0
  0
TEXT
  5
2130E
  8
OS
 10
52.726713028585451
 20
116.50096526257551
 30
0.0
 40
7.5
  1
FL
 41
0.8299999999999999
 72
     1
 11
58.358855885728303
 21
116.50096526257551
 31
0.0
 73
     1
  0
LINE
  5
214A0
  8
OS
 10
247.35879133627881
 20
400.47466486470472
 30
0.0
 11
247.35879133627881
 21
326.47466526678272
 31
0.0
  0
LINE
  5
214A1
  8
OS
 10
247.35879133627881
 20
311.47466526678272
 30
0.0
 11
247.35879133627881
 21
164.47466526787849
 31
0.0
  0
LINE
  5
22A5C
  8
KI2
 10
169.8587913362779
 20
109.47949920848021
 30
0.0
 11
172.3587913362779
 21
107.97949920848021
 31
0.0
  0
LINE
  5
22A5D
  8
KI2
 10
169.8587913362779
 20
111.97466526787829
 30
0.0
 11
169.8587913362779
 21
109.47949920848021
 31
0.0
  0
LINE
  5
22A5E
  8
KI2
 10
174.3587913362779
 20
106.47949920848021
 30
0.0
 11
172.3587913362779
 21
106.47949920848021
 31
0.0
  0
LINE
  5
22A5F
  8
KI2
 10
176.8587913362779
 20
109.47949920848021
 30
0.0
 11
174.3587913362779
 21
107.97949920848021
 31
0.0
  0
LINE
  5
22A60
  8
KI2
 10
176.8587913362779
 20
111.97466526787829
 30
0.0
 11
176.8587913362779
 21
109.47949920848021
 31
0.0
  0
LINE
  5
22A61
  8
KI2
 10
174.3587913362779
 20
111.97466526787829
 30
0.0
 11
174.3587913362779
 21
106.47949920848021
 31
0.0
  0
LINE
  5
22A62
  8
KI2
 10
172.3587913362779
 20
111.97466526787829
 30
0.0
 11
172.3587913362779
 21
106.47949920848021
 31
0.0
  0
LINE
  5
22A63
  8
KI2
 10
158.85879133627881
 20
111.97466526787829
 30
0.0
 11
188.85879133627881
 21
111.97466526787829
 31
0.0
  0
LINE
  5
22A64
  8
KI1
 10
157.35879133627881
 20
113.47466526787829
 30
0.0
 11
190.35879133620949
 21
113.47466526787829
 31
0.0
  0
ARC
  5
22A65
  8
OS
 10
158.85879133627881
 20
113.47466526787829
 30
0.0
 40
1.5
 50
180.0
 51
270.0
  0
ARC
  5
22A66
  8
KI2
 10
188.85879133627881
 20
113.47466526787829
 30
0.0
 40
1.5
 50
270.0
 51
0.0
  0
LINE
  5
22A67
  8
KI2
 10
206.8587913362779
 20
109.47949920848021
 30
0.0
 11
209.3587913362779
 21
107.97949920848021
 31
0.0
  0
LINE
  5
22A68
  8
KI2
 10
206.8587913362779
 20
111.97466526787829
 30
0.0
 11
206.8587913362779
 21
109.47949920848021
 31
0.0
  0
LINE
  5
22A69
  8
KI2
 10
213.8587913362779
 20
109.47949920848021
 30
0.0
 11
211.3587913362779
 21
107.97949920848021
 31
0.0
  0
LINE
  5
22A6A
  8
KI2
 10
213.8587913362779
 20
111.97466526787829
 30
0.0
 11
213.8587913362779
 21
109.47949920848021
 31
0.0
  0
LINE
  5
22A6B
  8
KI2
 10
211.3587913362779
 20
111.97466526787829
 30
0.0
 11
211.3587913362779
 21
106.47949920848021
 31
0.0
  0
LINE
  5
22A6C
  8
KI2
 10
209.3587913362779
 20
111.97466526787829
 30
0.0
 11
209.3587913362779
 21
106.47949920848021
 31
0.0
  0
LINE
  5
22A6D
  8
KI2
 10
194.85879133627881
 20
111.97466526787829
 30
0.0
 11
224.8587913362789
 21
111.97466526787829
 31
0.0
  0
LINE
  5
22A6E
  8
KI1
 10
193.35879133627881
 20
113.47466526787829
 30
0.0
 11
226.35879133620949
 21
113.47466526787829
 31
0.0
  0
ARC
  5
22A6F
  8
KI2
 10
194.85879133627881
 20
113.47466526787829
 30
0.0
 40
1.5
 50
180.0
 51
270.0
  0
ARC
  5
22A70
  8
KI2
 10
224.8587913362789
 20
113.47466526787829
 30
0.0
 40
1.5
 50
270.0
 51
0.0
  0
LINE
  5
22A72
  8
KI2
 10
211.3587913362779
 20
106.47949920848021
 30
0.0
 11
209.3587913362779
 21
106.47949920848021
 31
0.0
  0
LINE
  5
22A73
  8
KI1
 10
209.60879133627759
 20
105.67466526787859
 30
0.0
 11
211.1087913362785
 21
105.67466526787859
 31
0.0
  0
LINE
  5
22A74
  8
KI1
 10
228.8587913362781
 20
104.47466526787851
 30
0.0
 11
208.90879133627831
 21
104.47466526787851
 31
0.0
  0
LINE
  5
22A75
  8
KI1
 10
160.15879133627851
 20
108.0746652678785
 30
0.0
 11
168.14457777390541
 21
108.0746652678785
 31
0.0
  0
LINE
  5
22A76
  8
KI1
 10
169.05879133627849
 20
109.2746652678784
 30
0.0
 11
158.45879133627861
 21
109.2746652678784
 31
0.0
  0
LINE
  5
22A77
  8
KI1
 10
154.85879133627819
 20
104.47466526787851
 30
0.0
 11
174.80879133627801
 21
104.47466526787851
 31
0.0
  0
LINE
  5
22A78
  8
KI1
 10
164.25879133627819
 20
105.6746652678782
 30
0.0
 11
170.408791336278
 21
105.67466526787859
 31
0.0
  0
LINE
  5
22A79
  8
KI1
 10
160.15879133627851
 20
108.0746652678785
 30
0.0
 11
160.1587913362788
 21
105.97466526787851
 31
0.0
  0
ARC
  5
22A7A
  8
KI1
 10
163.9587913362783
 20
105.6746652678782
 30
0.0
 40
0.2999999999999972
 50
179.99999999999349
 51
0.0000000000065138
  0
LINE
  5
22A7B
  8
KI1
 10
155.3587913362785
 20
105.67466526736099
 30
0.0
 11
156.63457229858739
 21
105.67466526736099
 31
0.0
  0
LINE
  5
22A7C
  8
KI1
 10
158.05879133652269
 20
105.47466526787851
 30
0.0
 11
155.1587913362782
 21
105.47466526787851
 31
0.0
  0
LINE
  5
22A7D
  8
KI1
 10
155.2267684147196
 20
106.434402699941
 30
0.0
 11
158.45879133627861
 21
109.2746652678784
 31
0.0
  0
ARC
  5
22A7E
  8
KI1
 10
155.3587913362785
 20
106.2841697202627
 30
0.0
 40
0.2
 50
131.30861401861469
 51
180.0
1001
GENIUS_GENODEF_13
1002
{
1000
HIER
1070
     0
1002
}
1002
{
1000
MANEDIT
1070
     0
1002
}
1002
{
1000
NOSEL
1070
     0
1002
}
1002
{
1000
BEHIND
1070
     0
1002
}
1002
{
1000
OTHER
1070
     0
1002
}
1002
{
1000
REACTOR
1002
}
1001
GENIUS_GENOBJ-N-FIL_13
1002
{
1000
OWNER
1000
GEN
1002
}
  0
ARC
  5
22A7F
  8
KI1
 10
155.3587913362785
 20
105.874665267361
 30
0.0
 40
0.2
 50
180.0
 51
270.0
1001
GENIUS_GENODEF_13
1002
{
1000
HIER
1070
     0
1002
}
1002
{
1000
MANEDIT
1070
     0
1002
}
1002
{
1000
NOSEL
1070
     0
1002
}
1002
{
1000
BEHIND
1070
     0
1002
}
1002
{
1000
OTHER
1070
     0
1002
}
1002
{
1000
REACTOR
1002
}
1001
GENIUS_GENOBJ-N-FIL_13
1002
{
1000
OWNER
1000
GEN
1002
}
  0
LINE
  5
22A80
  8
KI1
 10
155.15879133627851
 20
106.2841697202627
 30
0.0
 11
155.15879133627851
 21
105.874665267361
 31
0.0
  0
ARC
  5
22A81
  8
KI1
 10
155.1587913362782
 20
105.17466526787859
 30
0.0
 40
0.3
 50
90.0
 51
180.0
1001
GENIUS_GENOBJ-N-FIL_13
1002
{
1000
OWNER
1000
GEN
1002
}
1001
GENIUS_GENODEF_13
1002
{
1000
HIER
1070
     0
1002
}
1002
{
1000
MANEDIT
1070
     0
1002
}
1002
{
1000
NOSEL
1070
     0
1002
}
1002
{
1000
BEHIND
1070
     0
1002
}
1002
{
1000
OTHER
1070
     0
1002
}
1002
{
1000
REACTOR
1002
}
  0
LINE
  5
22A82
  8
KI1
 10
158.6081625526794
 20
108.0746652678785
 30
0.0
 11
159.35879133627861
 21
108.0746652678785
 31
0.0
  0
LINE
  5
22A83
  8
KI1
 10
158.75879133652279
 20
107.7746652678785
 30
0.0
 11
159.05879133627829
 21
107.7746652678785
 31
0.0
  0
LINE
  5
22A84
  8
KI1
 10
159.21969857208191
 20
106.90951984188141
 30
0.0
 11
159.5751281797987
 21
105.87701684927499
 31
0.0
  0
LINE
  5
22A85
  8
KI1
 10
159.35879133627881
 20
107.3746652678787
 30
0.0
 11
159.2241759516634
 21
107.0515883448016
 31
0.0
  0
ARC
  5
22A86
  8
KI1
 10
159.4087913362788
 20
106.97466526787851
 30
0.0
 40
0.2
 50
157.38013505196039
 51
199.0096339479297
  0
LINE
  5
22A87
  8
KI1
 10
158.05879133652269
 20
105.47466526787851
 30
0.0
 11
158.05879133652269
 21
107.0746652678784
 31
0.0
  0
LINE
  5
22A88
  8
KI1
 10
158.95879133652281
 20
107.0746652678785
 30
0.0
 11
158.95879133652281
 21
105.67466526787859
 31
0.0
  0
ARC
  5
22A89
  8
KI1
 10
159.05879133628071
 20
107.4088981897779
 30
0.0
 40
0.3
 50
284.03624347611827
 51
0.0
1001
GENIUS_GENODEF_13
1002
{
1000
HIER
1070
     0
1002
}
1002
{
1000
MANEDIT
1070
     0
1002
}
1002
{
1000
NOSEL
1070
     0
1002
}
1002
{
1000
BEHIND
1070
     0
1002
}
1002
{
1000
OTHER
1070
     0
1002
}
1002
{
1000
REACTOR
1002
}
1001
GENIUS_GENOBJ-N-FIL_13
1002
{
1000
OWNER
1000
GEN
1002
}
  0
LINE
  5
22A8A
  8
KI1
 10
159.35879133628069
 20
107.474665267891
 30
0.0
 11
159.3587913362806
 21
107.4088981897777
 31
0.0
  0
LINE
  5
22A8B
  8
KI1
 10
159.13155202383311
 20
107.1178554397447
 30
0.0
 11
158.958791336525
 21
107.0746652678914
 31
0.0
  0
LINE
  5
22A8C
  8
KI1
 10
157.558791336523
 20
106.4868577553886
 30
0.0
 11
157.558791336523
 21
107.1524905626068
 31
0.0
  0
LINE
  5
22A8D
  8
KI1
 10
156.63457229858739
 20
105.67466526736099
 30
0.0
 11
157.558791336523
 21
106.4868577553886
 31
0.0
  0
LINE
  5
22A8E
  8
KI1
 10
157.558791336523
 20
107.1524905626068
 30
0.0
 11
158.6081625526794
 21
108.0746652678785
 31
0.0
  0
LINE
  5
22A8F
  8
KI1
 10
159.35879133627861
 20
107.3746652678786
 30
0.0
 11
159.35879133627861
 21
108.0746652678785
 31
0.0
  0
ARC
  5
22A90
  8
KI1
 10
159.05879133628071
 20
107.4746652678913
 30
0.0
 40
0.3
 50
0.0
 51
89.999999999947889
1001
GENIUS_GENODEF_13
1002
{
1000
HIER
1070
     0
1002
}
1002
{
1000
MANEDIT
1070
     0
1002
}
1002
{
1000
NOSEL
1070
     0
1002
}
1002
{
1000
BEHIND
1070
     0
1002
}
1002
{
1000
OTHER
1070
     0
1002
}
1002
{
1000
REACTOR
1002
}
1001
GENIUS_GENOBJ-N-FIL_13
1002
{
1000
OWNER
1000
GEN
1002
}
  0
ARC
  5
22A91
  8
KI1
 10
158.75879133652279
 20
107.0746652678784
 30
0.0
 40
0.7
 50
90.0
 51
180.0
1001
GENIUS_GENODEF_13
1002
{
1000
HIER
1070
     0
1002
}
1002
{
1000
MANEDIT
1070
     0
1002
}
1002
{
1000
NOSEL
1070
     0
1002
}
1002
{
1000
BEHIND
1070
     0
1002
}
1002
{
1000
OTHER
1070
     0
1002
}
1002
{
1000
REACTOR
1002
}
1001
GENIUS_GENOBJ-N-FIL_13
1002
{
1000
OWNER
1000
GEN
1002
}
  0
LINE
  5
22A92
  8
KI1
 10
158.95879133652281
 20
105.67466526787859
 30
0.0
 11
163.65879133627831
 21
105.6746652678782
 31
0.0
  0
ARC
  5
22A93
  8
KI1
 10
159.85879133627881
 20
105.97466526787861
 30
0.0
 40
0.3
 50
198.995550662776
 51
0.0
  0
LINE
  5
22A94
  8
KI1
 10
154.85879133627819
 20
104.47466526787851
 30
0.0
 11
154.8587913362781
 21
105.17466526787859
 31
0.0
  0
LINE
  5
22A95
  8
KI1
 10
202.75879133627811
 20
108.0746652678785
 30
0.0
 11
197.05879133627809
 21
108.0746652678785
 31
0.0
  0
ARC
  5
22A96
  8
KI1
 10
205.55879133627849
 20
109.17466526787859
 30
0.0
 40
0.3
 50
90.0
 51
180.0
  0
LINE
  5
22A97
  8
KI1
 10
206.75879133627819
 20
109.47466526787851
 30
0.0
 11
209.10879133627819
 21
108.1178921352829
 31
0.0
  0
LINE
  5
22A98
  8
KI1
 10
205.9587913362783
 20
106.8746652678785
 30
0.0
 11
205.6587913362782
 21
106.8746652678786
 31
0.0
  0
LINE
  5
22A99
  8
KI1
 10
205.25879133627831
 20
109.17466526787859
 30
0.0
 11
205.25879133627831
 21
107.8746652678786
 31
0.0
  0
LINE
  5
22A9A
  8
KI1
 10
205.05879133627809
 20
109.0746652678785
 30
0.0
 11
205.05879133627809
 21
107.8746652678785
 31
0.0
  0
LINE
  5
22A9B
  8
KI1
 10
205.6587913362784
 20
106.8746652678786
 30
0.0
 11
205.6587913362782
 21
105.47466526787851
 31
0.0
  0
LINE
  5
22A9C
  8
KI1
 10
204.45879133627849
 20
106.8746652678786
 30
0.0
 11
204.4587913362783
 21
105.67466526787859
 31
0.0
  0
LINE
  5
22A9D
  8
KI1
 10
204.25879133627819
 20
106.8746652678786
 30
0.0
 11
204.4587913362783
 21
106.8746652678786
 31
0.0
  0
ARC
  5
22A9E
  8
KI1
 10
206.75879133627819
 20
107.74261446030989
 30
0.0
 40
0.3
 50
59.999999999999858
 51
180.0
  0
LINE
  5
22A9F
  8
KI1
 10
206.9087913362782
 20
108.0024220814453
 30
0.0
 11
207.6587913362784
 21
107.56940937955289
 31
0.0
  0
ARC
  5
22AA0
  8
KI1
 10
209.60879133627819
 20
106.17466526787859
 30
0.0
 40
0.5
 50
180.0
 51
270.0
  0
LINE
  5
22AA1
  8
KI1
 10
207.90879133627831
 20
107.1363966776606
 30
0.0
 11
207.90879133627831
 21
105.47466526787851
 31
0.0
  0
ARC
  5
22AA2
  8
KI1
 10
205.9587913362783
 20
107.3746652678785
 30
0.0
 40
0.5
 50
270.0
 51
0.0
  0
LINE
  5
22AA3
  8
KI1
 10
209.10879133627819
 20
108.1178921352829
 30
0.0
 11
209.10879133627819
 21
106.17466526787859
 31
0.0
  0
LINE
  5
22AA4
  8
KI1
 10
206.4587913362783
 20
107.74261446030989
 30
0.0
 11
206.45879133627849
 21
107.37466526787949
 31
0.0
  0
ARC
  5
22AA5
  8
KI1
 10
207.4087913362784
 20
107.1363966776606
 30
0.0
 40
0.5
 50
0.0
 51
59.999999999999858
  0
LINE
  5
22AA6
  8
KI1
 10
206.75879133627819
 20
109.47466526787851
 30
0.0
 11
205.55879133627849
 21
109.47466526787861
 31
0.0
  0
ARC
  5
22AA7
  8
KI1
 10
203.9587913362783
 20
107.5746652678785
 30
0.0
 40
0.3
 50
90.0
 51
180.0
  0
LINE
  5
22AA8
  8
KI1
 10
203.65879133627811
 20
107.8746652678785
 30
0.0
 11
203.65879133627811
 21
107.5246652678785
 31
0.0
  0
ARC
  5
22AA9
  8
KI1
 10
203.2087913362783
 20
106.3246652678786
 30
0.0
 40
0.45
 50
152.7928776858306
 51
332.79287768583072
  0
LINE
  5
22AAA
  8
KI1
 10
203.8755991999482
 20
106.637502722394
 30
0.0
 11
203.60900313178331
 21
106.11892144965179
 31
0.0
  0
ARC
  5
22AAB
  8
KI1
 10
203.60879133627819
 20
106.7746652678785
 30
0.0
 40
0.3
 50
332.79287768583072
 51
19.708731129239851
  0
LINE
  5
22AAC
  8
KI1
 10
202.95613511477279
 20
106.8174334143024
 30
0.0
 11
202.80857954077311
 21
106.53040908610529
 31
0.0
  0
LINE
  5
22AAD
  8
KI1
 10
202.75879133627811
 20
107.3683286788617
 30
0.0
 11
202.95613511477279
 21
106.8174334143024
 31
0.0
  0
LINE
  5
22AAE
  8
KI1
 10
203.6587913362782
 20
107.5746652678785
 30
0.0
 11
203.6587913362782
 21
107.47466526787861
 31
0.0
  0
LINE
  5
22AAF
  8
KI1
 10
202.75879133627811
 20
107.3683286788617
 30
0.0
 11
202.75879133627811
 21
108.0746652678785
 31
0.0
  0
LINE
  5
22AB0
  8
KI1
 10
203.65879133627811
 20
107.5246652678785
 30
0.0
 11
203.8912170857667
 21
106.8758368845792
 31
0.0
  0
LINE
  5
22AB1
  8
KI1
 10
205.25879133627831
 20
107.8746652678786
 30
0.0
 11
203.95879133627881
 21
107.8746652678787
 31
0.0
  0
LINE
  5
22AB2
  8
KI1
 10
205.05879133627809
 20
107.8746652678785
 30
0.0
 11
203.65879133627811
 21
107.8746652678785
 31
0.0
  0
ARC
  5
22AB3
  8
KI1
 10
204.25879133627819
 20
107.47466526787861
 30
0.0
 40
0.6
 50
180.0
 51
269.99999999999352
1001
GENIUS_GENODEF_13
1002
{
1000
HIER
1070
     0
1002
}
1002
{
1000
MANEDIT
1070
     0
1002
}
1002
{
1000
NOSEL
1070
     0
1002
}
1002
{
1000
BEHIND
1070
     0
1002
}
1002
{
1000
OTHER
1070
     0
1002
}
1002
{
1000
REACTOR
1002
}
1001
GENIUS_GENOBJ-N-FIL_13
1002
{
1000
OWNER
1000
GEN
1002
}
  0
ARC
  5
22AB4
  8
KI1
 10
208.90879133627831
 20
105.47466526787851
 30
0.0
 40
1.0
 50
180.0
 51
270.0
  0
ARC
  5
22AB5
  8
KI1
 10
204.6587913362782
 20
105.47466526787851
 30
0.0
 40
1.0
 50
270.0
 51
0.0
  0
ARC
  5
22AB6
  8
KI1
 10
196.6087913362781
 20
106.5246652678785
 30
0.0
 40
0.4499999999999981
 50
180.0
 51
0.0
  0
LINE
  5
22AB7
  8
KI1
 10
197.05879133627809
 20
108.0746652678785
 30
0.0
 11
197.05879133627809
 21
106.5246652678785
 31
0.0
  0
LINE
  5
22AB8
  8
KI1
 10
196.15879133627811
 20
108.0746652678785
 30
0.0
 11
196.15879133627811
 21
106.5246652678785
 31
0.0
  0
LINE
  5
22AB9
  8
KI1
 10
168.45879133627849
 20
106.1746652678785
 30
0.0
 11
168.45879133627849
 21
107.7604517055053
 31
0.0
  0
ARC
  5
22ABA
  8
KI1
 10
170.408791336278
 20
107.1363966776606
 30
0.0
 40
0.5
 50
0.0
 51
59.999999999999858
  0
LINE
  5
22ABB
  8
KI1
 10
169.75879133627791
 20
109.47466526787851
 30
0.0
 11
172.10879133627779
 21
108.1178921352829
 31
0.0
  0
ARC
  5
22ABC
  8
KI1
 10
170.408791336278
 20
106.17466526787859
 30
0.0
 40
0.5
 50
270.0
 51
0.0
  0
ARC
  5
22ABD
  8
KI1
 10
174.80879133627801
 20
105.47466526787851
 30
0.0
 40
1.0
 50
270.0
 51
0.0
  0
LINE
  5
22ABE
  8
KI1
 10
176.80879133627809
 20
108.0024220814453
 30
0.0
 11
176.05879133627801
 21
107.56940937955289
 31
0.0
  0
LINE
  5
22ABF
  8
KI1
 10
176.95879133627801
 20
109.47466526787851
 30
0.0
 11
174.6087913362781
 21
108.1178921352829
 31
0.0
  0
LINE
  5
22AC0
  8
KI1
 10
187.55879133627809
 20
108.0746652678785
 30
0.0
 11
187.55879133627809
 21
106.5246652678785
 31
0.0
  0
ARC
  5
22AC1
  8
KI1
 10
191.8587913362781
 20
105.67466526787859
 30
0.0
 40
0.3000000000000114
 50
180.0
 51
0.0
  0
LINE
  5
22AC2
  8
KI1
 10
186.65879133627811
 20
108.0746652678785
 30
0.0
 11
186.65879133627811
 21
106.5246652678785
 31
0.0
  0
ARC
  5
22AC3
  8
KI1
 10
176.95879133627801
 20
107.74261446030989
 30
0.0
 40
0.3
 50
0.0
 51
120.0000000000001
  0
ARC
  5
22AC4
  8
KI1
 10
177.75879133627799
 20
107.3746652678785
 30
0.0
 40
0.5
 50
180.0
 51
270.0
  0
LINE
  5
22AC5
  8
KI1
 10
177.25879133627799
 20
107.74261446030989
 30
0.0
 11
177.2587913362778
 21
107.37466526787949
 31
0.0
  0
ARC
  5
22AC6
  8
KI1
 10
178.15879133627789
 20
109.17466526787859
 30
0.0
 40
0.3
 50
0.0
 51
90.0
  0
LINE
  5
22AC7
  8
KI1
 10
178.45879133627801
 20
109.17466526787859
 30
0.0
 11
178.45879133627801
 21
107.8746652678786
 31
0.0
  0
LINE
  5
22AC8
  8
KI1
 10
178.45879133627801
 20
107.8746652678786
 30
0.0
 11
179.75879133627751
 21
107.8746652678787
 31
0.0
  0
ARC
  5
22AC9
  8
KI1
 10
179.75879133627799
 20
107.5746652678785
 30
0.0
 40
0.3
 50
0.0
 51
90.0
  0
LINE
  5
22ACA
  8
KI1
 10
178.65879133627811
 20
109.0746652678785
 30
0.0
 11
178.65879133627811
 21
107.8746652678785
 31
0.0
  0
LINE
  5
22ACB
  8
KI1
 10
178.65879133627811
 20
107.8746652678785
 30
0.0
 11
180.05879133627809
 21
107.8746652678785
 31
0.0
  0
LINE
  5
22ACC
  8
KI1
 10
180.05879133627809
 20
107.8746652678785
 30
0.0
 11
180.05879133627809
 21
107.5246652678785
 31
0.0
  0
LINE
  5
22ACD
  8
KI1
 10
178.05879133627789
 20
106.8746652678786
 30
0.0
 11
178.05879133627809
 21
105.47466526787851
 31
0.0
  0
LINE
  5
22ACE
  8
KI1
 10
179.2587913362778
 20
106.8746652678786
 30
0.0
 11
179.25879133627799
 21
105.67466526787859
 31
0.0
  0
ARC
  5
22ACF
  8
KI1
 10
179.45879133627801
 20
107.47466526787861
 30
0.0
 40
0.6
 50
270.0
 51
0.0
1001
GENIUS_GENODEF_13
1002
{
1000
HIER
1070
     0
1002
}
1002
{
1000
MANEDIT
1070
     0
1002
}
1002
{
1000
NOSEL
1070
     0
1002
}
1002
{
1000
BEHIND
1070
     0
1002
}
1002
{
1000
OTHER
1070
     0
1002
}
1002
{
1000
REACTOR
1002
}
1001
GENIUS_GENOBJ-N-FIL_13
1002
{
1000
OWNER
1000
GEN
1002
}
  0
LINE
  5
22AD0
  8
KI1
 10
179.45879133627801
 20
106.8746652678786
 30
0.0
 11
179.25879133627799
 21
106.8746652678786
 31
0.0
  0
ARC
  5
22AD1
  8
KI1
 10
180.50879133627811
 20
106.3246652678786
 30
0.0
 40
0.45
 50
207.20712231416789
 51
27.207122314169361
  0
LINE
  5
22AD2
  8
KI1
 10
180.7614475577835
 20
106.8174334143024
 30
0.0
 11
180.90900313178329
 21
106.53040908610529
 31
0.0
  0
ARC
  5
22AD3
  8
KI1
 10
180.1087913362783
 20
106.7746652678785
 30
0.0
 40
0.3
 50
160.29126887076009
 51
207.20712231416789
  0
LINE
  5
22AD4
  8
KI1
 10
179.84198347260809
 20
106.637502722394
 30
0.0
 11
180.10857954077289
 21
106.11892144965179
 31
0.0
  0
LINE
  5
22AD5
  8
KI1
 10
180.9587913362783
 20
107.3683286788617
 30
0.0
 11
180.7614475577835
 21
106.8174334143024
 31
0.0
  0
LINE
  5
22AD6
  8
KI1
 10
180.05879133627809
 20
107.5746652678785
 30
0.0
 11
180.05879133627809
 21
107.47466526787861
 31
0.0
  0
LINE
  5
22AD7
  8
KI1
 10
180.05879133627809
 20
107.5246652678785
 30
0.0
 11
179.82636558678971
 21
106.8758368845792
 31
0.0
  0
LINE
  5
22AD8
  8
KI1
 10
180.9587913362783
 20
107.3683286788617
 30
0.0
 11
180.9587913362783
 21
108.0746652678785
 31
0.0
  0
LINE
  5
22AD9
  8
KI1
 10
176.95879133627801
 20
109.47466526787851
 30
0.0
 11
178.15879133627789
 21
109.47466526787861
 31
0.0
  0
LINE
  5
22ADA
  8
KI1
 10
177.75879133627799
 20
106.8746652678785
 30
0.0
 11
178.05879133627809
 21
106.8746652678786
 31
0.0
  0
LINE
  5
22ADB
  8
KI1
 10
186.65879133627811
 20
108.0746652678785
 30
0.0
 11
180.9587913362783
 21
108.0746652678785
 31
0.0
  0
ARC
  5
22ADC
  8
KI1
 10
179.05879133627809
 20
105.47466526787851
 30
0.0
 40
1.0
 50
180.0
 51
270.0
  0
ARC
  5
22ADD
  8
KI1
 10
187.1087913362781
 20
106.5246652678785
 30
0.0
 40
0.4499999999999981
 50
180.0
 51
0.0
  0
LINE
  5
22ADE
  8
KI1
 10
179.25879133627799
 20
105.67466526787859
 30
0.0
 11
191.5587913362782
 21
105.67466526787859
 31
0.0
  0
LINE
  5
22ADF
  8
KI1
 10
175.80879133627789
 20
107.1363966776606
 30
0.0
 11
175.80879133627789
 21
105.47466526787851
 31
0.0
  0
LINE
  5
22AE0
  8
KI1
 10
174.1087913362781
 20
105.67466526787859
 30
0.0
 11
172.60879133627779
 21
105.67466526787859
 31
0.0
  0
ARC
  5
22AE1
  8
KI1
 10
174.1087913362781
 20
106.17466526787859
 30
0.0
 40
0.5
 50
270.0
 51
0.0
1001
GENIUS_GENOBJ-N-FIL_13
1002
{
1000
OWNER
1000
GEN
1002
}
1001
GENIUS_GENODEF_13
1002
{
1000
HIER
1070
     0
1002
}
1002
{
1000
MANEDIT
1070
     0
1002
}
1002
{
1000
NOSEL
1070
     0
1002
}
1002
{
1000
BEHIND
1070
     0
1002
}
1002
{
1000
OTHER
1070
     0
1002
}
1002
{
1000
REACTOR
1002
}
  0
LINE
  5
22AE2
  8
KI1
 10
174.6087913362781
 20
108.1178921352829
 30
0.0
 11
174.6087913362781
 21
106.17466526787859
 31
0.0
  0
ARC
  5
22AE3
  8
KI1
 10
176.30879133627789
 20
107.1363966776606
 30
0.0
 40
0.5
 50
120.0000000000001
 51
180.0
  0
ARC
  5
22AE4
  8
KI1
 10
172.60879133627779
 20
106.17466526787859
 30
0.0
 40
0.5
 50
180.0
 51
270.0
1001
GENIUS_GENODEF_13
1002
{
1000
HIER
1070
     0
1002
}
1002
{
1000
MANEDIT
1070
     0
1002
}
1002
{
1000
NOSEL
1070
     0
1002
}
1002
{
1000
BEHIND
1070
     0
1002
}
1002
{
1000
OTHER
1070
     0
1002
}
1002
{
1000
REACTOR
1002
}
1001
GENIUS_GENOBJ-N-FIL_13
1002
{
1000
OWNER
1000
GEN
1002
}
  0
LINE
  5
22AE5
  8
KI1
 10
170.908791336278
 20
107.1363966776606
 30
0.0
 11
170.908791336278
 21
106.17466526787859
 31
0.0
  0
LINE
  5
22AE6
  8
KI1
 10
172.10879133627779
 20
108.1178921352829
 30
0.0
 11
172.10879133627779
 21
106.17466526787859
 31
0.0
  0
LINE
  5
22AE7
  8
KI1
 10
169.75879133627791
 20
109.47466526787851
 30
0.0
 11
169.35879133627839
 21
109.47466526787851
 31
0.0
  0
ARC
  5
22AE8
  8
KI1
 10
169.3587913362785
 20
109.17466526787859
 30
0.0
 40
0.3
 50
90.0
 51
180.0
  0
LINE
  5
22AE9
  8
KI1
 10
169.05879133627849
 20
109.2746652678784
 30
0.0
 11
169.05879133627849
 21
108.5746652678786
 31
0.0
  0
LINE
  5
22AEA
  8
KI1
 10
169.05879133627849
 20
108.5746652678786
 30
0.0
 11
169.45879133627861
 21
108.1746652678785
 31
0.0
  0
LINE
  5
22AEB
  8
KI1
 10
168.45879133627849
 20
107.7604517055053
 30
0.0
 11
168.14457777390541
 21
108.0746652678785
 31
0.0
  0
LINE
  5
22AEC
  8
KI1
 10
169.05879133627829
 20
109.17466526787859
 30
0.0
 11
169.05879133627829
 21
108.66637489101311
 31
0.0
  0
ARC
  5
22AED
  8
KI1
 10
169.35879133627819
 20
108.66637489101311
 30
0.0
 40
0.3
 50
180.0
 51
239.99999999999989
1001
GENIUS_GENODEF_13
1002
{
1000
HIER
1070
     0
1002
}
1002
{
1000
MANEDIT
1070
     0
1002
}
1002
{
1000
NOSEL
1070
     0
1002
}
1002
{
1000
BEHIND
1070
     0
1002
}
1002
{
1000
OTHER
1070
     0
1002
}
1002
{
1000
REACTOR
1002
}
1001
GENIUS_GENOBJ-N-FIL_13
1002
{
1000
OWNER
1000
GEN
1002
}
  0
LINE
  5
22AEE
  8
KI1
 10
169.2087913362783
 20
108.4065672698777
 30
0.0
 11
170.658791336278
 21
107.56940937955289
 31
0.0
  0
ARC
  5
22AEF
  8
KI1
 10
168.95879133627861
 20
106.1746652678785
 30
0.0
 40
0.5
 50
180.0
 51
0.0
  0
LINE
  5
22AF0
  8
KI1
 10
169.45879133627861
 20
108.1746652678785
 30
0.0
 11
169.45879133627861
 21
106.1746652678785
 31
0.0
  0
LINE
  5
22AF1
  8
KI1
 10
192.15879133627811
 20
105.67466526787859
 30
0.0
 11
204.4587913362783
 21
105.67466526787859
 31
0.0
  0
LINE
  5
22AF2
  8
KI1
 10
179.05879133627809
 20
104.47466526787851
 30
0.0
 11
204.6587913362782
 21
104.47466526787851
 31
0.0
  0
LINE
  5
22AF3
  8
KI1
 10
205.05879133627809
 20
109.0746652678785
 30
0.0
 11
178.65879133627811
 21
109.0746652678785
 31
0.0
  0
LINE
  5
22AF4
  8
KI1
 10
196.15879133627811
 20
108.0746652678785
 30
0.0
 11
187.55879133627809
 21
108.0746652678785
 31
0.0
  0
LINE
  5
22AF5
  8
KI1
 10
228.3587913362777
 20
105.67466526736099
 30
0.0
 11
227.08301037396899
 21
105.67466526736099
 31
0.0
  0
ARC
  5
22AF6
  8
KI1
 10
228.3587913362777
 20
106.2841697202627
 30
0.0
 40
0.2
 50
0.0
 51
48.691385981385267
1001
GENIUS_GENODEF_13
1002
{
1000
HIER
1070
     0
1002
}
1002
{
1000
MANEDIT
1070
     0
1002
}
1002
{
1000
NOSEL
1070
     0
1002
}
1002
{
1000
BEHIND
1070
     0
1002
}
1002
{
1000
OTHER
1070
     0
1002
}
1002
{
1000
REACTOR
1002
}
1001
GENIUS_GENOBJ-N-FIL_13
1002
{
1000
OWNER
1000
GEN
1002
}
  0
ARC
  5
22AF7
  8
KI1
 10
228.3587913362777
 20
105.874665267361
 30
0.0
 40
0.2
 50
270.0
 51
0.0
1001
GENIUS_GENODEF_13
1002
{
1000
HIER
1070
     0
1002
}
1002
{
1000
MANEDIT
1070
     0
1002
}
1002
{
1000
NOSEL
1070
     0
1002
}
1002
{
1000
BEHIND
1070
     0
1002
}
1002
{
1000
OTHER
1070
     0
1002
}
1002
{
1000
REACTOR
1002
}
1001
GENIUS_GENOBJ-N-FIL_13
1002
{
1000
OWNER
1000
GEN
1002
}
  0
LINE
  5
22AF8
  8
KI1
 10
228.55879133627769
 20
106.2841697202627
 30
0.0
 11
228.55879133627769
 21
105.874665267361
 31
0.0
  0
ARC
  5
22AF9
  8
KI1
 10
228.55879133627829
 20
105.17466526787859
 30
0.0
 40
0.3
 50
0.0
 51
90.0
1001
GENIUS_GENOBJ-N-FIL_13
1002
{
1000
OWNER
1000
GEN
1002
}
1001
GENIUS_GENODEF_13
1002
{
1000
HIER
1070
     0
1002
}
1002
{
1000
MANEDIT
1070
     0
1002
}
1002
{
1000
NOSEL
1070
     0
1002
}
1002
{
1000
BEHIND
1070
     0
1002
}
1002
{
1000
OTHER
1070
     0
1002
}
1002
{
1000
REACTOR
1002
}
  0
LINE
  5
22AFA
  8
KI1
 10
225.109420119877
 20
108.0746652678785
 30
0.0
 11
224.3587913362777
 21
108.0746652678785
 31
0.0
  0
LINE
  5
22AFB
  8
KI1
 10
224.95879133603381
 20
107.7746652678785
 30
0.0
 11
224.6587913362782
 21
107.7746652678785
 31
0.0
  0
LINE
  5
22AFC
  8
KI1
 10
226.1587913360334
 20
106.4868577553886
 30
0.0
 11
226.1587913360334
 21
107.1524905626068
 31
0.0
  0
LINE
  5
22AFD
  8
KI1
 10
224.49788410047441
 20
106.90951984188141
 30
0.0
 11
224.14245449275759
 21
105.87701684927499
 31
0.0
  0
LINE
  5
22AFE
  8
KI1
 10
224.35879133627751
 20
107.3746652678787
 30
0.0
 11
224.49340672089301
 21
107.0515883448016
 31
0.0
  0
ARC
  5
22AFF
  8
KI1
 10
224.30879133627749
 20
106.97466526787851
 30
0.0
 40
0.2
 50
340.99036605207033
 51
22.619864948039549
  0
LINE
  5
22B00
  8
KI1
 10
225.6587913360338
 20
105.47466526787851
 30
0.0
 11
225.6587913360338
 21
107.0746652678784
 31
0.0
  0
LINE
  5
22B01
  8
KI1
 10
224.75879133603371
 20
107.0746652678785
 30
0.0
 11
224.75879133603371
 21
105.67466526787859
 31
0.0
  0
ARC
  5
22B02
  8
KI1
 10
224.6587913362759
 20
107.4088981897779
 30
0.0
 40
0.3
 50
180.0000000000521
 51
255.96375652388841
1001
GENIUS_GENODEF_13
1002
{
1000
HIER
1070
     0
1002
}
1002
{
1000
MANEDIT
1070
     0
1002
}
1002
{
1000
NOSEL
1070
     0
1002
}
1002
{
1000
BEHIND
1070
     0
1002
}
1002
{
1000
OTHER
1070
     0
1002
}
1002
{
1000
REACTOR
1002
}
1001
GENIUS_GENOBJ-N-FIL_13
1002
{
1000
OWNER
1000
GEN
1002
}
  0
LINE
  5
22B03
  8
KI1
 10
224.3587913362758
 20
107.474665267891
 30
0.0
 11
224.35879133627591
 21
107.4088981897777
 31
0.0
  0
LINE
  5
22B04
  8
KI1
 10
224.58603064872341
 20
107.1178554397447
 30
0.0
 11
224.75879133603161
 21
107.0746652678914
 31
0.0
  0
ARC
  5
22B05
  8
KI1
 10
223.85879133627751
 20
105.97466526787861
 30
0.0
 40
0.3
 50
180.0
 51
341.004449337224
  0
LINE
  5
22B06
  8
KI1
 10
226.1587913360334
 20
107.1524905626068
 30
0.0
 11
225.109420119877
 21
108.0746652678785
 31
0.0
  0
LINE
  5
22B07
  8
KI1
 10
224.35879133627759
 20
107.3746652678786
 30
0.0
 11
224.35879133627759
 21
108.0746652678785
 31
0.0
  0
LINE
  5
22B08
  8
KI1
 10
223.55879133627781
 20
108.0746652678785
 30
0.0
 11
223.55879133627761
 21
105.97466526787851
 31
0.0
  0
ARC
  5
22B09
  8
KI1
 10
224.95879133603381
 20
107.0746652678784
 30
0.0
 40
0.7
 50
0.0
 51
90.0
1001
GENIUS_GENODEF_13
1002
{
1000
HIER
1070
     0
1002
}
1002
{
1000
MANEDIT
1070
     0
1002
}
1002
{
1000
NOSEL
1070
     0
1002
}
1002
{
1000
BEHIND
1070
     0
1002
}
1002
{
1000
OTHER
1070
     0
1002
}
1002
{
1000
REACTOR
1002
}
1001
GENIUS_GENOBJ-N-FIL_13
1002
{
1000
OWNER
1000
GEN
1002
}
  0
ARC
  5
22B0A
  8
KI1
 10
224.6587913362759
 20
107.4746652678913
 30
0.0
 40
0.3
 50
90.000000000052125
 51
180.0000000000521
1001
GENIUS_GENODEF_13
1002
{
1000
HIER
1070
     0
1002
}
1002
{
1000
MANEDIT
1070
     0
1002
}
1002
{
1000
NOSEL
1070
     0
1002
}
1002
{
1000
BEHIND
1070
     0
1002
}
1002
{
1000
OTHER
1070
     0
1002
}
1002
{
1000
REACTOR
1002
}
1001
GENIUS_GENOBJ-N-FIL_13
1002
{
1000
OWNER
1000
GEN
1002
}
  0
LINE
  5
22B0B
  8
KI1
 10
225.6587913360338
 20
105.47466526787851
 30
0.0
 11
228.55879133627829
 21
105.47466526787851
 31
0.0
  0
LINE
  5
22B0C
  8
KI1
 10
228.49081425783689
 20
106.434402699941
 30
0.0
 11
225.2587913362778
 21
109.2746652678784
 31
0.0
  0
LINE
  5
22B0D
  8
KI1
 10
227.08301037396899
 20
105.67466526736099
 30
0.0
 11
226.1587913360334
 21
106.4868577553886
 31
0.0
  0
LINE
  5
22B0E
  8
KI1
 10
228.8587913362783
 20
105.17466526787859
 30
0.0
 11
228.8587913362783
 21
104.47466526787851
 31
0.0
  0
ARC
  5
22B0F
  8
KI1
 10
219.75879133627831
 20
105.6746652678782
 30
0.0
 40
0.2999999999999972
 50
179.99999999999349
 51
0.0000000000065138
  0
LINE
  5
22B10
  8
KI1
 10
213.95879133627861
 20
109.47466526787851
 30
0.0
 11
211.6087913362787
 21
108.1178921352829
 31
0.0
  0
ARC
  5
22B11
  8
KI1
 10
214.3587913362781
 20
109.17466526787859
 30
0.0
 40
0.3
 50
0.0
 51
90.0
  0
LINE
  5
22B12
  8
KI1
 10
214.6587913362778
 20
109.2746652678784
 30
0.0
 11
214.6587913362778
 21
108.5746652678786
 31
0.0
  0
LINE
  5
22B13
  8
KI1
 10
214.6587913362778
 20
108.5746652678786
 30
0.0
 11
214.2587913362778
 21
108.1746652678785
 31
0.0
  0
LINE
  5
22B14
  8
KI1
 10
214.6587913362782
 20
109.17466526787859
 30
0.0
 11
214.6587913362782
 21
108.66637489101311
 31
0.0
  0
ARC
  5
22B15
  8
KI1
 10
214.3587913362783
 20
108.66637489101311
 30
0.0
 40
0.3
 50
300.00000000000011
 51
0.0
1001
GENIUS_GENODEF_13
1002
{
1000
HIER
1070
     0
1002
}
1002
{
1000
MANEDIT
1070
     0
1002
}
1002
{
1000
NOSEL
1070
     0
1002
}
1002
{
1000
BEHIND
1070
     0
1002
}
1002
{
1000
OTHER
1070
     0
1002
}
1002
{
1000
REACTOR
1002
}
1001
GENIUS_GENOBJ-N-FIL_13
1002
{
1000
OWNER
1000
GEN
1002
}
  0
LINE
  5
22B16
  8
KI1
 10
214.50879133627819
 20
108.4065672698777
 30
0.0
 11
213.0587913362786
 21
107.56940937955289
 31
0.0
  0
ARC
  5
22B17
  8
KI1
 10
214.7587913362778
 20
106.1746652678785
 30
0.0
 40
0.5
 50
180.0
 51
0.0
  0
LINE
  5
22B18
  8
KI1
 10
212.8087913362786
 20
107.1363966776606
 30
0.0
 11
212.8087913362786
 21
106.17466526787859
 31
0.0
  0
ARC
  5
22B19
  8
KI1
 10
213.3087913362786
 20
106.17466526787859
 30
0.0
 40
0.5
 50
180.0
 51
270.0
  0
LINE
  5
22B1A
  8
KI1
 10
214.2587913362778
 20
108.1746652678785
 30
0.0
 11
214.2587913362778
 21
106.1746652678785
 31
0.0
  0
LINE
  5
22B1B
  8
KI1
 10
215.2587913362778
 20
106.1746652678785
 30
0.0
 11
215.2587913362778
 21
107.7604517055053
 31
0.0
  0
LINE
  5
22B1C
  8
KI1
 10
211.6087913362787
 20
108.1178921352829
 30
0.0
 11
211.6087913362787
 21
106.17466526787859
 31
0.0
  0
ARC
  5
22B1D
  8
KI1
 10
213.3087913362786
 20
107.1363966776606
 30
0.0
 40
0.5
 50
120.0000000000001
 51
180.0
  0
LINE
  5
22B1E
  8
KI1
 10
213.95879133627861
 20
109.47466526787851
 30
0.0
 11
214.3587913362781
 21
109.47466526787851
 31
0.0
  0
ARC
  5
22B1F
  8
KI1
 10
211.1087913362787
 20
106.17466526787859
 30
0.0
 40
0.5
 50
270.0
 51
0.0
1001
GENIUS_GENODEF_13
1002
{
1000
HIER
1070
     0
1002
}
1002
{
1000
MANEDIT
1070
     0
1002
}
1002
{
1000
NOSEL
1070
     0
1002
}
1002
{
1000
BEHIND
1070
     0
1002
}
1002
{
1000
OTHER
1070
     0
1002
}
1002
{
1000
REACTOR
1002
}
1001
GENIUS_GENOBJ-N-FIL_13
1002
{
1000
OWNER
1000
GEN
1002
}
  0
LINE
  5
22B20
  8
KI1
 10
219.4587913362783
 20
105.6746652678782
 30
0.0
 11
213.3087913362786
 21
105.67466526787859
 31
0.0
  0
LINE
  5
22B21
  8
KI1
 10
215.2587913362778
 20
107.7604517055053
 30
0.0
 11
215.57300489865099
 21
108.0746652678785
 31
0.0
  0
LINE
  5
22B22
  8
KI1
 10
223.55879133627781
 20
108.0746652678785
 30
0.0
 11
215.57300489865099
 21
108.0746652678785
 31
0.0
  0
LINE
  5
22B23
  8
KI1
 10
224.75879133603371
 20
105.67466526787859
 30
0.0
 11
220.0587913362782
 21
105.6746652678782
 31
0.0
  0
LINE
  5
22B24
  8
KI1
 10
214.6587913362778
 20
109.2746652678784
 30
0.0
 11
225.2587913362778
 21
109.2746652678784
 31
0.0
  0
LINE
  5
22C15
  8
KI2
 10
540.02228933404092
 20
109.47949920848021
 30
0.0
 11
542.52228933404092
 21
107.97949920848021
 31
0.0
  0
LINE
  5
22C16
  8
KI2
 10
540.02228933404092
 20
111.97466526787861
 30
0.0
 11
540.02228933404092
 21
109.47949920848021
 31
0.0
  0
LINE
  5
22C17
  8
KI2
 10
544.52228933404081
 20
106.47949920848021
 30
0.0
 11
543.52228933404092
 21
106.47949920848021
 31
0.0
  0
LINE
  5
22C18
  8
KI2
 10
542.52228933404092
 20
106.47949920848021
 30
0.0
 11
543.52228933404092
 21
106.47949920848021
 31
0.0
  0
LINE
  5
22C19
  8
KI2
 10
547.02228933404092
 20
109.47949920848021
 30
0.0
 11
544.52228933404081
 21
107.97949920848021
 31
0.0
  0
LINE
  5
22C1A
  8
KI2
 10
547.02228933404092
 20
111.97466526787861
 30
0.0
 11
547.02228933404092
 21
109.47949920848021
 31
0.0
  0
LINE
  5
22C1B
  8
KI2
 10
544.52228933404081
 20
111.97466526787861
 30
0.0
 11
544.52228933404081
 21
106.47949920848021
 31
0.0
  0
LINE
  5
22C1C
  8
KI2
 10
542.52228933404092
 20
111.97466526787861
 30
0.0
 11
542.52228933404092
 21
106.47949920848021
 31
0.0
  0
LINE
  5
22C1D
  8
KI2
 10
528.52228933404183
 20
111.97466526787861
 30
0.0
 11
558.52228933404183
 21
111.97466526787871
 31
0.0
  0
LINE
  5
22C1E
  8
KI1
 10
527.02228933404183
 20
113.47466526787851
 30
0.0
 11
560.02228933397271
 21
113.47466526787851
 31
0.0
  0
ARC
  5
22C1F
  8
KI2
 10
528.52228933404183
 20
113.47466526787851
 30
0.0
 40
1.5
 50
180.0
 51
270.0
  0
ARC
  5
22C20
  8
KI2
 10
558.52228933404183
 20
113.47466526787851
 30
0.0
 40
1.5
 50
270.0
 51
0.0
  0
ARC
  5
22C22
  8
KI1
 10
528.92228933428555
 20
107.0746652678784
 30
0.0
 40
0.7
 50
90.0
 51
180.0
1001
GENIUS_GENODEF_13
1002
{
1000
HIER
1070
     0
1002
}
1002
{
1000
MANEDIT
1070
     0
1002
}
1002
{
1000
NOSEL
1070
     0
1002
}
1002
{
1000
BEHIND
1070
     0
1002
}
1002
{
1000
OTHER
1070
     0
1002
}
1002
{
1000
REACTOR
1002
}
1001
GENIUS_GENOBJ-N-FIL_13
1002
{
1000
OWNER
1000
GEN
1002
}
  0
LINE
  5
22C23
  8
KI1
 10
525.02228933404103
 20
104.47466526787851
 30
0.0
 11
562.02228933404103
 21
104.47466526787851
 31
0.0
  0
LINE
  5
22C24
  8
KI1
 10
539.22228933404131
 20
109.2746652678784
 30
0.0
 11
528.6222893340414
 21
109.2746652678784
 31
0.0
  0
LINE
  5
22C25
  8
KI1
 10
527.72228933428573
 20
107.1524905626068
 30
0.0
 11
528.77166055044211
 21
108.0746652678784
 31
0.0
  0
LINE
  5
22C26
  8
KI1
 10
525.39026641248233
 20
106.434402699941
 30
0.0
 11
528.6222893340414
 21
109.2746652678784
 31
0.0
  0
ARC
  5
22C27
  8
KI1
 10
525.32228933404087
 20
105.1746652678785
 30
0.0
 40
0.3
 50
90.0
 51
180.0
1001
GENIUS_GENOBJ-N-FIL_13
1002
{
1000
OWNER
1000
GEN
1002
}
1001
GENIUS_GENODEF_13
1002
{
1000
HIER
1070
     0
1002
}
1002
{
1000
MANEDIT
1070
     0
1002
}
1002
{
1000
NOSEL
1070
     0
1002
}
1002
{
1000
BEHIND
1070
     0
1002
}
1002
{
1000
OTHER
1070
     0
1002
}
1002
{
1000
REACTOR
1002
}
  0
LINE
  5
22C28
  8
KI1
 10
525.02228933404103
 20
105.1746652678785
 30
0.0
 11
525.02228933404103
 21
104.47466526787851
 31
0.0
  0
LINE
  5
22C29
  8
KI1
 10
528.22228933428539
 20
105.47466526787851
 30
0.0
 11
525.32228933404087
 21
105.47466526787851
 31
0.0
  0
LINE
  5
22C2A
  8
KI1
 10
528.22228933428539
 20
105.47466526787851
 30
0.0
 11
528.22228933428539
 21
107.0746652678784
 31
0.0
  0
LINE
  5
22C2B
  8
KI1
 10
525.32228933404133
 20
106.2841697202627
 30
0.0
 11
525.32228933404133
 21
105.8746652673609
 31
0.0
  0
LINE
  5
22C2C
  8
KI1
 10
526.79807029635015
 20
105.67466526736099
 30
0.0
 11
527.72228933428573
 21
106.4868577553887
 31
0.0
  0
LINE
  5
22C2D
  8
KI1
 10
527.72228933428573
 20
106.4868577553887
 30
0.0
 11
527.72228933428573
 21
107.1524905626068
 31
0.0
  0
ARC
  5
22C2E
  8
KI1
 10
525.52228933404126
 20
105.8746652673609
 30
0.0
 40
0.2
 50
180.0
 51
270.0
1001
GENIUS_GENODEF_13
1002
{
1000
HIER
1070
     0
1002
}
1002
{
1000
MANEDIT
1070
     0
1002
}
1002
{
1000
NOSEL
1070
     0
1002
}
1002
{
1000
BEHIND
1070
     0
1002
}
1002
{
1000
OTHER
1070
     0
1002
}
1002
{
1000
REACTOR
1002
}
1001
GENIUS_GENOBJ-N-FIL_13
1002
{
1000
OWNER
1000
GEN
1002
}
  0
LINE
  5
22C2F
  8
KI1
 10
525.52228933404126
 20
105.67466526736099
 30
0.0
 11
526.79807029635015
 21
105.67466526736099
 31
0.0
  0
ARC
  5
22C30
  8
KI1
 10
525.52228933404126
 20
106.2841697202627
 30
0.0
 40
0.2
 50
131.30861401861469
 51
180.0
1001
GENIUS_GENODEF_13
1002
{
1000
HIER
1070
     0
1002
}
1002
{
1000
MANEDIT
1070
     0
1002
}
1002
{
1000
NOSEL
1070
     0
1002
}
1002
{
1000
BEHIND
1070
     0
1002
}
1002
{
1000
OTHER
1070
     0
1002
}
1002
{
1000
REACTOR
1002
}
1001
GENIUS_GENOBJ-N-FIL_13
1002
{
1000
OWNER
1000
GEN
1002
}
  0
LINE
  5
22C31
  8
KI1
 10
558.82228933379645
 20
105.47466526787851
 30
0.0
 11
561.72228933404097
 21
105.47466526787851
 31
0.0
  0
LINE
  5
22C32
  8
KI1
 10
561.65431225559985
 20
106.434402699941
 30
0.0
 11
558.42228933404078
 21
109.2746652678784
 31
0.0
  0
ARC
  5
22C33
  8
KI1
 10
561.52228933404069
 20
105.8746652673609
 30
0.0
 40
0.2
 50
270.0
 51
0.0
1001
GENIUS_GENODEF_13
1002
{
1000
HIER
1070
     0
1002
}
1002
{
1000
MANEDIT
1070
     0
1002
}
1002
{
1000
NOSEL
1070
     0
1002
}
1002
{
1000
BEHIND
1070
     0
1002
}
1002
{
1000
OTHER
1070
     0
1002
}
1002
{
1000
REACTOR
1002
}
1001
GENIUS_GENOBJ-N-FIL_13
1002
{
1000
OWNER
1000
GEN
1002
}
  0
LINE
  5
22C34
  8
KI1
 10
547.1222893340414
 20
109.47466526787851
 30
0.0
 11
544.77228933404137
 21
108.1178921352828
 31
0.0
  0
LINE
  5
22C35
  8
KI1
 10
544.77228933404137
 20
108.1178921352828
 30
0.0
 11
544.77228933404137
 21
106.1746652678785
 31
0.0
  0
ARC
  5
22C36
  8
KI1
 10
529.22228933404347
 20
107.4746652678912
 30
0.0
 40
0.3
 50
0.0
 51
89.999999999947889
1001
GENIUS_GENODEF_13
1002
{
1000
HIER
1070
     0
1002
}
1002
{
1000
MANEDIT
1070
     0
1002
}
1002
{
1000
NOSEL
1070
     0
1002
}
1002
{
1000
BEHIND
1070
     0
1002
}
1002
{
1000
OTHER
1070
     0
1002
}
1002
{
1000
REACTOR
1002
}
1001
GENIUS_GENOBJ-N-FIL_13
1002
{
1000
OWNER
1000
GEN
1002
}
  0
ARC
  5
22C37
  8
KI1
 10
540.57228933404065
 20
107.1363966776605
 30
0.0
 40
0.5
 50
0.0
 51
59.999999999999858
  0
LINE
  5
22C38
  8
KI1
 10
542.27228933404047
 20
108.1178921352828
 30
0.0
 11
542.27228933404047
 21
106.1746652678785
 31
0.0
  0
LINE
  5
22C39
  8
KI1
 10
538.62228933404128
 20
106.1746652678785
 30
0.0
 11
538.62228933404128
 21
107.7604517055053
 31
0.0
  0
LINE
  5
22C3A
  8
KI1
 10
539.62228933404128
 20
108.1746652678785
 30
0.0
 11
539.62228933404128
 21
106.1746652678785
 31
0.0
  0
LINE
  5
22C3B
  8
KI1
 10
530.32228933404133
 20
108.0746652678784
 30
0.0
 11
530.32228933404144
 21
105.97466526787851
 31
0.0
  0
LINE
  5
22C3C
  8
KI1
 10
529.52228933404126
 20
107.3746652678785
 30
0.0
 11
529.52228933404126
 21
108.0746652678784
 31
0.0
  0
LINE
  5
22C3D
  8
KI1
 10
534.4222893340409
 20
105.6746652678783
 30
0.0
 11
540.57228933404065
 21
105.6746652678785
 31
0.0
  0
LINE
  5
22C3E
  8
KI1
 10
529.29505002159578
 20
107.1178554397447
 30
0.0
 11
529.12228933428764
 21
107.07466526789131
 31
0.0
  0
LINE
  5
22C3F
  8
KI1
 10
529.52228933404353
 20
107.474665267891
 30
0.0
 11
529.52228933404342
 21
107.4088981897776
 31
0.0
  0
ARC
  5
22C40
  8
KI1
 10
529.22228933404347
 20
107.4088981897778
 30
0.0
 40
0.3
 50
284.03624347611827
 51
0.0
1001
GENIUS_GENODEF_13
1002
{
1000
HIER
1070
     0
1002
}
1002
{
1000
MANEDIT
1070
     0
1002
}
1002
{
1000
NOSEL
1070
     0
1002
}
1002
{
1000
BEHIND
1070
     0
1002
}
1002
{
1000
OTHER
1070
     0
1002
}
1002
{
1000
REACTOR
1002
}
1001
GENIUS_GENOBJ-N-FIL_13
1002
{
1000
OWNER
1000
GEN
1002
}
  0
ARC
  5
22C41
  8
KI1
 10
534.12228933404106
 20
105.6746652678783
 30
0.0
 40
0.2999999999999972
 50
179.99999999999349
 51
0.0000000000065138
  0
LINE
  5
22C42
  8
KI1
 10
529.1222893342856
 20
105.6746652678785
 30
0.0
 11
533.8222893340411
 21
105.6746652678783
 31
0.0
  0
LINE
  5
22C43
  8
KI1
 10
529.1222893342856
 20
107.0746652678785
 30
0.0
 11
529.1222893342856
 21
105.6746652678785
 31
0.0
  0
ARC
  5
22C44
  8
KI1
 10
529.57228933404156
 20
106.97466526787839
 30
0.0
 40
0.2
 50
157.38013505195909
 51
199.0096339479297
  0
LINE
  5
22C45
  8
KI1
 10
529.52228933404149
 20
107.3746652678786
 30
0.0
 11
529.38767394942613
 21
107.0515883448015
 31
0.0
  0
LINE
  5
22C46
  8
KI1
 10
529.3831965698447
 20
106.90951984188131
 30
0.0
 11
529.7386261775614
 21
105.8770168492749
 31
0.0
  0
ARC
  5
22C47
  8
KI1
 10
530.0222893340416
 20
105.97466526787851
 30
0.0
 40
0.3
 50
198.99555066277469
 51
0.0
  0
ARC
  5
22C48
  8
KI1
 10
544.27228933404137
 20
106.1746652678785
 30
0.0
 40
0.5
 50
270.0
 51
0.0
1001
GENIUS_GENODEF_13
1002
{
1000
HIER
1070
     0
1002
}
1002
{
1000
MANEDIT
1070
     0
1002
}
1002
{
1000
NOSEL
1070
     0
1002
}
1002
{
1000
BEHIND
1070
     0
1002
}
1002
{
1000
OTHER
1070
     0
1002
}
1002
{
1000
REACTOR
1002
}
1001
GENIUS_GENOBJ-N-FIL_13
1002
{
1000
OWNER
1000
GEN
1002
}
  0
ARC
  5
22C49
  8
KI1
 10
540.57228933404065
 20
106.1746652678785
 30
0.0
 40
0.5
 50
270.0
 51
0.0
  0
LINE
  5
22C4A
  8
KI1
 10
541.07228933404065
 20
107.1363966776605
 30
0.0
 11
541.07228933404065
 21
106.1746652678785
 31
0.0
  0
ARC
  5
22C4B
  8
KI1
 10
542.77228933404058
 20
106.1746652678785
 30
0.0
 40
0.5
 50
180.0
 51
270.0
1001
GENIUS_GENODEF_13
1002
{
1000
HIER
1070
     0
1002
}
1002
{
1000
MANEDIT
1070
     0
1002
}
1002
{
1000
NOSEL
1070
     0
1002
}
1002
{
1000
BEHIND
1070
     0
1002
}
1002
{
1000
OTHER
1070
     0
1002
}
1002
{
1000
REACTOR
1002
}
1001
GENIUS_GENOBJ-N-FIL_13
1002
{
1000
OWNER
1000
GEN
1002
}
  0
LINE
  5
22C4C
  8
KI1
 10
544.27228933404137
 20
105.6746652678785
 30
0.0
 11
542.77228933404058
 21
105.6746652678785
 31
0.0
  0
ARC
  5
22C4D
  8
KI1
 10
539.12228933404128
 20
106.1746652678785
 30
0.0
 40
0.5
 50
180.0
 51
0.0
  0
LINE
  5
22C4E
  8
KI1
 10
530.32228933404133
 20
108.0746652678784
 30
0.0
 11
538.30807577166809
 21
108.0746652678784
 31
0.0
  0
LINE
  5
22C4F
  8
KI1
 10
528.92228933428555
 20
107.7746652678784
 30
0.0
 11
529.22228933404108
 21
107.7746652678784
 31
0.0
  0
LINE
  5
22C50
  8
KI1
 10
528.77166055044211
 20
108.0746652678784
 30
0.0
 11
529.52228933404126
 21
108.0746652678784
 31
0.0
  0
ARC
  5
22C51
  8
KI1
 10
539.52228933404115
 20
109.1746652678785
 30
0.0
 40
0.3
 50
90.0
 51
180.0
  0
LINE
  5
22C52
  8
KI1
 10
539.92228933404067
 20
109.47466526787851
 30
0.0
 11
539.52228933404115
 21
109.47466526787851
 31
0.0
  0
LINE
  5
22C53
  8
KI1
 10
539.37228933404106
 20
108.4065672698777
 30
0.0
 11
540.82228933404065
 21
107.56940937955279
 31
0.0
  0
LINE
  5
22C54
  8
KI1
 10
539.92228933404067
 20
109.47466526787851
 30
0.0
 11
542.27228933404047
 21
108.1178921352828
 31
0.0
  0
ARC
  5
22C55
  8
KI1
 10
539.52228933404103
 20
108.66637489101301
 30
0.0
 40
0.3
 50
180.0
 51
239.99999999999989
1001
GENIUS_GENODEF_13
1002
{
1000
HIER
1070
     0
1002
}
1002
{
1000
MANEDIT
1070
     0
1002
}
1002
{
1000
NOSEL
1070
     0
1002
}
1002
{
1000
BEHIND
1070
     0
1002
}
1002
{
1000
OTHER
1070
     0
1002
}
1002
{
1000
REACTOR
1002
}
1001
GENIUS_GENOBJ-N-FIL_13
1002
{
1000
OWNER
1000
GEN
1002
}
  0
LINE
  5
22C56
  8
KI1
 10
539.22228933404097
 20
109.1746652678785
 30
0.0
 11
539.22228933404097
 21
108.66637489101301
 31
0.0
  0
LINE
  5
22C57
  8
KI1
 10
538.62228933404128
 20
107.7604517055053
 30
0.0
 11
538.30807577166809
 21
108.0746652678784
 31
0.0
  0
LINE
  5
22C58
  8
KI1
 10
539.22228933404131
 20
108.5746652678784
 30
0.0
 11
539.62228933404128
 21
108.1746652678785
 31
0.0
  0
LINE
  5
22C59
  8
KI1
 10
539.22228933404131
 20
109.2746652678784
 30
0.0
 11
539.22228933404131
 21
108.5746652678784
 31
0.0
  0
ARC
  5
22C5A
  8
KI1
 10
557.82228933403849
 20
107.4746652678912
 30
0.0
 40
0.3
 50
90.000000000052125
 51
180.0000000000521
1001
GENIUS_GENODEF_13
1002
{
1000
HIER
1070
     0
1002
}
1002
{
1000
MANEDIT
1070
     0
1002
}
1002
{
1000
NOSEL
1070
     0
1002
}
1002
{
1000
BEHIND
1070
     0
1002
}
1002
{
1000
OTHER
1070
     0
1002
}
1002
{
1000
REACTOR
1002
}
1001
GENIUS_GENOBJ-N-FIL_13
1002
{
1000
OWNER
1000
GEN
1002
}
  0
ARC
  5
22C5B
  8
KI1
 10
558.1222893337964
 20
107.0746652678784
 30
0.0
 40
0.7
 50
0.0
 51
90.0
1001
GENIUS_GENODEF_13
1002
{
1000
HIER
1070
     0
1002
}
1002
{
1000
MANEDIT
1070
     0
1002
}
1002
{
1000
NOSEL
1070
     0
1002
}
1002
{
1000
BEHIND
1070
     0
1002
}
1002
{
1000
OTHER
1070
     0
1002
}
1002
{
1000
REACTOR
1002
}
1001
GENIUS_GENOBJ-N-FIL_13
1002
{
1000
OWNER
1000
GEN
1002
}
  0
ARC
  5
22C5C
  8
KI1
 10
546.47228933404131
 20
107.1363966776605
 30
0.0
 40
0.5
 50
120.0000000000001
 51
180.0
  0
LINE
  5
22C5D
  8
KI1
 10
548.42228933404067
 20
106.1746652678785
 30
0.0
 11
548.42228933404067
 21
107.7604517055053
 31
0.0
  0
LINE
  5
22C5E
  8
KI1
 10
547.42228933404078
 20
108.1746652678785
 30
0.0
 11
547.42228933404078
 21
106.1746652678785
 31
0.0
  0
LINE
  5
22C5F
  8
KI1
 10
556.72228933404074
 20
108.0746652678784
 30
0.0
 11
556.72228933404062
 21
105.97466526787851
 31
0.0
  0
LINE
  5
22C60
  8
KI1
 10
557.52228933404058
 20
107.3746652678785
 30
0.0
 11
557.52228933404058
 21
108.0746652678784
 31
0.0
  0
LINE
  5
22C61
  8
KI1
 10
559.32228933379633
 20
107.1524905626068
 30
0.0
 11
558.27291811763985
 21
108.0746652678784
 31
0.0
  0
LINE
  5
22C62
  8
KI1
 10
557.92228933379647
 20
105.6746652678785
 30
0.0
 11
553.22228933404085
 21
105.6746652678783
 31
0.0
  0
ARC
  5
22C63
  8
KI1
 10
552.92228933404101
 20
105.6746652678783
 30
0.0
 40
0.2999999999999972
 50
179.99999999999349
 51
0.0000000000065138
  0
LINE
  5
22C64
  8
KI1
 10
552.62228933404106
 20
105.6746652678783
 30
0.0
 11
546.47228933404131
 21
105.6746652678785
 31
0.0
  0
ARC
  5
22C65
  8
KI1
 10
546.47228933404131
 20
106.1746652678785
 30
0.0
 40
0.5
 50
180.0
 51
270.0
  0
LINE
  5
22C66
  8
KI1
 10
545.97228933404131
 20
107.1363966776605
 30
0.0
 11
545.97228933404131
 21
106.1746652678785
 31
0.0
  0
ARC
  5
22C67
  8
KI1
 10
547.92228933404067
 20
106.1746652678785
 30
0.0
 40
0.5
 50
180.0
 51
0.0
  0
LINE
  5
22C68
  8
KI1
 10
557.74952864648628
 20
107.1178554397447
 30
0.0
 11
557.92228933379442
 21
107.07466526789131
 31
0.0
  0
LINE
  5
22C69
  8
KI1
 10
557.52228933403853
 20
107.474665267891
 30
0.0
 11
557.52228933403865
 21
107.4088981897776
 31
0.0
  0
ARC
  5
22C6A
  8
KI1
 10
557.82228933403849
 20
107.4088981897778
 30
0.0
 40
0.3
 50
180.0000000000521
 51
255.96375652388841
1001
GENIUS_GENODEF_13
1002
{
1000
HIER
1070
     0
1002
}
1002
{
1000
MANEDIT
1070
     0
1002
}
1002
{
1000
NOSEL
1070
     0
1002
}
1002
{
1000
BEHIND
1070
     0
1002
}
1002
{
1000
OTHER
1070
     0
1002
}
1002
{
1000
REACTOR
1002
}
1001
GENIUS_GENOBJ-N-FIL_13
1002
{
1000
OWNER
1000
GEN
1002
}
  0
LINE
  5
22C6B
  8
KI1
 10
557.92228933379647
 20
107.0746652678785
 30
0.0
 11
557.92228933379647
 21
105.6746652678785
 31
0.0
  0
LINE
  5
22C6C
  8
KI1
 10
558.82228933379645
 20
105.47466526787851
 30
0.0
 11
558.82228933379645
 21
107.0746652678784
 31
0.0
  0
LINE
  5
22C6D
  8
KI1
 10
560.24650837173203
 20
105.67466526736099
 30
0.0
 11
559.32228933379633
 21
106.4868577553887
 31
0.0
  0
ARC
  5
22C6E
  8
KI1
 10
557.47228933404051
 20
106.97466526787839
 30
0.0
 40
0.2
 50
340.99036605207033
 51
22.619864948040931
  0
LINE
  5
22C6F
  8
KI1
 10
557.52228933404035
 20
107.3746652678786
 30
0.0
 11
557.65690471865594
 21
107.0515883448015
 31
0.0
  0
LINE
  5
22C70
  8
KI1
 10
557.66138209823725
 20
106.90951984188131
 30
0.0
 11
557.30595249052055
 21
105.8770168492749
 31
0.0
  0
ARC
  5
22C71
  8
KI1
 10
557.02228933404035
 20
105.97466526787851
 30
0.0
 40
0.3
 50
180.0
 51
341.0044493372252
  0
LINE
  5
22C72
  8
KI1
 10
559.32228933379633
 20
106.4868577553887
 30
0.0
 11
559.32228933379633
 21
107.1524905626068
 31
0.0
  0
LINE
  5
22C73
  8
KI1
 10
561.52228933404069
 20
105.67466526736099
 30
0.0
 11
560.24650837173203
 21
105.67466526736099
 31
0.0
  0
LINE
  5
22C74
  8
KI1
 10
547.82228933404065
 20
109.2746652678784
 30
0.0
 11
558.42228933404078
 21
109.2746652678784
 31
0.0
  0
LINE
  5
22C75
  8
KI1
 10
556.72228933404074
 20
108.0746652678784
 30
0.0
 11
548.73650289641398
 21
108.0746652678784
 31
0.0
  0
ARC
  5
22C76
  8
KI1
 10
547.52228933404081
 20
109.1746652678785
 30
0.0
 40
0.3
 50
0.0
 51
90.0
  0
LINE
  5
22C77
  8
KI1
 10
547.1222893340414
 20
109.47466526787851
 30
0.0
 11
547.52228933404092
 21
109.47466526787851
 31
0.0
  0
LINE
  5
22C78
  8
KI1
 10
547.67228933404101
 20
108.4065672698777
 30
0.0
 11
546.22228933404119
 21
107.56940937955279
 31
0.0
  0
ARC
  5
22C79
  8
KI1
 10
547.52228933404103
 20
108.66637489101301
 30
0.0
 40
0.3
 50
299.99999999999972
 51
0.0
1001
GENIUS_GENODEF_13
1002
{
1000
HIER
1070
     0
1002
}
1002
{
1000
MANEDIT
1070
     0
1002
}
1002
{
1000
NOSEL
1070
     0
1002
}
1002
{
1000
BEHIND
1070
     0
1002
}
1002
{
1000
OTHER
1070
     0
1002
}
1002
{
1000
REACTOR
1002
}
1001
GENIUS_GENOBJ-N-FIL_13
1002
{
1000
OWNER
1000
GEN
1002
}
  0
LINE
  5
22C7A
  8
KI1
 10
547.82228933404099
 20
109.1746652678785
 30
0.0
 11
547.82228933404099
 21
108.66637489101301
 31
0.0
  0
LINE
  5
22C7B
  8
KI1
 10
548.42228933404067
 20
107.7604517055053
 30
0.0
 11
548.73650289641398
 21
108.0746652678784
 31
0.0
  0
LINE
  5
22C7C
  8
KI1
 10
547.82228933404065
 20
108.5746652678784
 30
0.0
 11
547.42228933404078
 21
108.1746652678785
 31
0.0
  0
LINE
  5
22C7D
  8
KI1
 10
547.82228933404065
 20
109.2746652678784
 30
0.0
 11
547.82228933404065
 21
108.5746652678784
 31
0.0
  0
LINE
  5
22C7E
  8
KI1
 10
558.1222893337964
 20
107.7746652678784
 30
0.0
 11
557.82228933404087
 21
107.7746652678784
 31
0.0
  0
LINE
  5
22C7F
  8
KI1
 10
558.27291811763985
 20
108.0746652678784
 30
0.0
 11
557.52228933404069
 21
108.0746652678784
 31
0.0
  0
ARC
  5
22C80
  8
KI1
 10
561.72228933404097
 20
105.1746652678785
 30
0.0
 40
0.3
 50
0.0
 51
90.0
1001
GENIUS_GENOBJ-N-FIL_13
1002
{
1000
OWNER
1000
GEN
1002
}
1001
GENIUS_GENODEF_13
1002
{
1000
HIER
1070
     0
1002
}
1002
{
1000
MANEDIT
1070
     0
1002
}
1002
{
1000
NOSEL
1070
     0
1002
}
1002
{
1000
BEHIND
1070
     0
1002
}
1002
{
1000
OTHER
1070
     0
1002
}
1002
{
1000
REACTOR
1002
}
  0
LINE
  5
22C81
  8
KI1
 10
562.02228933404103
 20
105.1746652678785
 30
0.0
 11
562.02228933404103
 21
104.47466526787851
 31
0.0
  0
LINE
  5
22C82
  8
KI1
 10
561.72228933404074
 20
106.2841697202627
 30
0.0
 11
561.72228933404074
 21
105.8746652673609
 31
0.0
  0
ARC
  5
22C83
  8
KI1
 10
561.52228933404069
 20
106.2841697202627
 30
0.0
 40
0.2
 50
0.0
 51
48.691385981385267
1001
GENIUS_GENODEF_13
1002
{
1000
HIER
1070
     0
1002
}
1002
{
1000
MANEDIT
1070
     0
1002
}
1002
{
1000
NOSEL
1070
     0
1002
}
1002
{
1000
BEHIND
1070
     0
1002
}
1002
{
1000
OTHER
1070
     0
1002
}
1002
{
1000
REACTOR
1002
}
1001
GENIUS_GENOBJ-N-FIL_13
1002
{
1000
OWNER
1000
GEN
1002
}
  0
LINE
  5
22EA1
  8
PH
 10
547.65243176540275
 20
650.58609980340555
 30
0.0
 11
717.65243176540196
 21
650.58609980340657
 31
0.0
  0
LINE
  5
22EA2
  8
PH
 10
717.65243176540196
 20
617.58609980340657
 30
0.0
 11
547.65243176540275
 21
617.58609980340555
 31
0.0
  0
LINE
  5
22EA3
  8
PH
 10
547.65243176540275
 20
650.586099803406
 30
0.0
 11
547.65243176540275
 21
617.586099803406
 31
0.0
  0
LINE
  5
22EA4
  8
KI2
 10
544.65243176540275
 20
633.33609980340611
 30
0.0
 11
682.6524317654023
 21
633.33609980340611
 31
0.0
  0
LINE
  5
22EA5
  8
KI2
 10
544.65243176540275
 20
653.086099803406
 30
0.0
 11
989.65243224126471
 21
653.086099803406
 31
0.0
  0
LINE
  5
22EA6
  8
KI2
 10
544.65243176540275
 20
635.83609980340646
 30
0.0
 11
682.6524317654023
 21
635.83609980340646
 31
0.0
  0
LINE
  5
22EA7
  8
PH
 10
717.65243176540196
 20
650.58609980340657
 30
0.0
 11
717.65243176540196
 21
617.58610075513184
 31
0.0
  0
LINE
  5
22EA8
  8
PH
 10
547.65243176540253
 20
614.58609980340566
 30
0.0
 11
717.65243176540196
 21
614.58609980340646
 31
0.0
  0
LINE
  5
22EA9
  8
PH
 10
717.65243176540196
 20
581.58609980340646
 30
0.0
 11
547.65243176540253
 21
581.58609980340555
 31
0.0
  0
LINE
  5
22EAA
  8
PH
 10
547.65243176540253
 20
614.58609980340611
 30
0.0
 11
547.65243176540253
 21
581.58609980340611
 31
0.0
  0
LINE
  5
22EAB
  8
KI2
 10
544.65243176540275
 20
596.33609980340543
 30
0.0
 11
817.65243327639143
 21
596.33609980340555
 31
0.0
  0
LINE
  5
22EAC
  8
KI2
 10
544.65243176540275
 20
598.836099803406
 30
0.0
 11
817.65243429177599
 21
598.836099803406
 31
0.0
  0
LINE
  5
22EAD
  8
KI1
 10
817.65243176540241
 20
614.58609980340646
 30
0.0
 11
987.65243176540253
 21
614.58609980340646
 31
0.0
  0
LINE
  5
22EAE
  8
KI1
 10
987.65243176540253
 20
614.58609980340646
 30
0.0
 11
987.65243176540253
 21
581.58610075513184
 31
0.0
  0
LINE
  5
22EAF
  8
KI1
 10
987.65243176540253
 20
581.58610075513184
 30
0.0
 11
817.65243176540241
 21
581.58610075513184
 31
0.0
  0
LINE
  5
22EB0
  8
KI1
 10
817.65243176540241
 20
581.58610075513184
 30
0.0
 11
817.65243176540241
 21
614.58609980340646
 31
0.0
  0
LINE
  5
22EB1
  8
PH
 10
717.65243176540196
 20
614.58609980340646
 30
0.0
 11
717.65243176540196
 21
581.58610075513184
 31
0.0
  0
LINE
  5
22EB2
  8
KI2
 10
544.65243176540275
 20
579.086099803406
 30
0.0
 11
989.65243224126471
 21
579.086099803406
 31
0.0
  0
LINE
  5
22EB3
  8
KI1
 10
682.6524317654023
 20
650.58609980340657
 30
0.0
 11
852.65243176540253
 21
650.58609980340657
 31
0.0
  0
LINE
  5
22EB4
  8
KI1
 10
852.65243176540253
 20
650.58609980340657
 30
0.0
 11
852.65243176540253
 21
617.58610075513184
 31
0.0
  0
LINE
  5
22EB5
  8
KI1
 10
852.65243176540253
 20
617.58610075513184
 30
0.0
 11
682.6524317654023
 21
617.58610075513184
 31
0.0
  0
LINE
  5
22EB6
  8
KI1
 10
682.6524317654023
 20
617.58610075513184
 30
0.0
 11
682.6524317654023
 21
650.58609980340657
 31
0.0
  0
LINE
  5
22EB7
  8
OS
 10
526.15243176540275
 20
690.08609980340361
 30
0.0
 11
480.15242931687379
 21
644.08603015970596
 31
0.0
  0
LINE
  5
22EB8
  8
OS
 10
480.15242931687379
 20
562.58609980340361
 30
0.0
 11
526.15243176540275
 21
562.58609980340361
 31
0.0
  0
LINE
  5
22EB9
  8
OS
 10
480.15242931687379
 20
560.58609980340361
 30
0.0
 11
538.65243176540275
 21
560.58609980340361
 31
0.0
  0
LINE
  5
22EBA
  8
OS
 10
480.15242931687379
 20
554.58609980340361
 30
0.0
 11
544.65243176540275
 21
554.58609980340361
 31
0.0
  0
LINE
  5
22EBB
  8
OS
 10
480.15242931687379
 20
631.08627326340456
 30
0.0
 11
526.15243176540275
 21
585.0860998034035
 31
0.0
  0
LINE
  5
22EBC
  8
OS
 10
480.15242931687379
 20
571.08609980340361
 30
0.0
 11
526.15243176540275
 21
571.08609980340361
 31
0.0
  0
LINE
  5
22EBD
  8
OS
 10
480.15242931687379
 20
573.08609980340361
 30
0.0
 11
526.15243176541094
 21
573.08609980340361
 31
0.0
  0
LINE
  5
22EBE
  8
OS
 10
480.15242931687379
 20
585.0860998034035
 30
0.0
 11
526.15243176541094
 21
585.0860998034035
 31
0.0
  0
LINE
  5
22EBF
  8
OS
 10
480.15242931687379
 20
712.58609980340361
 30
0.0
 11
705.15243176540218
 21
712.58609980340361
 31
0.0
  0
LINE
  5
22EC0
  8
OS
 10
480.15242931687379
 20
714.58609980340361
 30
0.0
 11
717.65243176540218
 21
714.58609980340384
 31
0.0
  0
LINE
  5
22EC1
  8
OS
 10
480.15242931687379
 20
720.58609980340361
 30
0.0
 11
723.6524317654023
 21
720.58609980340384
 31
0.0
  0
LINE
  5
22EC2
  8
OS
 10
480.15242931687379
 20
704.08609980340361
 30
0.0
 11
705.15243176540218
 21
704.08609980340384
 31
0.0
  0
LINE
  5
22EC3
  8
OS
 10
480.15242931687379
 20
702.08609980340361
 30
0.0
 11
705.15243176540218
 21
702.08609980340361
 31
0.0
  0
LINE
  5
22EC4
  8
OS
 10
480.15242931687379
 20
690.08609980340361
 30
0.0
 11
526.15243176540275
 21
690.08609980340361
 31
0.0
  0
LINE
  5
22EC5
  8
OS
 10
526.15243176540275
 20
672.0860998034035
 30
0.0
 11
705.15243176540218
 21
672.0860998034035
 31
0.0
  0
LINE
  5
22EC6
  8
OS
 10
526.15243176540275
 20
659.58609980340339
 30
0.0
 11
717.65243176540218
 21
659.5860998034035
 31
0.0
  0
LINE
  5
22EC7
  8
OS
 10
544.65243176540275
 20
653.58609980340327
 30
0.0
 11
723.6524317654023
 21
653.58609980340361
 31
0.0
  0
LINE
  5
22EC8
  8
OS
 10
526.15243176540275
 20
702.08609980340361
 30
0.0
 11
526.15243176540275
 21
560.58609980340361
 31
0.0
  0
LINE
  5
22EC9
  8
OS
 10
528.15243176540275
 20
659.58610180340497
 30
0.0
 11
528.15243176540275
 21
560.58609980340361
 31
0.0
  0
LINE
  5
22ECA
  8
OS
 10
538.65243176540275
 20
659.58609980340339
 30
0.0
 11
538.65243176540275
 21
560.58609980340361
 31
0.0
  0
LINE
  5
22ECB
  8
OS
 10
536.65243176540275
 20
659.58609980340339
 30
0.0
 11
536.65243176540275
 21
560.58609980340361
 31
0.0
  0
LINE
  5
22ECC
  8
OS
 10
544.65243176540275
 20
653.58609980340327
 30
0.0
 11
544.65243176540275
 21
554.58609980340361
 31
0.0
  0
LINE
  5
22ECD
  8
OS
 10
556.15243176540275
 20
702.08609980340361
 30
0.0
 11
556.15243176540275
 21
672.08609980340339
 31
0.0
  0
LINE
  5
22ECE
  8
OS
 10
556.15243176540275
 20
702.08609980340327
 30
0.0
 11
526.15243176540275
 21
672.08609980340339
 31
0.0
  0
LINE
  5
22ECF
  8
OS
 10
675.15243176540218
 20
702.08609980340361
 30
0.0
 11
675.15243176540218
 21
672.08609980340339
 31
0.0
  0
LINE
  5
22ED0
  8
OS
 10
675.15243176540218
 20
672.08609980340339
 30
0.0
 11
705.15243176540218
 21
702.08609980340327
 31
0.0
  0
LINE
  5
22ED1
  8
OS
 10
526.15243176540275
 20
670.08609980340327
 30
0.0
 11
705.15243176540218
 21
670.08609980340327
 31
0.0
  0
LINE
  5
22ED2
  8
OS
 10
526.15243176540275
 20
661.58609980340361
 30
0.0
 11
705.15243176540218
 21
661.58609980340361
 31
0.0
  0
LINE
  5
22ED3
  8
OS
 10
717.65243176540218
 20
659.5860998034035
 30
0.0
 11
717.65243176540218
 21
714.58609980340384
 31
0.0
  0
LINE
  5
22ED4
  8
OS
 10
723.6524317654023
 20
653.58609980340361
 30
0.0
 11
723.6524317654023
 21
720.58609980340384
 31
0.0
  0
LINE
  5
22ED5
  8
OS
 10
715.6524317654023
 20
659.5860998034035
 30
0.0
 11
715.6524317654023
 21
714.58609980340384
 31
0.0
  0
LINE
  5
22ED6
  8
OS
 10
705.15243176540218
 20
659.5860998034035
 30
0.0
 11
705.15243176540218
 21
714.58609980340384
 31
0.0
  0
LINE
  5
22ED7
  8
OS
 10
707.1524317654023
 20
659.5860998034035
 30
0.0
 11
707.1524317654023
 21
714.58609980340384
 31
0.0
  0
TEXT
  5
22ED8
  8
SU
 10
653.68468769328297
 20
738.46293652073575
 30
0.0
 40
7.9999999999999982
  1
巾木
 41
0.9
  0
LINE
  5
22ED9
  8
SU
 10
680.40402286570918
 20
721.30976685602354
 30
0.0
 11
681.83050016510617
 21
716.97644682234204
 31
0.0
  0
LINE
  5
22EDA
  8
SU
 10
679.07572865475288
 20
720.61289205439834
 30
0.0
 11
681.83050016510617
 21
716.97644682234204
 31
0.0
  0
LINE
  5
22EDB
  8
SU
 10
681.83050016510617
 20
716.97644682234204
 30
0.0
 11
679.73987576023114
 21
720.96132945521094
 31
0.0
  0
LINE
  5
22EDC
  8
SU
 10
679.73987576023114
 20
720.96132945521094
 30
0.0
 11
671.82208352041403
 21
736.05321909044937
 31
0.0
1001
ACAD
1000
DSTYLE
1002
{
1070
   371
1070
    13
1070
   176
1070
   256
1070
    41
1040
1.5
1070
   147
1040
1.0
1070
    77
1070
     0
1002
}
  0
LINE
  5
22EDD
  8
SU
 10
671.82208352041403
 20
736.05321909044937
 30
0.0
 11
650.46042083411407
 21
736.05321909044937
 31
0.0
1001
ACAD
1000
DSTYLE
1002
{
1070
   371
1070
    13
1070
   176
1070
   256
1070
    41
1040
1.5
1070
   147
1040
1.0
1070
    77
1070
     0
1002
}
  0
LINE
  5
22EE8
  8
PH
 10
987.65243176540162
 20
210.58610075513209
 30
0.0
 11
987.65243176540253
 21
410.5861007551315
 31
0.0
  0
LINE
  5
22EE9
  8
PH
 10
954.65243176540253
 20
410.5861007551315
 30
0.0
 11
954.65243176540162
 21
210.58610075513209
 31
0.0
  0
LINE
  5
22EEA
  8
PH
 10
987.65243176540196
 20
210.58610075513209
 30
0.0
 11
954.65243176540196
 21
210.58610075513209
 31
0.0
  0
LINE
  5
22EEB
  8
KI2
 10
952.65243271712961
 20
207.58610075513229
 30
0.0
 11
952.65243271712961
 21
579.086099803406
 31
0.0
  0
LINE
  5
22EEC
  8
KI2
 10
969.90243224126471
 20
207.58987097632971
 30
0.0
 11
969.90243224126471
 21
375.5898724873183
 31
0.0
  0
LINE
  5
22EED
  8
KI2
 10
989.65243224126516
 20
207.58610075513229
 30
0.0
 11
989.65243224126471
 21
653.086099803406
 31
0.0
  0
LINE
  5
22EEE
  8
KI2
 10
972.40243224126561
 20
207.58610075513229
 30
0.0
 11
972.40243224126561
 21
375.58610328150547
 31
0.0
  0
LINE
  5
22EEF
  8
KI1
 10
987.65243176540253
 20
375.58610075513189
 30
0.0
 11
987.65243176540253
 21
576.08610075513184
 31
0.0
  0
LINE
  5
22EF0
  8
KI1
 10
987.65243176540253
 20
576.08610075513184
 30
0.0
 11
954.65243271712779
 21
576.08610075513184
 31
0.0
  0
LINE
  5
22EF1
  8
KI1
 10
954.65243271712779
 20
576.08610075513184
 30
0.0
 11
954.65243271712779
 21
375.58610075513189
 31
0.0
  0
LINE
  5
22EF2
  8
KI1
 10
954.65243271712779
 20
375.58610075513189
 30
0.0
 11
987.65243176540253
 21
375.58610075513189
 31
0.0
  0
LINE
  5
22EF3
  8
PH
 10
987.65243176540253
 20
410.5861007551315
 30
0.0
 11
954.65243271712779
 21
410.5861007551315
 31
0.0
  0
LINE
  5
22EF4
  8
OS
 10
1039.1524317653989
 20
189.08610075513229
 30
0.0
 11
993.15236212170237
 21
143.08609830660339
 31
0.0
  0
LINE
  5
22EF5
  8
OS
 10
923.6524317653998
 20
143.08609830660339
 30
0.0
 11
923.6524317653998
 21
189.08610075513229
 31
0.0
  0
LINE
  5
22EF6
  8
OS
 10
921.6524317653998
 20
143.08609830660339
 30
0.0
 11
921.6524317653998
 21
201.58610075513229
 31
0.0
  0
LINE
  5
22EF7
  8
OS
 10
915.6524317653998
 20
143.08609830660339
 30
0.0
 11
915.6524317653998
 21
207.58610075513229
 31
0.0
  0
LINE
  5
22EF8
  8
OS
 10
980.15260522540075
 20
143.08609830660339
 30
0.0
 11
934.1524317653998
 21
189.08610075513229
 31
0.0
  0
LINE
  5
22EF9
  8
OS
 10
932.15243176539968
 20
143.08609830660339
 30
0.0
 11
932.15243176539968
 21
189.08610075513229
 31
0.0
  0
LINE
  5
22EFA
  8
OS
 10
934.1524317653998
 20
143.08609830660339
 30
0.0
 11
934.1524317653998
 21
189.08610075514039
 31
0.0
  0
LINE
  5
22EFB
  8
OS
 10
1049.6524317654
 20
143.08609830660339
 30
0.0
 11
1049.6524317654
 21
398.08610075513161
 31
0.0
  0
LINE
  5
22EFC
  8
OS
 10
1051.6524317654
 20
143.08609830660339
 30
0.0
 11
1051.6524317654
 21
410.5861007551315
 31
0.0
  0
LINE
  5
22EFD
  8
OS
 10
1057.6524317654
 20
143.08609830660339
 30
0.0
 11
1057.6524317654
 21
416.58610075513161
 31
0.0
  0
LINE
  5
22EFE
  8
OS
 10
1041.1524317653989
 20
143.08609830660339
 30
0.0
 11
1041.1524317653989
 21
398.08610075513161
 31
0.0
  0
LINE
  5
22EFF
  8
OS
 10
1039.1524317653989
 20
143.08609830660339
 30
0.0
 11
1039.1524317653989
 21
398.08610075513161
 31
0.0
  0
LINE
  5
22F00
  8
OS
 10
1009.1524317654
 20
189.08610075513229
 30
0.0
 11
1009.1524317654
 21
398.08610075513161
 31
0.0
  0
LINE
  5
22F01
  8
OS
 10
996.6524317653998
 20
189.08610075513229
 30
0.0
 11
996.6524317653998
 21
410.5861007551315
 31
0.0
  0
LINE
  5
22F02
  8
OS
 10
990.6524317653998
 20
207.58610075513229
 30
0.0
 11
990.6524317653998
 21
416.58610075513161
 31
0.0
  0
LINE
  5
22F03
  8
OS
 10
1039.1524317653989
 20
189.08610075513229
 30
0.0
 11
921.6524317653998
 21
189.08610075513229
 31
0.0
  0
LINE
  5
22F04
  8
OS
 10
996.65243376540138
 20
191.08610075513201
 30
0.0
 11
921.6524317653998
 21
191.08610075513229
 31
0.0
  0
LINE
  5
22F05
  8
OS
 10
996.6524317653998
 20
201.58610075513209
 30
0.0
 11
921.6524317653998
 21
201.58610075513229
 31
0.0
  0
LINE
  5
22F06
  8
OS
 10
996.6524317653998
 20
199.58610075513209
 30
0.0
 11
921.6524317653998
 21
199.58610075513229
 31
0.0
  0
LINE
  5
22F07
  8
OS
 10
990.6524317653998
 20
207.58610075513229
 30
0.0
 11
915.6524317653998
 21
207.58610075513229
 31
0.0
  0
LINE
  5
22F08
  8
OS
 10
1039.1524317653989
 20
219.08610075513229
 30
0.0
 11
1009.1524317654
 21
219.08610075513229
 31
0.0
  0
LINE
  5
22F09
  8
OS
 10
1039.1524317653989
 20
219.08610075513229
 30
0.0
 11
1009.1524317654
 21
189.08610075513229
 31
0.0
  0
LINE
  5
22F0A
  8
OS
 10
1039.1524317653989
 20
368.08610075513161
 30
0.0
 11
1009.1524317654
 21
368.08610075513161
 31
0.0
  0
LINE
  5
22F0B
  8
OS
 10
1009.1524317654
 20
368.08610075513161
 30
0.0
 11
1039.1524317653989
 21
398.08610075513161
 31
0.0
  0
LINE
  5
22F0C
  8
OS
 10
1007.152431765399
 20
189.08610075513229
 30
0.0
 11
1007.152431765399
 21
398.08610075513161
 31
0.0
  0
LINE
  5
22F0D
  8
OS
 10
998.6524317653998
 20
189.08610075513229
 30
0.0
 11
998.6524317653998
 21
398.08610075513161
 31
0.0
  0
LINE
  5
22F0E
  8
OS
 10
996.6524317653998
 20
410.5861007551315
 30
0.0
 11
1051.6524317654
 21
410.5861007551315
 31
0.0
  0
LINE
  5
22F0F
  8
OS
 10
990.6524317653998
 20
416.58610075513161
 30
0.0
 11
1057.6524317654
 21
416.58610075513161
 31
0.0
  0
LINE
  5
22F10
  8
OS
 10
996.6524317653998
 20
408.58610075513161
 30
0.0
 11
1051.6524317654
 21
408.58610075513161
 31
0.0
  0
LINE
  5
22F11
  8
OS
 10
996.6524317653998
 20
398.08610075513161
 30
0.0
 11
1051.6524317654
 21
398.08610075513161
 31
0.0
  0
LINE
  5
22F12
  8
OS
 10
996.6524317653998
 20
400.08610075513161
 30
0.0
 11
1051.6524317654
 21
400.08610075513161
 31
0.0
  0
LINE
  5
22F14
  8
PH
 10
979.352433930855
 20
410.58610871737159
 30
0.0
 11
978.65243393085518
 21
410.58610871737159
 31
0.0
  0
LINE
  5
22F15
  8
PH
 10
979.352433930855
 20
416.5861047525359
 30
0.0
 11
979.352433930855
 21
410.58610871737159
 31
0.0
  0
LINE
  5
22F16
  8
PH
 10
978.65243393085518
 20
416.5861047525359
 30
0.0
 11
978.65243393085518
 21
410.58610871737159
 31
0.0
  0
LINE
  5
22F17
  8
PH
 10
963.65243393085484
 20
410.58610339869819
 30
0.0
 11
962.95243393085514
 21
410.5861032294676
 31
0.0
  0
LINE
  5
22F18
  8
PH
 10
962.95243393085514
 20
410.5861032294676
 30
0.0
 11
962.95243248030545
 21
416.58610402726111
 31
0.0
  0
LINE
  5
22F19
  8
PH
 10
963.65243393085484
 20
410.58610339869819
 30
0.0
 11
963.65243248030527
 21
416.58610419649199
 31
0.0
  0
LINE
  5
22F1A
  8
PH
 10
965.95243248030556
 20
419.5861047525359
 30
0.0
 11
976.35243393085511
 21
419.5861047525359
 31
0.0
  0
LINE
  5
22F1B
  8
PH
 10
965.95243248030556
 20
418.8861047525358
 30
0.0
 11
976.35243393085511
 21
418.8861047525358
 31
0.0
  0
ARC
  5
22F1C
  8
PH
 10
976.35243393085511
 20
416.58610475253579
 30
0.0
 40
3.0
 50
0.0
 51
90.0
1001
GENIUS_GENODEF_13
1002
{
1000
HIER
1070
     0
1002
}
1002
{
1000
MANEDIT
1070
     0
1002
}
1002
{
1000
NOSEL
1070
     0
1002
}
1002
{
1000
BEHIND
1070
     0
1002
}
1002
{
1000
OTHER
1070
     0
1002
}
1002
{
1000
REACTOR
1002
}
1001
GENIUS_GENOBJ-N-FIL_13
1002
{
1000
OWNER
1000
GEN
1002
}
  0
ARC
  5
22F1D
  8
PH
 10
976.35243393085511
 20
416.58610475253579
 30
0.0
 40
2.2999999999999989
 50
0.0
 51
90.0
1001
GENIUS_GENODEF_13
1002
{
1000
HIER
1070
     0
1002
}
1002
{
1000
MANEDIT
1070
     0
1002
}
1002
{
1000
NOSEL
1070
     0
1002
}
1002
{
1000
BEHIND
1070
     0
1002
}
1002
{
1000
OTHER
1070
     0
1002
}
1002
{
1000
REACTOR
1002
}
1001
GENIUS_GENOBJ-N-FIL_13
1002
{
1000
OWNER
1000
GEN
1002
}
  0
ARC
  5
22F1E
  8
PH
 10
965.95243248030556
 20
416.58610475253579
 30
0.0
 40
3.0
 50
90.0
 51
180.000013851727
1001
GENIUS_GENODEF_13
1002
{
1000
HIER
1070
     0
1002
}
1002
{
1000
MANEDIT
1070
     0
1002
}
1002
{
1000
NOSEL
1070
     0
1002
}
1002
{
1000
BEHIND
1070
     0
1002
}
1002
{
1000
OTHER
1070
     0
1002
}
1002
{
1000
REACTOR
1002
}
1001
GENIUS_GENOBJ-N-FIL_13
1002
{
1000
OWNER
1000
GEN
1002
}
  0
ARC
  5
22F1F
  8
PH
 10
965.95243248030556
 20
416.58610475253579
 30
0.0
 40
2.2999999999999989
 50
90.0
 51
180.000013851727
1001
GENIUS_GENODEF_13
1002
{
1000
HIER
1070
     0
1002
}
1002
{
1000
MANEDIT
1070
     0
1002
}
1002
{
1000
NOSEL
1070
     0
1002
}
1002
{
1000
BEHIND
1070
     0
1002
}
1002
{
1000
OTHER
1070
     0
1002
}
1002
{
1000
REACTOR
1002
}
1001
GENIUS_GENOBJ-N-FIL_13
1002
{
1000
OWNER
1000
GEN
1002
}
  0
TEXT
  5
22F20
  8
SU
 10
1047.1527251924269
 20
435.69852747453967
 30
0.0
 40
7.9999999999999982
  1
巾木
 41
0.9
  0
LINE
  5
22F21
  8
SU
 10
1037.6016842309559
 20
417.84848300820249
 30
0.0
 11
1034.8469127206031
 21
414.21203777614602
 31
0.0
  0
LINE
  5
22F22
  8
SU
 10
1036.2733900200001
 20
418.54535780982741
 30
0.0
 11
1034.8469127206031
 21
414.21203777614602
 31
0.0
  0
LINE
  5
22F23
  8
SU
 10
1034.8469127206031
 20
414.21203777614602
 30
0.0
 11
1036.937537125478
 21
418.19692040901498
 31
0.0
  0
LINE
  5
22F24
  8
SU
 10
1036.937537125478
 20
418.19692040901498
 30
0.0
 11
1044.8553293652949
 21
433.28881004425352
 31
0.0
1001
ACAD
1000
DSTYLE
1002
{
1070
   371
1070
    13
1070
   176
1070
   256
1070
    41
1040
1.5
1070
   147
1040
1.0
1070
    77
1070
     0
1002
}
  0
LINE
  5
22F25
  8
SU
 10
1044.8553293652949
 20
433.28881004425352
 30
0.0
 11
1066.2169920515951
 21
433.28881004425352
 31
0.0
1001
ACAD
1000
DSTYLE
1002
{
1070
   371
1070
    13
1070
   176
1070
   256
1070
    41
1040
1.5
1070
   147
1040
1.0
1070
    77
1070
     0
1002
}
  0
LINE
  5
22F26
  8
KI2
 10
852.65243176540253
 20
633.33609980340611
 30
0.0
 11
986.65243224126471
 21
633.33609980340611
 31
0.0
  0
LINE
  5
22F27
  8
KI2
 10
852.65243176540253
 20
635.83609980340646
 30
0.0
 11
986.65243224126471
 21
635.83609980340646
 31
0.0
  0
LINE
  5
22F2B
  8
KI2
 10
986.65243224126471
 20
579.086099803406
 30
0.0
 11
986.65243224126471
 21
581.58610075513184
 31
0.0
  0
LINE
  5
22F2C
  8
KI2
 10
952.65243271712961
 20
576.08609980340589
 30
0.0
 11
989.65243224126471
 21
576.08609980340589
 31
0.0
  0
LINE
  5
22F2D
  8
KI2
 10
986.65243224126471
 20
614.58609980340646
 30
0.0
 11
986.65243224126471
 21
653.086099803406
 31
0.0
  0
LINE
  5
22F38
  8
KI2
 10
979.352433930855
 20
576.08610871737187
 30
0.0
 11
978.65243393085495
 21
576.08610871737187
 31
0.0
  0
LINE
  5
22F39
  8
KI2
 10
979.352433930855
 20
582.08610475253613
 30
0.0
 11
979.352433930855
 21
576.08610871737187
 31
0.0
  0
LINE
  5
22F3A
  8
KI2
 10
978.65243393085495
 20
582.08610475253613
 30
0.0
 11
978.65243393085495
 21
576.08610871737187
 31
0.0
  0
LINE
  5
22F3B
  8
KI2
 10
963.65243393085473
 20
576.08610339869847
 30
0.0
 11
962.95243393085491
 21
576.08610322946788
 31
0.0
  0
LINE
  5
22F3C
  8
KI2
 10
962.95243393085491
 20
576.08610322946788
 30
0.0
 11
962.95243248030511
 21
582.0861040272614
 31
0.0
  0
LINE
  5
22F3D
  8
KI2
 10
963.65243393085473
 20
576.08610339869847
 30
0.0
 11
963.65243248030527
 21
582.08610419649222
 31
0.0
  0
LINE
  5
22F3E
  8
KI2
 10
965.95243248030533
 20
585.08610475253613
 30
0.0
 11
976.35243393085489
 21
585.08610475253613
 31
0.0
  0
LINE
  5
22F3F
  8
KI2
 10
965.95243248030533
 20
584.38610475253597
 30
0.0
 11
976.35243393085489
 21
584.38610475253597
 31
0.0
  0
ARC
  5
22F40
  8
KI2
 10
976.35243393085489
 20
582.08610475253613
 30
0.0
 40
3.0
 50
0.0
 51
90.0
1001
GENIUS_GENODEF_13
1002
{
1000
HIER
1070
     0
1002
}
1002
{
1000
MANEDIT
1070
     0
1002
}
1002
{
1000
NOSEL
1070
     0
1002
}
1002
{
1000
BEHIND
1070
     0
1002
}
1002
{
1000
OTHER
1070
     0
1002
}
1002
{
1000
REACTOR
1002
}
1001
GENIUS_GENOBJ-N-FIL_13
1002
{
1000
OWNER
1000
GEN
1002
}
  0
ARC
  5
22F41
  8
KI2
 10
976.35243393085489
 20
582.08610475253613
 30
0.0
 40
2.2999999999999989
 50
0.0
 51
90.0
1001
GENIUS_GENODEF_13
1002
{
1000
HIER
1070
     0
1002
}
1002
{
1000
MANEDIT
1070
     0
1002
}
1002
{
1000
NOSEL
1070
     0
1002
}
1002
{
1000
BEHIND
1070
     0
1002
}
1002
{
1000
OTHER
1070
     0
1002
}
1002
{
1000
REACTOR
1002
}
1001
GENIUS_GENOBJ-N-FIL_13
1002
{
1000
OWNER
1000
GEN
1002
}
  0
ARC
  5
22F42
  8
KI2
 10
965.95243248030533
 20
582.08610475253613
 30
0.0
 40
3.0
 50
90.0
 51
180.000013851727
1001
GENIUS_GENODEF_13
1002
{
1000
HIER
1070
     0
1002
}
1002
{
1000
MANEDIT
1070
     0
1002
}
1002
{
1000
NOSEL
1070
     0
1002
}
1002
{
1000
BEHIND
1070
     0
1002
}
1002
{
1000
OTHER
1070
     0
1002
}
1002
{
1000
REACTOR
1002
}
1001
GENIUS_GENOBJ-N-FIL_13
1002
{
1000
OWNER
1000
GEN
1002
}
  0
ARC
  5
22F43
  8
KI2
 10
965.95243248030533
 20
582.08610475253613
 30
0.0
 40
2.2999999999999989
 50
90.0
 51
180.000013851727
1001
GENIUS_GENODEF_13
1002
{
1000
HIER
1070
     0
1002
}
1002
{
1000
MANEDIT
1070
     0
1002
}
1002
{
1000
NOSEL
1070
     0
1002
}
1002
{
1000
BEHIND
1070
     0
1002
}
1002
{
1000
OTHER
1070
     0
1002
}
1002
{
1000
REACTOR
1002
}
1001
GENIUS_GENOBJ-N-FIL_13
1002
{
1000
OWNER
1000
GEN
1002
}
  0
LINE
  5
24894
  8
SU
 10
678.02234631674423
 20
113.4746652678779
 30
0.0
 11
678.02234631674423
 21
104.47466526787851
 31
0.0
  0
LINE
  5
24897
  8
SU
 10
704.02234631681483
 20
390.47466526678369
 30
0.0
 11
698.02234631681483
 21
400.47466526678357
 31
0.0
  0
LINE
  5
24898
  8
SU
 10
692.02234631681483
 20
390.47466526678369
 30
0.0
 11
698.02234631681483
 21
400.47466526678357
 31
0.0
  0
LINE
  5
24899
  8
SU
 10
704.02234631681483
 20
390.47466526678369
 30
0.0
 11
692.02234631681483
 21
390.47466526678369
 31
0.0
  0
LINE
  5
2489A
  8
SU
 10
698.06298308355542
 20
400.40693732221638
 30
0.0
 11
697.98170955007436
 21
400.40693732221638
 31
0.0
  0
LINE
  5
2489B
  8
SU
 10
698.18298308355531
 20
400.20693732221662
 30
0.0
 11
697.86170955007447
 21
400.20693732221662
 31
0.0
  0
LINE
  5
2489C
  8
SU
 10
698.30298308355543
 20
400.00693732221629
 30
0.0
 11
697.74170955007446
 21
400.00693732221629
 31
0.0
  0
LINE
  5
2489D
  8
SU
 10
698.42298308355532
 20
399.80693732221653
 30
0.0
 11
697.62170955007434
 21
399.80693732221653
 31
0.0
  0
LINE
  5
2489E
  8
SU
 10
698.54298308355521
 20
399.60693732221631
 30
0.0
 11
697.50170955007445
 21
399.60693732221631
 31
0.0
  0
LINE
  5
2489F
  8
SU
 10
698.66298308355533
 20
399.40693732221638
 30
0.0
 11
697.38170955007445
 21
399.40693732221638
 31
0.0
  0
LINE
  5
248A0
  8
SU
 10
698.78298308355545
 20
399.20693732221662
 30
0.0
 11
697.26170955007444
 21
399.20693732221662
 31
0.0
  0
LINE
  5
248A1
  8
SU
 10
698.90298308355534
 20
399.0069373222164
 30
0.0
 11
697.14170955007432
 21
399.0069373222164
 31
0.0
  0
LINE
  5
248A2
  8
SU
 10
699.02298308355523
 20
398.80693732221653
 30
0.0
 11
697.02170955007443
 21
398.80693732221653
 31
0.0
  0
LINE
  5
248A3
  8
SU
 10
699.14298308355512
 20
398.60693732221631
 30
0.0
 11
696.90170955007454
 21
398.60693732221631
 31
0.0
  0
LINE
  5
248A4
  8
SU
 10
699.26298308355547
 20
398.40693732221649
 30
0.0
 11
696.78170955007442
 21
398.40693732221649
 31
0.0
  0
LINE
  5
248A5
  8
SU
 10
699.38298308355525
 20
398.20693732221662
 30
0.0
 11
696.66170955007431
 21
398.20693732221662
 31
0.0
  0
LINE
  5
248A6
  8
SU
 10
699.50298308355525
 20
398.0069373222164
 30
0.0
 11
696.54170955007442
 21
398.0069373222164
 31
0.0
  0
LINE
  5
248A7
  8
SU
 10
699.62298308355525
 20
397.80693732221653
 30
0.0
 11
696.42170955007452
 21
397.80693732221653
 31
0.0
  0
LINE
  5
248A8
  8
SU
 10
699.74298308355515
 20
397.60693732221631
 30
0.0
 11
696.30170955007429
 21
397.60693732221631
 31
0.0
  0
LINE
  5
248A9
  8
SU
 10
699.86298308355538
 20
397.40693732221638
 30
0.0
 11
696.18170955007452
 21
397.40693732221638
 31
0.0
  0
LINE
  5
248AA
  8
SU
 10
699.98298308355515
 20
397.20693732221662
 30
0.0
 11
696.0617095500744
 21
397.20693732221662
 31
0.0
  0
LINE
  5
248AB
  8
SU
 10
700.10298308355539
 20
397.00693732221629
 30
0.0
 11
695.94170955007451
 21
397.00693732221629
 31
0.0
  0
LINE
  5
248AC
  8
SU
 10
700.22298308355528
 20
396.80693732221653
 30
0.0
 11
695.82170955007427
 21
396.80693732221653
 31
0.0
  0
LINE
  5
248AD
  8
SU
 10
700.34298308355528
 20
396.60693732221631
 30
0.0
 11
695.7017095500745
 21
396.60693732221631
 31
0.0
  0
LINE
  5
248AE
  8
SU
 10
700.46298308355517
 20
396.40693732221638
 30
0.0
 11
695.58170955007427
 21
396.40693732221638
 31
0.0
  0
LINE
  5
248AF
  8
SU
 10
700.58298308355506
 20
396.20693732221662
 30
0.0
 11
695.46170955007437
 21
396.20693732221662
 31
0.0
  0
LINE
  5
248B0
  8
SU
 10
700.7029830835553
 20
396.0069373222164
 30
0.0
 11
695.34170955007437
 21
396.0069373222164
 31
0.0
  0
LINE
  5
248B1
  8
SU
 10
700.82298308355541
 20
395.80693732221653
 30
0.0
 11
695.22170955007448
 21
395.80693732221653
 31
0.0
  0
LINE
  5
248B2
  8
SU
 10
700.9429830835553
 20
395.60693732221631
 30
0.0
 11
695.10170955007425
 21
395.60693732221631
 31
0.0
  0
LINE
  5
248B3
  8
SU
 10
701.06298308355542
 20
395.40693732221638
 30
0.0
 11
694.98170955007436
 21
395.40693732221638
 31
0.0
  0
LINE
  5
248B4
  8
SU
 10
701.1829830835552
 20
395.20693732221662
 30
0.0
 11
694.86170955007447
 21
395.20693732221662
 31
0.0
  0
LINE
  5
248B5
  8
SU
 10
701.30298308355543
 20
395.00693732221629
 30
0.0
 11
694.74170955007435
 21
395.00693732221629
 31
0.0
  0
LINE
  5
248B6
  8
SU
 10
701.42298308355532
 20
394.80693732221653
 30
0.0
 11
694.62170955007434
 21
394.80693732221653
 31
0.0
  0
LINE
  5
248B7
  8
SU
 10
701.54298308355521
 20
394.60693732221631
 30
0.0
 11
694.50170955007445
 21
394.60693732221631
 31
0.0
  0
LINE
  5
248B8
  8
SU
 10
701.66298308355533
 20
394.40693732221638
 30
0.0
 11
694.38170955007456
 21
394.40693732221638
 31
0.0
  0
LINE
  5
248B9
  8
SU
 10
701.78298308355545
 20
394.20693732221662
 30
0.0
 11
694.26170955007444
 21
394.20693732221662
 31
0.0
  0
LINE
  5
248BA
  8
SU
 10
701.90298308355534
 20
394.0069373222164
 30
0.0
 11
694.14170955007432
 21
394.0069373222164
 31
0.0
  0
LINE
  5
248BB
  8
SU
 10
702.02298308355523
 20
393.80693732221653
 30
0.0
 11
694.02170955007443
 21
393.80693732221653
 31
0.0
  0
LINE
  5
248BC
  8
SU
 10
702.14298308355501
 20
393.60693732221631
 30
0.0
 11
693.90170955007454
 21
393.60693732221631
 31
0.0
  0
LINE
  5
248BD
  8
SU
 10
702.26298308355547
 20
393.40693732221638
 30
0.0
 11
693.78170955007442
 21
393.40693732221638
 31
0.0
  0
LINE
  5
248BE
  8
SU
 10
702.38298308355525
 20
393.20693732221662
 30
0.0
 11
693.66170955007431
 21
393.20693732221662
 31
0.0
  0
LINE
  5
248BF
  8
SU
 10
702.50298308355525
 20
393.00693732221629
 30
0.0
 11
693.54170955007442
 21
393.00693732221629
 31
0.0
  0
LINE
  5
248C0
  8
SU
 10
702.62298308355525
 20
392.80693732221653
 30
0.0
 11
693.42170955007452
 21
392.80693732221653
 31
0.0
  0
LINE
  5
248C1
  8
SU
 10
702.74298308355515
 20
392.6069373222162
 30
0.0
 11
693.30170955007441
 21
392.6069373222162
 31
0.0
  0
LINE
  5
248C2
  8
SU
 10
702.86298308355526
 20
392.40693732221649
 30
0.0
 11
693.18170955007452
 21
392.40693732221649
 31
0.0
  0
LINE
  5
248C3
  8
SU
 10
702.98298308355515
 20
392.20693732221662
 30
0.0
 11
693.0617095500744
 21
392.20693732221662
 31
0.0
  0
LINE
  5
248C4
  8
SU
 10
703.10298308355539
 20
392.0069373222164
 30
0.0
 11
692.94170955007451
 21
392.0069373222164
 31
0.0
  0
LINE
  5
248C5
  8
SU
 10
703.22298308355528
 20
391.80693732221653
 30
0.0
 11
692.82170955007439
 21
391.80693732221653
 31
0.0
  0
LINE
  5
248C6
  8
SU
 10
703.3429830835554
 20
391.60693732221631
 30
0.0
 11
692.7017095500745
 21
391.60693732221631
 31
0.0
  0
LINE
  5
248C7
  8
SU
 10
703.46298308355529
 20
391.40693732221638
 30
0.0
 11
692.58170955007427
 21
391.40693732221638
 31
0.0
  0
LINE
  5
248C8
  8
SU
 10
703.58298308355518
 20
391.20693732221662
 30
0.0
 11
692.46170955007437
 21
391.20693732221662
 31
0.0
  0
LINE
  5
248C9
  8
SU
 10
703.70298308355518
 20
391.00693732221629
 30
0.0
 11
692.34170955007426
 21
391.00693732221629
 31
0.0
  0
LINE
  5
248CA
  8
SU
 10
703.82298308355541
 20
390.80693732221653
 30
0.0
 11
692.22170955007437
 21
390.80693732221653
 31
0.0
  0
LINE
  5
248CB
  8
SU
 10
703.9429830835553
 20
390.6069373222162
 30
0.0
 11
692.10170955007436
 21
390.6069373222162
 31
0.0
  0
LINE
  5
248CC
  8
SU
 10
704.02234631681461
 20
114.47466526787851
 30
0.0
 11
698.02234631681461
 21
104.47466526787851
 31
0.0
  0
LINE
  5
248CD
  8
SU
 10
692.02234631681461
 20
114.47466526787851
 30
0.0
 11
698.02234631681461
 21
104.47466526787851
 31
0.0
  0
LINE
  5
248CE
  8
SU
 10
704.02234631681461
 20
114.47466526787851
 30
0.0
 11
692.02234631681461
 21
114.47466526787851
 31
0.0
  0
LINE
  5
248CF
  8
SU
 10
698.06298308355508
 20
104.5423932124457
 30
0.0
 11
697.98170955007424
 21
104.5423932124457
 31
0.0
  0
LINE
  5
248D0
  8
SU
 10
698.18298308355497
 20
104.74239321244551
 30
0.0
 11
697.86170955007435
 21
104.74239321244551
 31
0.0
  0
LINE
  5
248D1
  8
SU
 10
698.3029830835552
 20
104.94239321244579
 30
0.0
 11
697.74170955007423
 21
104.94239321244579
 31
0.0
  0
LINE
  5
248D2
  8
SU
 10
698.4229830835551
 20
105.1423932124456
 30
0.0
 11
697.62170955007412
 21
105.1423932124456
 31
0.0
  0
LINE
  5
248D3
  8
SU
 10
698.54298308355487
 20
105.3423932124459
 30
0.0
 11
697.50170955007422
 21
105.3423932124459
 31
0.0
  0
LINE
  5
248D4
  8
SU
 10
698.6629830835551
 20
105.5423932124457
 30
0.0
 11
697.38170955007433
 21
105.5423932124457
 31
0.0
  0
LINE
  5
248D5
  8
SU
 10
698.78298308355511
 20
105.74239321244551
 30
0.0
 11
697.26170955007422
 21
105.74239321244551
 31
0.0
  0
LINE
  5
248D6
  8
SU
 10
698.902983083555
 20
105.94239321244579
 30
0.0
 11
697.1417095500741
 21
105.94239321244579
 31
0.0
  0
LINE
  5
248D7
  8
SU
 10
699.02298308355489
 20
106.1423932124456
 30
0.0
 11
697.02170955007421
 21
106.1423932124456
 31
0.0
  0
LINE
  5
248D8
  8
SU
 10
699.14298308355478
 20
106.3423932124459
 30
0.0
 11
696.90170955007432
 21
106.3423932124459
 31
0.0
  0
LINE
  5
248D9
  8
SU
 10
699.26298308355524
 20
106.5423932124457
 30
0.0
 11
696.78170955007408
 21
106.5423932124457
 31
0.0
  0
LINE
  5
248DA
  8
SU
 10
699.38298308355513
 20
106.74239321244551
 30
0.0
 11
696.66170955007397
 21
106.74239321244551
 31
0.0
  0
LINE
  5
248DB
  8
SU
 10
699.50298308355502
 20
106.94239321244579
 30
0.0
 11
696.54170955007407
 21
106.94239321244579
 31
0.0
  0
LINE
  5
248DC
  8
SU
 10
699.62298308355514
 20
107.1423932124456
 30
0.0
 11
696.42170955007418
 21
107.1423932124456
 31
0.0
  0
LINE
  5
248DD
  8
SU
 10
699.74298308355503
 20
107.3423932124459
 30
0.0
 11
696.30170955007418
 21
107.3423932124459
 31
0.0
  0
LINE
  5
248DE
  8
SU
 10
699.86298308355515
 20
107.5423932124457
 30
0.0
 11
696.18170955007429
 21
107.5423932124457
 31
0.0
  0
LINE
  5
248DF
  8
SU
 10
699.98298308355504
 20
107.74239321244551
 30
0.0
 11
696.06170955007406
 21
107.74239321244551
 31
0.0
  0
LINE
  5
248E0
  8
SU
 10
700.10298308355505
 20
107.94239321244579
 30
0.0
 11
695.94170955007417
 21
107.94239321244579
 31
0.0
  0
LINE
  5
248E1
  8
SU
 10
700.22298308355505
 20
108.1423932124456
 30
0.0
 11
695.82170955007405
 21
108.1423932124456
 31
0.0
  0
LINE
  5
248E2
  8
SU
 10
700.34298308355517
 20
108.3423932124459
 30
0.0
 11
695.70170955007416
 21
108.3423932124459
 31
0.0
  0
LINE
  5
248E3
  8
SU
 10
700.46298308355506
 20
108.5423932124457
 30
0.0
 11
695.58170955007415
 21
108.5423932124457
 31
0.0
  0
LINE
  5
248E4
  8
SU
 10
700.58298308355495
 20
108.74239321244551
 30
0.0
 11
695.46170955007426
 21
108.74239321244551
 31
0.0
  0
LINE
  5
248E5
  8
SU
 10
700.70298308355495
 20
108.94239321244579
 30
0.0
 11
695.34170955007414
 21
108.94239321244579
 31
0.0
  0
LINE
  5
248E6
  8
SU
 10
700.82298308355519
 20
109.1423932124456
 30
0.0
 11
695.22170955007425
 21
109.1423932124456
 31
0.0
  0
LINE
  5
248E7
  8
SU
 10
700.94298308355496
 20
109.3423932124459
 30
0.0
 11
695.10170955007413
 21
109.3423932124459
 31
0.0
  0
LINE
  5
248E8
  8
SU
 10
701.0629830835552
 20
109.5423932124457
 30
0.0
 11
694.98170955007424
 21
109.5423932124457
 31
0.0
  0
LINE
  5
248E9
  8
SU
 10
701.18298308355509
 20
109.74239321244551
 30
0.0
 11
694.86170955007435
 21
109.74239321244551
 31
0.0
  0
LINE
  5
248EA
  8
SU
 10
701.30298308355509
 20
109.94239321244579
 30
0.0
 11
694.74170955007423
 21
109.94239321244579
 31
0.0
  0
LINE
  5
248EB
  8
SU
 10
701.42298308355498
 20
110.1423932124456
 30
0.0
 11
694.62170955007412
 21
110.1423932124456
 31
0.0
  0
LINE
  5
248EC
  8
SU
 10
701.54298308355487
 20
110.3423932124459
 30
0.0
 11
694.50170955007422
 21
110.3423932124459
 31
0.0
  0
LINE
  5
248ED
  8
SU
 10
701.6629830835551
 20
110.5423932124457
 30
0.0
 11
694.38170955007433
 21
110.5423932124457
 31
0.0
  0
LINE
  5
248EE
  8
SU
 10
701.78298308355522
 20
110.74239321244551
 30
0.0
 11
694.26170955007422
 21
110.74239321244551
 31
0.0
  0
LINE
  5
248EF
  8
SU
 10
701.90298308355511
 20
110.94239321244579
 30
0.0
 11
694.1417095500741
 21
110.94239321244579
 31
0.0
  0
LINE
  5
248F0
  8
SU
 10
702.022983083555
 20
111.1423932124456
 30
0.0
 11
694.02170955007421
 21
111.1423932124456
 31
0.0
  0
LINE
  5
248F1
  8
SU
 10
702.1429830835549
 20
111.3423932124459
 30
0.0
 11
693.90170955007432
 21
111.3423932124459
 31
0.0
  0
LINE
  5
248F2
  8
SU
 10
702.26298308355524
 20
111.5423932124457
 30
0.0
 11
693.7817095500742
 21
111.5423932124457
 31
0.0
  0
LINE
  5
248F3
  8
SU
 10
702.38298308355513
 20
111.74239321244551
 30
0.0
 11
693.66170955007397
 21
111.74239321244551
 31
0.0
  0
LINE
  5
248F4
  8
SU
 10
702.50298308355502
 20
111.94239321244579
 30
0.0
 11
693.54170955007407
 21
111.94239321244579
 31
0.0
  0
LINE
  5
248F5
  8
SU
 10
702.62298308355514
 20
112.1423932124456
 30
0.0
 11
693.42170955007418
 21
112.1423932124456
 31
0.0
  0
LINE
  5
248F6
  8
SU
 10
702.74298308355503
 20
112.3423932124459
 30
0.0
 11
693.30170955007407
 21
112.3423932124459
 31
0.0
  0
LINE
  5
248F7
  8
SU
 10
702.86298308355515
 20
112.5423932124457
 30
0.0
 11
693.18170955007417
 21
112.5423932124457
 31
0.0
  0
LINE
  5
248F8
  8
SU
 10
702.98298308355504
 20
112.74239321244551
 30
0.0
 11
693.06170955007417
 21
112.74239321244551
 31
0.0
  0
LINE
  5
248F9
  8
SU
 10
703.10298308355505
 20
112.94239321244579
 30
0.0
 11
692.94170955007428
 21
112.94239321244579
 31
0.0
  0
LINE
  5
248FA
  8
SU
 10
703.22298308355505
 20
113.1423932124456
 30
0.0
 11
692.82170955007405
 21
113.1423932124456
 31
0.0
  0
LINE
  5
248FB
  8
SU
 10
703.34298308355505
 20
113.3423932124459
 30
0.0
 11
692.70170955007416
 21
113.3423932124459
 31
0.0
  0
LINE
  5
248FC
  8
SU
 10
703.46298308355495
 20
113.5423932124457
 30
0.0
 11
692.58170955007415
 21
113.5423932124457
 31
0.0
  0
LINE
  5
248FD
  8
SU
 10
703.58298308355495
 20
113.74239321244551
 30
0.0
 11
692.46170955007415
 21
113.74239321244551
 31
0.0
  0
LINE
  5
248FE
  8
SU
 10
703.70298308355507
 20
113.94239321244579
 30
0.0
 11
692.34170955007414
 21
113.94239321244579
 31
0.0
  0
LINE
  5
248FF
  8
SU
 10
703.82298308355507
 20
114.1423932124456
 30
0.0
 11
692.22170955007425
 21
114.1423932124456
 31
0.0
  0
LINE
  5
24900
  8
SU
 10
703.94298308355496
 20
114.3423932124459
 30
0.0
 11
692.10170955007413
 21
114.3423932124459
 31
0.0
  0
LINE
  5
24901
  8
SU
 10
564.87228176736585
 20
359.97466526678357
 30
0.0
 11
661.02234631681381
 21
359.97466526678352
 31
0.0
  0
LINE
  5
24902
  8
SU
 10
658.02234631681381
 20
363.47466605125129
 30
0.0
 11
658.02234631681381
 21
359.97466526678352
 31
0.0
  0
LINE
  5
24903
  8
SU
 10
658.02234631681381
 20
359.97466526678352
 30
0.0
 11
658.02234631681381
 21
335.60133193345018
 31
0.0
  0
LINE
  5
24907
  8
SU
 10
564.07228176134572
 20
372.97466526678357
 30
0.0
 11
681.02234631681495
 21
372.97466526678357
 31
0.0
  0
LINE
  5
24908
  8
SU
 10
678.02234631681495
 20
400.47466526678357
 30
0.0
 11
678.02234631681495
 21
372.97466526678357
 31
0.0
  0
LINE
  5
2490C
  8
SU
 10
678.02234631681495
 20
372.97466526678357
 30
0.0
 11
678.02234631681495
 21
363.47466605125129
 31
0.0
  0
LINE
  5
2490D
  8
SU
 10
678.02234631681495
 20
363.47466605125129
 30
0.0
 11
678.02234631681495
 21
339.10133271791801
 31
0.0
  0
LINE
  5
2490F
  8
SU
 10
548.52228933404092
 20
109.47466526787851
 30
0.0
 11
661.02234631681483
 21
109.47466526787851
 31
0.0
  0
LINE
  5
24910
  8
SU
 10
658.02234631681483
 20
109.47466526787851
 30
0.0
 11
658.02234631681483
 21
104.47466526787851
 31
0.0
  0
LINE
  5
24911
  8
SU
 10
658.02234631681483
 20
104.47466526787851
 30
0.0
 11
658.02234631681483
 21
88.401331934545212
 31
0.0
  0
LINE
  5
24915
  8
SU
 10
639.02234631681483
 20
400.47466526678357
 30
0.0
 11
701.02234631681472
 21
400.47466526678357
 31
0.0
  0
LINE
  5
24916
  8
SU
 10
639.02234631681483
 20
104.47466526787851
 30
0.0
 11
701.02234631681461
 21
104.47466526787851
 31
0.0
  0
LINE
  5
24917
  8
SU
 10
698.02234631681472
 20
400.47466526678357
 30
0.0
 11
698.02234631681461
 21
104.47466526787851
 31
0.0
  0
LINE
  5
24919
  8
SU
 10
561.02228933404183
 20
113.47466526787851
 30
0.0
 11
681.02234631681483
 21
113.47466526787851
 31
0.0
  0
LINE
  5
2491A
  8
SU
 10
561.02228933397259
 20
363.47466605125129
 30
0.0
 11
681.02234631681495
 21
363.47466605125129
 31
0.0
  0
LINE
  5
2491B
  8
SU
 10
678.02234631681483
 20
113.47466526787851
 30
0.0
 11
678.02234631681495
 21
363.47466605125129
 31
0.0
  0
LINE
  5
2491F
  8
SU
 10
332.35885588565702
 20
113.4746652678779
 30
0.0
 11
332.35885588565702
 21
104.47466526787851
 31
0.0
  0
LINE
  5
24922
  8
SU
 10
358.35885588572762
 20
390.47466526678369
 30
0.0
 11
352.35885588572762
 21
400.47466526678357
 31
0.0
  0
LINE
  5
24923
  8
SU
 10
346.35885588572762
 20
390.47466526678369
 30
0.0
 11
352.35885588572762
 21
400.47466526678357
 31
0.0
  0
LINE
  5
24924
  8
SU
 10
358.35885588572762
 20
390.47466526678369
 30
0.0
 11
346.35885588572762
 21
390.47466526678369
 31
0.0
  0
LINE
  5
24925
  8
SU
 10
352.39949265246821
 20
400.40693732221638
 30
0.0
 11
352.31821911898732
 21
400.40693732221638
 31
0.0
  0
LINE
  5
24926
  8
SU
 10
352.5194926524681
 20
400.20693732221662
 30
0.0
 11
352.19821911898742
 21
400.20693732221662
 31
0.0
  0
LINE
  5
24927
  8
SU
 10
352.63949265246822
 20
400.00693732221629
 30
0.0
 11
352.07821911898719
 21
400.00693732221629
 31
0.0
  0
LINE
  5
24928
  8
SU
 10
352.75949265246811
 20
399.80693732221653
 30
0.0
 11
351.95821911898707
 21
399.80693732221653
 31
0.0
  0
LINE
  5
24929
  8
SU
 10
352.879492652468
 20
399.60693732221631
 30
0.0
 11
351.83821911898718
 21
399.60693732221631
 31
0.0
  0
LINE
  5
2492A
  8
SU
 10
352.99949265246812
 20
399.40693732221638
 30
0.0
 11
351.71821911898741
 21
399.40693732221638
 31
0.0
  0
LINE
  5
2492B
  8
SU
 10
353.11949265246818
 20
399.20693732221662
 30
0.0
 11
351.59821911898717
 21
399.20693732221662
 31
0.0
  0
LINE
  5
2492C
  8
SU
 10
353.23949265246807
 20
399.0069373222164
 30
0.0
 11
351.47821911898711
 21
399.0069373222164
 31
0.0
  0
LINE
  5
2492D
  8
SU
 10
353.35949265246802
 20
398.80693732221653
 30
0.0
 11
351.35821911898722
 21
398.80693732221653
 31
0.0
  0
LINE
  5
2492E
  8
SU
 10
353.47949265246791
 20
398.60693732221631
 30
0.0
 11
351.23821911898727
 21
398.60693732221631
 31
0.0
  0
LINE
  5
2492F
  8
SU
 10
353.59949265246831
 20
398.40693732221649
 30
0.0
 11
351.11821911898721
 21
398.40693732221649
 31
0.0
  0
LINE
  5
24930
  8
SU
 10
353.71949265246809
 20
398.20693732221662
 30
0.0
 11
350.99821911898709
 21
398.20693732221662
 31
0.0
  0
LINE
  5
24931
  8
SU
 10
353.83949265246798
 20
398.0069373222164
 30
0.0
 11
350.8782191189872
 21
398.0069373222164
 31
0.0
  0
LINE
  5
24932
  8
SU
 10
353.9594926524681
 20
397.80693732221653
 30
0.0
 11
350.75821911898731
 21
397.80693732221653
 31
0.0
  0
LINE
  5
24933
  8
SU
 10
354.07949265246799
 20
397.60693732221631
 30
0.0
 11
350.63821911898719
 21
397.60693732221631
 31
0.0
  0
LINE
  5
24934
  8
SU
 10
354.19949265246822
 20
397.40693732221638
 30
0.0
 11
350.5182191189873
 21
397.40693732221638
 31
0.0
  0
LINE
  5
24935
  8
SU
 10
354.31949265246811
 20
397.20693732221662
 30
0.0
 11
350.39821911898719
 21
397.20693732221662
 31
0.0
  0
LINE
  5
24936
  8
SU
 10
354.43949265246818
 20
397.00693732221629
 30
0.0
 11
350.27821911898729
 21
397.00693732221629
 31
0.0
  0
LINE
  5
24937
  8
SU
 10
354.55949265246812
 20
396.80693732221653
 30
0.0
 11
350.15821911898718
 21
396.80693732221653
 31
0.0
  0
LINE
  5
24938
  8
SU
 10
354.67949265246818
 20
396.60693732221631
 30
0.0
 11
350.03821911898729
 21
396.60693732221631
 31
0.0
  0
LINE
  5
24939
  8
SU
 10
354.79949265246807
 20
396.40693732221638
 30
0.0
 11
349.91821911898722
 21
396.40693732221638
 31
0.0
  0
LINE
  5
2493A
  8
SU
 10
354.91949265246802
 20
396.20693732221662
 30
0.0
 11
349.79821911898728
 21
396.20693732221662
 31
0.0
  0
LINE
  5
2493B
  8
SU
 10
355.03949265246808
 20
396.0069373222164
 30
0.0
 11
349.6782191189871
 21
396.0069373222164
 31
0.0
  0
LINE
  5
2493C
  8
SU
 10
355.1594926524682
 20
395.80693732221653
 30
0.0
 11
349.55821911898732
 21
395.80693732221653
 31
0.0
  0
LINE
  5
2493D
  8
SU
 10
355.27949265246809
 20
395.60693732221631
 30
0.0
 11
349.43821911898709
 21
395.60693732221631
 31
0.0
  0
LINE
  5
2493E
  8
SU
 10
355.39949265246821
 20
395.40693732221638
 30
0.0
 11
349.31821911898732
 21
395.40693732221638
 31
0.0
  0
LINE
  5
2493F
  8
SU
 10
355.5194926524681
 20
395.20693732221662
 30
0.0
 11
349.19821911898742
 21
395.20693732221662
 31
0.0
  0
LINE
  5
24940
  8
SU
 10
355.63949265246822
 20
395.00693732221629
 30
0.0
 11
349.07821911898731
 21
395.00693732221629
 31
0.0
  0
LINE
  5
24941
  8
SU
 10
355.75949265246811
 20
394.80693732221653
 30
0.0
 11
348.95821911898707
 21
394.80693732221653
 31
0.0
  0
LINE
  5
24942
  8
SU
 10
355.879492652468
 20
394.60693732221631
 30
0.0
 11
348.83821911898718
 21
394.60693732221631
 31
0.0
  0
LINE
  5
24943
  8
SU
 10
355.99949265246812
 20
394.40693732221638
 30
0.0
 11
348.71821911898729
 21
394.40693732221638
 31
0.0
  0
LINE
  5
24944
  8
SU
 10
356.11949265246818
 20
394.20693732221662
 30
0.0
 11
348.59821911898717
 21
394.20693732221662
 31
0.0
  0
LINE
  5
24945
  8
SU
 10
356.23949265246807
 20
394.0069373222164
 30
0.0
 11
348.47821911898711
 21
394.0069373222164
 31
0.0
  0
LINE
  5
24946
  8
SU
 10
356.35949265246802
 20
393.80693732221653
 30
0.0
 11
348.35821911898722
 21
393.80693732221653
 31
0.0
  0
LINE
  5
24947
  8
SU
 10
356.47949265246791
 20
393.60693732221631
 30
0.0
 11
348.23821911898739
 21
393.60693732221631
 31
0.0
  0
LINE
  5
24948
  8
SU
 10
356.59949265246831
 20
393.40693732221638
 30
0.0
 11
348.11821911898721
 21
393.40693732221638
 31
0.0
  0
LINE
  5
24949
  8
SU
 10
356.7194926524682
 20
393.20693732221662
 30
0.0
 11
347.99821911898709
 21
393.20693732221662
 31
0.0
  0
LINE
  5
2494A
  8
SU
 10
356.8394926524681
 20
393.00693732221629
 30
0.0
 11
347.8782191189872
 21
393.00693732221629
 31
0.0
  0
LINE
  5
2494B
  8
SU
 10
356.95949265246821
 20
392.80693732221653
 30
0.0
 11
347.75821911898731
 21
392.80693732221653
 31
0.0
  0
LINE
  5
2494C
  8
SU
 10
357.07949265246799
 20
392.6069373222162
 30
0.0
 11
347.63821911898719
 21
392.6069373222162
 31
0.0
  0
LINE
  5
2494D
  8
SU
 10
357.19949265246811
 20
392.40693732221649
 30
0.0
 11
347.5182191189873
 21
392.40693732221649
 31
0.0
  0
LINE
  5
2494E
  8
SU
 10
357.319492652468
 20
392.20693732221662
 30
0.0
 11
347.39821911898719
 21
392.20693732221662
 31
0.0
  0
LINE
  5
2494F
  8
SU
 10
357.43949265246818
 20
392.0069373222164
 30
0.0
 11
347.27821911898729
 21
392.0069373222164
 31
0.0
  0
LINE
  5
24950
  8
SU
 10
357.55949265246812
 20
391.80693732221653
 30
0.0
 11
347.15821911898718
 21
391.80693732221653
 31
0.0
  0
LINE
  5
24951
  8
SU
 10
357.67949265246818
 20
391.60693732221631
 30
0.0
 11
347.03821911898729
 21
391.60693732221631
 31
0.0
  0
LINE
  5
24952
  8
SU
 10
357.79949265246807
 20
391.40693732221638
 30
0.0
 11
346.91821911898722
 21
391.40693732221638
 31
0.0
  0
LINE
  5
24953
  8
SU
 10
357.91949265246802
 20
391.20693732221662
 30
0.0
 11
346.79821911898728
 21
391.20693732221662
 31
0.0
  0
LINE
  5
24954
  8
SU
 10
358.03949265246808
 20
391.00693732221629
 30
0.0
 11
346.67821911898722
 21
391.00693732221629
 31
0.0
  0
LINE
  5
24955
  8
SU
 10
358.1594926524682
 20
390.80693732221653
 30
0.0
 11
346.55821911898732
 21
390.80693732221653
 31
0.0
  0
LINE
  5
24956
  8
SU
 10
358.27949265246809
 20
390.6069373222162
 30
0.0
 11
346.43821911898721
 21
390.6069373222162
 31
0.0
  0
LINE
  5
24957
  8
SU
 10
358.35885588572739
 20
114.47466526787851
 30
0.0
 11
352.35885588572739
 21
104.47466526787851
 31
0.0
  0
LINE
  5
24958
  8
SU
 10
346.35885588572739
 20
114.47466526787851
 30
0.0
 11
352.35885588572739
 21
104.47466526787851
 31
0.0
  0
LINE
  5
24959
  8
SU
 10
358.35885588572739
 20
114.47466526787851
 30
0.0
 11
346.35885588572739
 21
114.47466526787851
 31
0.0
  0
LINE
  5
2495A
  8
SU
 10
352.39949265246798
 20
104.5423932124457
 30
0.0
 11
352.31821911898697
 21
104.5423932124457
 31
0.0
  0
LINE
  5
2495B
  8
SU
 10
352.51949265246787
 20
104.74239321244551
 30
0.0
 11
352.19821911898708
 21
104.74239321244551
 31
0.0
  0
LINE
  5
2495C
  8
SU
 10
352.63949265246799
 20
104.94239321244579
 30
0.0
 11
352.07821911898702
 21
104.94239321244579
 31
0.0
  0
LINE
  5
2495D
  8
SU
 10
352.75949265246788
 20
105.1423932124456
 30
0.0
 11
351.9582191189869
 21
105.1423932124456
 31
0.0
  0
LINE
  5
2495E
  8
SU
 10
352.87949265246777
 20
105.3423932124459
 30
0.0
 11
351.83821911898701
 21
105.3423932124459
 31
0.0
  0
LINE
  5
2495F
  8
SU
 10
352.99949265246789
 20
105.5423932124457
 30
0.0
 11
351.71821911898712
 21
105.5423932124457
 31
0.0
  0
LINE
  5
24960
  8
SU
 10
353.11949265246801
 20
105.74239321244551
 30
0.0
 11
351.598219118987
 21
105.74239321244551
 31
0.0
  0
LINE
  5
24961
  8
SU
 10
353.2394926524679
 20
105.94239321244579
 30
0.0
 11
351.47821911898689
 21
105.94239321244579
 31
0.0
  0
LINE
  5
24962
  8
SU
 10
353.35949265246779
 20
106.1423932124456
 30
0.0
 11
351.35821911898699
 21
106.1423932124456
 31
0.0
  0
LINE
  5
24963
  8
SU
 10
353.47949265246768
 20
106.3423932124459
 30
0.0
 11
351.2382191189871
 21
106.3423932124459
 31
0.0
  0
LINE
  5
24964
  8
SU
 10
353.59949265246797
 20
106.5423932124457
 30
0.0
 11
351.11821911898699
 21
106.5423932124457
 31
0.0
  0
LINE
  5
24965
  8
SU
 10
353.71949265246792
 20
106.74239321244551
 30
0.0
 11
350.99821911898692
 21
106.74239321244551
 31
0.0
  0
LINE
  5
24966
  8
SU
 10
353.83949265246781
 20
106.94239321244579
 30
0.0
 11
350.87821911898698
 21
106.94239321244579
 31
0.0
  0
LINE
  5
24967
  8
SU
 10
353.95949265246787
 20
107.1423932124456
 30
0.0
 11
350.75821911898709
 21
107.1423932124456
 31
0.0
  0
LINE
  5
24968
  8
SU
 10
354.07949265246782
 20
107.3423932124459
 30
0.0
 11
350.63821911898702
 21
107.3423932124459
 31
0.0
  0
LINE
  5
24969
  8
SU
 10
354.19949265246788
 20
107.5423932124457
 30
0.0
 11
350.51821911898708
 21
107.5423932124457
 31
0.0
  0
LINE
  5
2496A
  8
SU
 10
354.31949265246777
 20
107.74239321244551
 30
0.0
 11
350.39821911898702
 21
107.74239321244551
 31
0.0
  0
LINE
  5
2496B
  8
SU
 10
354.439492652468
 20
107.94239321244579
 30
0.0
 11
350.27821911898712
 21
107.94239321244579
 31
0.0
  0
LINE
  5
2496C
  8
SU
 10
354.5594926524679
 20
108.1423932124456
 30
0.0
 11
350.15821911898701
 21
108.1423932124456
 31
0.0
  0
LINE
  5
2496D
  8
SU
 10
354.6794926524679
 20
108.3423932124459
 30
0.0
 11
350.03821911898712
 21
108.3423932124459
 31
0.0
  0
LINE
  5
2496E
  8
SU
 10
354.79949265246779
 20
108.5423932124457
 30
0.0
 11
349.91821911898688
 21
108.5423932124457
 31
0.0
  0
LINE
  5
2496F
  8
SU
 10
354.91949265246768
 20
108.74239321244551
 30
0.0
 11
349.79821911898699
 21
108.74239321244551
 31
0.0
  0
LINE
  5
24970
  8
SU
 10
355.03949265246791
 20
108.94239321244579
 30
0.0
 11
349.67821911898687
 21
108.94239321244579
 31
0.0
  0
LINE
  5
24971
  8
SU
 10
355.15949265246797
 20
109.1423932124456
 30
0.0
 11
349.55821911898698
 21
109.1423932124456
 31
0.0
  0
LINE
  5
24972
  8
SU
 10
355.27949265246792
 20
109.3423932124459
 30
0.0
 11
349.43821911898692
 21
109.3423932124459
 31
0.0
  0
LINE
  5
24973
  8
SU
 10
355.39949265246798
 20
109.5423932124457
 30
0.0
 11
349.31821911898697
 21
109.5423932124457
 31
0.0
  0
LINE
  5
24974
  8
SU
 10
355.51949265246787
 20
109.74239321244551
 30
0.0
 11
349.1982191189872
 21
109.74239321244551
 31
0.0
  0
LINE
  5
24975
  8
SU
 10
355.63949265246799
 20
109.94239321244579
 30
0.0
 11
349.07821911898702
 21
109.94239321244579
 31
0.0
  0
LINE
  5
24976
  8
SU
 10
355.75949265246788
 20
110.1423932124456
 30
0.0
 11
348.9582191189869
 21
110.1423932124456
 31
0.0
  0
LINE
  5
24977
  8
SU
 10
355.87949265246777
 20
110.3423932124459
 30
0.0
 11
348.83821911898701
 21
110.3423932124459
 31
0.0
  0
LINE
  5
24978
  8
SU
 10
355.99949265246789
 20
110.5423932124457
 30
0.0
 11
348.71821911898712
 21
110.5423932124457
 31
0.0
  0
LINE
  5
24979
  8
SU
 10
356.11949265246801
 20
110.74239321244551
 30
0.0
 11
348.598219118987
 21
110.74239321244551
 31
0.0
  0
LINE
  5
2497A
  8
SU
 10
356.2394926524679
 20
110.94239321244579
 30
0.0
 11
348.47821911898689
 21
110.94239321244579
 31
0.0
  0
LINE
  5
2497B
  8
SU
 10
356.35949265246779
 20
111.1423932124456
 30
0.0
 11
348.35821911898699
 21
111.1423932124456
 31
0.0
  0
LINE
  5
2497C
  8
SU
 10
356.47949265246768
 20
111.3423932124459
 30
0.0
 11
348.2382191189871
 21
111.3423932124459
 31
0.0
  0
LINE
  5
2497D
  8
SU
 10
356.59949265246797
 20
111.5423932124457
 30
0.0
 11
348.11821911898699
 21
111.5423932124457
 31
0.0
  0
LINE
  5
2497E
  8
SU
 10
356.71949265246792
 20
111.74239321244551
 30
0.0
 11
347.99821911898692
 21
111.74239321244551
 31
0.0
  0
LINE
  5
2497F
  8
SU
 10
356.83949265246781
 20
111.94239321244579
 30
0.0
 11
347.87821911898698
 21
111.94239321244579
 31
0.0
  0
LINE
  5
24980
  8
SU
 10
356.95949265246799
 20
112.1423932124456
 30
0.0
 11
347.75821911898709
 21
112.1423932124456
 31
0.0
  0
LINE
  5
24981
  8
SU
 10
357.07949265246782
 20
112.3423932124459
 30
0.0
 11
347.63821911898702
 21
112.3423932124459
 31
0.0
  0
LINE
  5
24982
  8
SU
 10
357.19949265246788
 20
112.5423932124457
 30
0.0
 11
347.51821911898708
 21
112.5423932124457
 31
0.0
  0
LINE
  5
24983
  8
SU
 10
357.31949265246777
 20
112.74239321244551
 30
0.0
 11
347.39821911898702
 21
112.74239321244551
 31
0.0
  0
LINE
  5
24984
  8
SU
 10
357.43949265246789
 20
112.94239321244579
 30
0.0
 11
347.27821911898712
 21
112.94239321244579
 31
0.0
  0
LINE
  5
24985
  8
SU
 10
357.55949265246778
 20
113.1423932124456
 30
0.0
 11
347.15821911898689
 21
113.1423932124456
 31
0.0
  0
LINE
  5
24986
  8
SU
 10
357.67949265246801
 20
113.3423932124459
 30
0.0
 11
347.038219118987
 21
113.3423932124459
 31
0.0
  0
LINE
  5
24987
  8
SU
 10
357.7994926524679
 20
113.5423932124457
 30
0.0
 11
346.91821911898688
 21
113.5423932124457
 31
0.0
  0
LINE
  5
24988
  8
SU
 10
357.9194926524678
 20
113.74239321244551
 30
0.0
 11
346.79821911898711
 21
113.74239321244551
 31
0.0
  0
LINE
  5
24989
  8
SU
 10
358.03949265246791
 20
113.94239321244579
 30
0.0
 11
346.67821911898687
 21
113.94239321244579
 31
0.0
  0
LINE
  5
2498A
  8
SU
 10
358.15949265246797
 20
114.1423932124456
 30
0.0
 11
346.55821911898698
 21
114.1423932124456
 31
0.0
  0
LINE
  5
2498B
  8
SU
 10
358.27949265246792
 20
114.3423932124459
 30
0.0
 11
346.43821911898692
 21
114.3423932124459
 31
0.0
  0
LINE
  5
2498C
  8
SU
 10
231.20872795771911
 20
359.97466554293692
 30
0.0
 11
315.35885588572648
 21
359.97466554293692
 31
0.0
  0
LINE
  5
2498D
  8
SU
 10
312.3588558857266
 20
363.47466605125129
 30
0.0
 11
312.3588558857266
 21
359.97466554293692
 31
0.0
  0
LINE
  5
2498E
  8
SU
 10
312.3588558857266
 20
359.97466554293692
 30
0.0
 11
312.3588558857266
 21
335.60133220960358
 31
0.0
  0
LINE
  5
24992
  8
SU
 10
230.40872740541289
 20
372.97466550758929
 30
0.0
 11
335.35885588572768
 21
372.97466550758929
 31
0.0
  0
LINE
  5
24993
  8
SU
 10
332.35885588572768
 20
400.47466526678357
 30
0.0
 11
332.35885588572768
 21
372.97466550758929
 31
0.0
  0
LINE
  5
24997
  8
SU
 10
332.35885588572768
 20
372.97466550758929
 30
0.0
 11
332.35885588572768
 21
363.47466605125129
 31
0.0
  0
LINE
  5
24998
  8
SU
 10
332.35885588572768
 20
363.47466605125129
 30
0.0
 11
332.35885588572768
 21
339.10133271791801
 31
0.0
  0
LINE
  5
2499A
  8
SU
 10
215.35879133627799
 20
109.47466526787851
 30
0.0
 11
315.35885588572762
 21
109.47466526787851
 31
0.0
  0
LINE
  5
2499B
  8
SU
 10
312.35885588572762
 20
109.47466526787851
 30
0.0
 11
312.35885588572762
 21
104.47466526787851
 31
0.0
  0
LINE
  5
2499C
  8
SU
 10
312.35885588572762
 20
104.47466526787851
 30
0.0
 11
312.35885588572762
 21
88.401331934545226
 31
0.0
  0
LINE
  5
249A0
  8
SU
 10
293.35885588572762
 20
400.47466526678357
 30
0.0
 11
355.35885588572751
 21
400.47466526678357
 31
0.0
  0
LINE
  5
249A1
  8
SU
 10
293.35885588572762
 20
104.47466526787851
 30
0.0
 11
355.35885588572739
 21
104.47466526787851
 31
0.0
  0
LINE
  5
249A2
  8
SU
 10
352.35885588572751
 20
400.47466526678357
 30
0.0
 11
352.35885588572739
 21
104.47466526787851
 31
0.0
  0
LINE
  5
249A4
  8
SU
 10
227.35879133620949
 20
113.47466526787829
 30
0.0
 11
335.35885588572762
 21
113.47466526787829
 31
0.0
  0
LINE
  5
249A5
  8
SU
 10
227.35878255459701
 20
363.47466605125129
 30
0.0
 11
335.35885588572768
 21
363.47466605125129
 31
0.0
  0
LINE
  5
249A6
  8
SU
 10
332.35885588572762
 20
113.47466526787829
 30
0.0
 11
332.35885588572768
 21
363.47466605125129
 31
0.0
  0
LINE
  5
249AA
  8
SU
 10
193.35878376967219
 20
330.04201422665642
 30
0.0
 11
193.35878376967219
 21
310.47466526678352
 31
0.0
  0
LINE
  5
249AB
  8
SU
 10
226.35879133627881
 20
330.04201413176258
 30
0.0
 11
226.35879133627881
 21
310.47466526678352
 31
0.0
  0
LINE
  5
249AC
  8
SU
 10
193.35878376967219
 20
313.47466526678352
 30
0.0
 11
226.35879133627881
 21
313.47466526678352
 31
0.0
  0
LINE
  5
249B0
  8
SU
 10
987.65243176540253
 20
446.58610075513161
 30
0.0
 11
996.6524317653998
 21
446.58610075513161
 31
0.0
  0
LINE
  5
249B4
  8
SU
 10
987.65243176540196
 20
411.5861007551315
 30
0.0
 11
987.65243176540196
 21
449.58610075513161
 31
0.0
  0
LINE
  5
249B5
  8
SU
 10
954.65243176540253
 20
411.5861007551315
 30
0.0
 11
954.65243176540253
 21
449.58610075513161
 31
0.0
  0
LINE
  5
249B6
  8
SU
 10
987.65243176540196
 20
446.58610075513161
 30
0.0
 11
954.65243176540253
 21
446.58610075513161
 31
0.0
  0
LINE
  5
249BA
  8
SU
 10
1086.6961116036071
 20
576.08610075513184
 30
0.0
 11
1086.6961116036071
 21
579.086099803406
 31
0.0
  0
LINE
  5
249BE
  8
SU
 10
987.65243176540253
 20
732.5491131071592
 30
0.0
 11
978.0524317654025
 21
732.5491131071592
 31
0.0
  0
LINE
  5
249BF
  8
SU
 10
989.65243224126471
 20
732.5491131071592
 30
0.0
 11
999.25243224126473
 21
732.5491131071592
 31
0.0
  0
LINE
  5
249C1
  8
SU
 10
987.65243176540253
 20
732.5491131071592
 30
0.0
 11
989.65243224126471
 21
732.5491131071592
 31
0.0
  0
LINE
  5
249C3
  8
SU
 10
988.65243176540253
 20
581.58610075513184
 30
0.0
 11
1089.6961116036071
 21
581.58610075513184
 31
0.0
  0
LINE
  5
249C4
  8
SU
 10
1086.6961116036071
 20
579.086099803406
 30
0.0
 11
1086.6961116036071
 21
569.48609980340598
 31
0.0
  0
LINE
  5
249C5
  8
SU
 10
1086.6961116036071
 20
581.58610075513184
 30
0.0
 11
1086.6961116036071
 21
615.55943408846508
 31
0.0
  0
LINE
  5
249C6
  8
SU
 10
1086.6961116036071
 20
579.086099803406
 30
0.0
 11
1086.6961116036071
 21
581.58610075513184
 31
0.0
  0
LINE
  5
249CA
  8
SU
 10
988.65243176540253
 20
375.58610075513189
 30
0.0
 11
1089.6961116036059
 21
375.58610075513189
 31
0.0
  0
LINE
  5
249CB
  8
SU
 10
988.65243176540253
 20
576.08610075513184
 30
0.0
 11
1089.6961116036071
 21
576.08610075513184
 31
0.0
  0
LINE
  5
249CC
  8
SU
 10
1086.6961116036059
 20
375.58610075513189
 30
0.0
 11
1086.6961116036071
 21
576.08610075513184
 31
0.0
  0
LINE
  5
249D0
  8
SU
 10
989.65243224126471
 20
654.086099803406
 30
0.0
 11
989.65243224126471
 21
755.24077860380396
 31
0.0
  0
LINE
  5
249D1
  8
SU
 10
989.65243224126471
 20
752.24077860380407
 30
0.0
 11
996.6524317653998
 21
752.24077860380407
 31
0.0
  0
LINE
  5
249D4
  8
SU
 10
718.6524317654023
 20
659.5860998034035
 30
0.0
 11
1129.6961116036071
 21
659.5860998034035
 31
0.0
  0
LINE
  5
249D5
  8
SU
 10
997.6524317653998
 20
201.58610075513209
 30
0.0
 11
1129.6961116036071
 21
201.58610075513209
 31
0.0
  0
LINE
  5
249D6
  8
SU
 10
1126.6961116036071
 20
659.5860998034035
 30
0.0
 11
1126.6961116036071
 21
201.58610075513209
 31
0.0
  0
LINE
  5
249DA
  8
SU
 10
990.65243224126459
 20
579.086099803406
 30
0.0
 11
1109.6961116036071
 21
579.086099803406
 31
0.0
  0
LINE
  5
249DB
  8
SU
 10
1106.6961116036071
 20
659.58609980340373
 30
0.0
 11
1106.6961116036071
 21
579.086099803406
 31
0.0
  0
LINE
  5
249DE
  8
SU
 10
538.65243176540343
 20
660.58609980340327
 30
0.0
 11
538.65243176540343
 21
775.24077860380396
 31
0.0
  0
LINE
  5
249DF
  8
SU
 10
996.6524317653998
 20
411.5861007551315
 30
0.0
 11
996.6524317653998
 21
775.24077860380396
 31
0.0
  0
LINE
  5
249E0
  8
SU
 10
538.65243176540343
 20
772.24077860380407
 30
0.0
 11
996.6524317653998
 21
772.24077860380407
 31
0.0
  0
LINE
  5
249E4
  8
SU
 10
1112.6961116036071
 20
569.086099803406
 30
0.0
 11
1106.6961116036071
 21
579.086099803406
 31
0.0
  0
LINE
  5
249E5
  8
SU
 10
1100.6961116036071
 20
569.086099803406
 30
0.0
 11
1106.6961116036071
 21
579.086099803406
 31
0.0
  0
LINE
  5
249E6
  8
SU
 10
1112.6961116036071
 20
569.086099803406
 30
0.0
 11
1100.6961116036071
 21
569.086099803406
 31
0.0
  0
LINE
  5
249E7
  8
SU
 10
1106.736748370347
 20
579.01837185883869
 30
0.0
 11
1106.655474836866
 21
579.01837185883869
 31
0.0
  0
LINE
  5
249E8
  8
SU
 10
1106.8567483703471
 20
578.81837185883887
 30
0.0
 11
1106.5354748368659
 21
578.81837185883887
 31
0.0
  0
LINE
  5
249E9
  8
SU
 10
1106.976748370347
 20
578.61837185883871
 30
0.0
 11
1106.415474836866
 21
578.61837185883871
 31
0.0
  0
LINE
  5
249EA
  8
SU
 10
1107.0967483703471
 20
578.4183718588389
 30
0.0
 11
1106.2954748368661
 21
578.4183718588389
 31
0.0
  0
LINE
  5
249EB
  8
SU
 10
1107.216748370347
 20
578.21837185883851
 30
0.0
 11
1106.175474836866
 21
578.21837185883851
 31
0.0
  0
LINE
  5
249EC
  8
SU
 10
1107.3367483703471
 20
578.01837185883869
 30
0.0
 11
1106.0554748368661
 21
578.01837185883869
 31
0.0
  0
LINE
  5
249ED
  8
SU
 10
1107.456748370347
 20
577.81837185883887
 30
0.0
 11
1105.935474836866
 21
577.81837185883887
 31
0.0
  0
LINE
  5
249EE
  8
SU
 10
1107.5767483703471
 20
577.61837185883871
 30
0.0
 11
1105.8154748368661
 21
577.61837185883871
 31
0.0
  0
LINE
  5
249EF
  8
SU
 10
1107.696748370347
 20
577.41837185883878
 30
0.0
 11
1105.695474836866
 21
577.41837185883878
 31
0.0
  0
LINE
  5
249F0
  8
SU
 10
1107.8167483703471
 20
577.21837185883862
 30
0.0
 11
1105.5754748368661
 21
577.21837185883862
 31
0.0
  0
LINE
  5
249F1
  8
SU
 10
1107.936748370347
 20
577.0183718588388
 30
0.0
 11
1105.455474836866
 21
577.0183718588388
 31
0.0
  0
LINE
  5
249F2
  8
SU
 10
1108.0567483703469
 20
576.81837185883899
 30
0.0
 11
1105.3354748368661
 21
576.81837185883899
 31
0.0
  0
LINE
  5
249F3
  8
SU
 10
1108.176748370347
 20
576.6183718588386
 30
0.0
 11
1105.215474836866
 21
576.6183718588386
 31
0.0
  0
LINE
  5
249F4
  8
SU
 10
1108.2967483703469
 20
576.41837185883878
 30
0.0
 11
1105.0954748368661
 21
576.41837185883878
 31
0.0
  0
LINE
  5
249F5
  8
SU
 10
1108.416748370347
 20
576.21837185883862
 30
0.0
 11
1104.9754748368659
 21
576.21837185883862
 31
0.0
  0
LINE
  5
249F6
  8
SU
 10
1108.5367483703469
 20
576.0183718588388
 30
0.0
 11
1104.8554748368661
 21
576.0183718588388
 31
0.0
  0
LINE
  5
249F7
  8
SU
 10
1108.656748370347
 20
575.81837185883899
 30
0.0
 11
1104.7354748368659
 21
575.81837185883899
 31
0.0
  0
LINE
  5
249F8
  8
SU
 10
1108.7767483703469
 20
575.61837185883871
 30
0.0
 11
1104.615474836866
 21
575.61837185883871
 31
0.0
  0
LINE
  5
249F9
  8
SU
 10
1108.896748370347
 20
575.4183718588389
 30
0.0
 11
1104.4954748368659
 21
575.4183718588389
 31
0.0
  0
LINE
  5
249FA
  8
SU
 10
1109.0167483703469
 20
575.21837185883862
 30
0.0
 11
1104.375474836866
 21
575.21837185883862
 31
0.0
  0
LINE
  5
249FB
  8
SU
 10
1109.136748370347
 20
575.01837185883869
 30
0.0
 11
1104.2554748368659
 21
575.01837185883869
 31
0.0
  0
LINE
  5
249FC
  8
SU
 10
1109.2567483703469
 20
574.81837185883887
 30
0.0
 11
1104.135474836866
 21
574.81837185883887
 31
0.0
  0
LINE
  5
249FD
  8
SU
 10
1109.3767483703471
 20
574.61837185883871
 30
0.0
 11
1104.0154748368659
 21
574.61837185883871
 31
0.0
  0
LINE
  5
249FE
  8
SU
 10
1109.4967483703469
 20
574.4183718588389
 30
0.0
 11
1103.895474836866
 21
574.4183718588389
 31
0.0
  0
LINE
  5
249FF
  8
SU
 10
1109.6167483703471
 20
574.21837185883851
 30
0.0
 11
1103.7754748368659
 21
574.21837185883851
 31
0.0
  0
LINE
  5
24A00
  8
SU
 10
1109.736748370347
 20
574.01837185883869
 30
0.0
 11
1103.655474836866
 21
574.01837185883869
 31
0.0
  0
LINE
  5
24A01
  8
SU
 10
1109.8567483703471
 20
573.81837185883887
 30
0.0
 11
1103.5354748368659
 21
573.81837185883887
 31
0.0
  0
LINE
  5
24A02
  8
SU
 10
1109.976748370347
 20
573.61837185883871
 30
0.0
 11
1103.415474836866
 21
573.61837185883871
 31
0.0
  0
LINE
  5
24A03
  8
SU
 10
1110.0967483703471
 20
573.4183718588389
 30
0.0
 11
1103.2954748368661
 21
573.4183718588389
 31
0.0
  0
LINE
  5
24A04
  8
SU
 10
1110.216748370347
 20
573.21837185883862
 30
0.0
 11
1103.175474836866
 21
573.21837185883862
 31
0.0
  0
LINE
  5
24A05
  8
SU
 10
1110.3367483703471
 20
573.0183718588388
 30
0.0
 11
1103.0554748368661
 21
573.0183718588388
 31
0.0
  0
LINE
  5
24A06
  8
SU
 10
1110.456748370347
 20
572.81837185883899
 30
0.0
 11
1102.935474836866
 21
572.81837185883899
 31
0.0
  0
LINE
  5
24A07
  8
SU
 10
1110.5767483703471
 20
572.6183718588386
 30
0.0
 11
1102.8154748368661
 21
572.6183718588386
 31
0.0
  0
LINE
  5
24A08
  8
SU
 10
1110.696748370347
 20
572.41837185883878
 30
0.0
 11
1102.695474836866
 21
572.41837185883878
 31
0.0
  0
LINE
  5
24A09
  8
SU
 10
1110.8167483703471
 20
572.21837185883862
 30
0.0
 11
1102.5754748368661
 21
572.21837185883862
 31
0.0
  0
LINE
  5
24A0A
  8
SU
 10
1110.936748370347
 20
572.0183718588388
 30
0.0
 11
1102.455474836866
 21
572.0183718588388
 31
0.0
  0
LINE
  5
24A0B
  8
SU
 10
1111.0567483703469
 20
571.81837185883899
 30
0.0
 11
1102.3354748368661
 21
571.81837185883899
 31
0.0
  0
LINE
  5
24A0C
  8
SU
 10
1111.176748370347
 20
571.61837185883871
 30
0.0
 11
1102.215474836866
 21
571.61837185883871
 31
0.0
  0
LINE
  5
24A0D
  8
SU
 10
1111.2967483703469
 20
571.4183718588389
 30
0.0
 11
1102.0954748368661
 21
571.4183718588389
 31
0.0
  0
LINE
  5
24A0E
  8
SU
 10
1111.416748370347
 20
571.21837185883862
 30
0.0
 11
1101.9754748368659
 21
571.21837185883862
 31
0.0
  0
LINE
  5
24A0F
  8
SU
 10
1111.5367483703469
 20
571.0183718588388
 30
0.0
 11
1101.8554748368661
 21
571.0183718588388
 31
0.0
  0
LINE
  5
24A10
  8
SU
 10
1111.656748370347
 20
570.81837185883887
 30
0.0
 11
1101.7354748368659
 21
570.81837185883887
 31
0.0
  0
LINE
  5
24A11
  8
SU
 10
1111.7767483703469
 20
570.61837185883871
 30
0.0
 11
1101.615474836866
 21
570.61837185883871
 31
0.0
  0
LINE
  5
24A12
  8
SU
 10
1111.896748370347
 20
570.4183718588389
 30
0.0
 11
1101.4954748368659
 21
570.4183718588389
 31
0.0
  0
LINE
  5
24A13
  8
SU
 10
1112.0167483703469
 20
570.21837185883851
 30
0.0
 11
1101.375474836866
 21
570.21837185883851
 31
0.0
  0
LINE
  5
24A14
  8
SU
 10
1112.136748370347
 20
570.01837185883869
 30
0.0
 11
1101.2554748368659
 21
570.01837185883869
 31
0.0
  0
LINE
  5
24A15
  8
SU
 10
1112.2567483703469
 20
569.81837185883887
 30
0.0
 11
1101.135474836866
 21
569.81837185883887
 31
0.0
  0
LINE
  5
24A16
  8
SU
 10
1112.3767483703471
 20
569.61837185883871
 30
0.0
 11
1101.0154748368659
 21
569.61837185883871
 31
0.0
  0
LINE
  5
24A17
  8
SU
 10
1112.4967483703469
 20
569.4183718588389
 30
0.0
 11
1100.895474836866
 21
569.4183718588389
 31
0.0
  0
LINE
  5
24A18
  8
SU
 10
1112.6167483703471
 20
569.21837185883862
 30
0.0
 11
1100.7754748368659
 21
569.21837185883862
 31
0.0
  0
LINE
  5
24A19
  8
SU
 10
1112.696111603605
 20
211.58610075513241
 30
0.0
 11
1106.696111603605
 21
201.58610075513241
 31
0.0
  0
LINE
  5
24A1A
  8
SU
 10
1100.696111603605
 20
211.58610075513241
 30
0.0
 11
1106.696111603605
 21
201.58610075513241
 31
0.0
  0
LINE
  5
24A1B
  8
SU
 10
1112.696111603605
 20
211.58610075513241
 30
0.0
 11
1100.696111603605
 21
211.58610075513241
 31
0.0
  0
LINE
  5
24A1C
  8
SU
 10
1106.736748370346
 20
201.6538286996996
 30
0.0
 11
1106.6554748368651
 21
201.6538286996996
 31
0.0
  0
LINE
  5
24A1D
  8
SU
 10
1106.8567483703459
 20
201.85382869969939
 30
0.0
 11
1106.535474836865
 21
201.85382869969939
 31
0.0
  0
LINE
  5
24A1E
  8
SU
 10
1106.9767483703461
 20
202.05382869969969
 30
0.0
 11
1106.4154748368651
 21
202.05382869969969
 31
0.0
  0
LINE
  5
24A1F
  8
SU
 10
1107.0967483703459
 20
202.25382869969951
 30
0.0
 11
1106.295474836865
 21
202.25382869969951
 31
0.0
  0
LINE
  5
24A20
  8
SU
 10
1107.2167483703461
 20
202.45382869969981
 30
0.0
 11
1106.1754748368651
 21
202.45382869969981
 31
0.0
  0
LINE
  5
24A21
  8
SU
 10
1107.336748370346
 20
202.6538286996996
 30
0.0
 11
1106.055474836865
 21
202.6538286996996
 31
0.0
  0
LINE
  5
24A22
  8
SU
 10
1107.4567483703461
 20
202.85382869969939
 30
0.0
 11
1105.9354748368651
 21
202.85382869969939
 31
0.0
  0
LINE
  5
24A23
  8
SU
 10
1107.576748370346
 20
203.05382869969969
 30
0.0
 11
1105.815474836865
 21
203.05382869969969
 31
0.0
  0
LINE
  5
24A24
  8
SU
 10
1107.6967483703461
 20
203.25382869969951
 30
0.0
 11
1105.6954748368651
 21
203.25382869969951
 31
0.0
  0
LINE
  5
24A25
  8
SU
 10
1107.816748370346
 20
203.45382869969981
 30
0.0
 11
1105.5754748368649
 21
203.45382869969981
 31
0.0
  0
LINE
  5
24A26
  8
SU
 10
1107.9367483703461
 20
203.6538286996996
 30
0.0
 11
1105.4554748368651
 21
203.6538286996996
 31
0.0
  0
LINE
  5
24A27
  8
SU
 10
1108.056748370346
 20
203.85382869969939
 30
0.0
 11
1105.3354748368649
 21
203.85382869969939
 31
0.0
  0
LINE
  5
24A28
  8
SU
 10
1108.1767483703461
 20
204.05382869969969
 30
0.0
 11
1105.215474836865
 21
204.05382869969969
 31
0.0
  0
LINE
  5
24A29
  8
SU
 10
1108.296748370346
 20
204.25382869969951
 30
0.0
 11
1105.0954748368649
 21
204.25382869969951
 31
0.0
  0
LINE
  5
24A2A
  8
SU
 10
1108.4167483703461
 20
204.45382869969981
 30
0.0
 11
1104.975474836865
 21
204.45382869969981
 31
0.0
  0
LINE
  5
24A2B
  8
SU
 10
1108.536748370346
 20
204.6538286996996
 30
0.0
 11
1104.8554748368649
 21
204.6538286996996
 31
0.0
  0
LINE
  5
24A2C
  8
SU
 10
1108.6567483703459
 20
204.85382869969939
 30
0.0
 11
1104.735474836865
 21
204.85382869969939
 31
0.0
  0
LINE
  5
24A2D
  8
SU
 10
1108.776748370346
 20
205.05382869969969
 30
0.0
 11
1104.6154748368649
 21
205.05382869969969
 31
0.0
  0
LINE
  5
24A2E
  8
SU
 10
1108.8967483703459
 20
205.25382869969951
 30
0.0
 11
1104.495474836865
 21
205.25382869969951
 31
0.0
  0
LINE
  5
24A2F
  8
SU
 10
1109.016748370346
 20
205.45382869969981
 30
0.0
 11
1104.3754748368649
 21
205.45382869969981
 31
0.0
  0
LINE
  5
24A30
  8
SU
 10
1109.1367483703459
 20
205.6538286996996
 30
0.0
 11
1104.255474836865
 21
205.6538286996996
 31
0.0
  0
LINE
  5
24A31
  8
SU
 10
1109.256748370346
 20
205.85382869969939
 30
0.0
 11
1104.1354748368649
 21
205.85382869969939
 31
0.0
  0
LINE
  5
24A32
  8
SU
 10
1109.3767483703459
 20
206.05382869969969
 30
0.0
 11
1104.015474836865
 21
206.05382869969969
 31
0.0
  0
LINE
  5
24A33
  8
SU
 10
1109.496748370346
 20
206.25382869969951
 30
0.0
 11
1103.8954748368651
 21
206.25382869969951
 31
0.0
  0
LINE
  5
24A34
  8
SU
 10
1109.6167483703459
 20
206.45382869969981
 30
0.0
 11
1103.775474836865
 21
206.45382869969981
 31
0.0
  0
LINE
  5
24A35
  8
SU
 10
1109.736748370346
 20
206.6538286996996
 30
0.0
 11
1103.6554748368651
 21
206.6538286996996
 31
0.0
  0
LINE
  5
24A36
  8
SU
 10
1109.8567483703459
 20
206.85382869969939
 30
0.0
 11
1103.535474836865
 21
206.85382869969939
 31
0.0
  0
LINE
  5
24A37
  8
SU
 10
1109.9767483703461
 20
207.05382869969969
 30
0.0
 11
1103.4154748368651
 21
207.05382869969969
 31
0.0
  0
LINE
  5
24A38
  8
SU
 10
1110.0967483703459
 20
207.25382869969951
 30
0.0
 11
1103.295474836865
 21
207.25382869969951
 31
0.0
  0
LINE
  5
24A39
  8
SU
 10
1110.2167483703461
 20
207.45382869969981
 30
0.0
 11
1103.1754748368651
 21
207.45382869969981
 31
0.0
  0
LINE
  5
24A3A
  8
SU
 10
1110.336748370346
 20
207.6538286996996
 30
0.0
 11
1103.055474836865
 21
207.6538286996996
 31
0.0
  0
LINE
  5
24A3B
  8
SU
 10
1110.4567483703461
 20
207.85382869969939
 30
0.0
 11
1102.9354748368651
 21
207.85382869969939
 31
0.0
  0
LINE
  5
24A3C
  8
SU
 10
1110.576748370346
 20
208.05382869969969
 30
0.0
 11
1102.815474836865
 21
208.05382869969969
 31
0.0
  0
LINE
  5
24A3D
  8
SU
 10
1110.6967483703461
 20
208.25382869969951
 30
0.0
 11
1102.6954748368651
 21
208.25382869969951
 31
0.0
  0
LINE
  5
24A3E
  8
SU
 10
1110.8167483703451
 20
208.45382869969981
 30
0.0
 11
1102.5754748368649
 21
208.45382869969981
 31
0.0
  0
LINE
  5
24A3F
  8
SU
 10
1110.9367483703461
 20
208.6538286996996
 30
0.0
 11
1102.4554748368651
 21
208.6538286996996
 31
0.0
  0
LINE
  5
24A40
  8
SU
 10
1111.056748370346
 20
208.85382869969939
 30
0.0
 11
1102.3354748368649
 21
208.85382869969939
 31
0.0
  0
LINE
  5
24A41
  8
SU
 10
1111.1767483703461
 20
209.05382869969969
 30
0.0
 11
1102.215474836865
 21
209.05382869969969
 31
0.0
  0
LINE
  5
24A42
  8
SU
 10
1111.296748370346
 20
209.25382869969951
 30
0.0
 11
1102.0954748368649
 21
209.25382869969951
 31
0.0
  0
LINE
  5
24A43
  8
SU
 10
1111.4167483703461
 20
209.45382869969981
 30
0.0
 11
1101.975474836865
 21
209.45382869969981
 31
0.0
  0
LINE
  5
24A44
  8
SU
 10
1111.536748370346
 20
209.6538286996996
 30
0.0
 11
1101.8554748368649
 21
209.6538286996996
 31
0.0
  0
LINE
  5
24A45
  8
SU
 10
1111.6567483703459
 20
209.85382869969939
 30
0.0
 11
1101.735474836865
 21
209.85382869969939
 31
0.0
  0
LINE
  5
24A46
  8
SU
 10
1111.776748370346
 20
210.05382869969969
 30
0.0
 11
1101.6154748368649
 21
210.05382869969969
 31
0.0
  0
LINE
  5
24A47
  8
SU
 10
1111.8967483703459
 20
210.25382869969951
 30
0.0
 11
1101.495474836865
 21
210.25382869969951
 31
0.0
  0
LINE
  5
24A48
  8
SU
 10
1112.016748370346
 20
210.45382869969981
 30
0.0
 11
1101.3754748368649
 21
210.45382869969981
 31
0.0
  0
LINE
  5
24A49
  8
SU
 10
1112.1367483703459
 20
210.6538286996996
 30
0.0
 11
1101.255474836865
 21
210.6538286996996
 31
0.0
  0
LINE
  5
24A4A
  8
SU
 10
1112.256748370346
 20
210.85382869969939
 30
0.0
 11
1101.1354748368649
 21
210.85382869969939
 31
0.0
  0
LINE
  5
24A4B
  8
SU
 10
1112.3767483703459
 20
211.05382869969969
 30
0.0
 11
1101.015474836865
 21
211.05382869969969
 31
0.0
  0
LINE
  5
24A4C
  8
SU
 10
1112.496748370346
 20
211.25382869969951
 30
0.0
 11
1100.8954748368651
 21
211.25382869969951
 31
0.0
  0
LINE
  5
24A4D
  8
SU
 10
1112.6167483703459
 20
211.45382869969981
 30
0.0
 11
1100.775474836865
 21
211.45382869969981
 31
0.0
  0
LINE
  5
24A4E
  8
SU
 10
1106.6961116036071
 20
201.58610075513209
 30
0.0
 11
1106.6961116036071
 21
579.086099803406
 31
0.0
  0
LINE
  5
24A50
  8
SU
 10
953.65243271712779
 20
375.58610075513189
 30
0.0
 11
923.22777956751224
 21
375.58610075513189
 31
0.0
  0
LINE
  5
24A51
  8
SU
 10
953.65243176540253
 20
410.58610075513201
 30
0.0
 11
923.22777956751224
 21
410.58610075513201
 31
0.0
  0
LINE
  5
24A52
  8
SU
 10
926.22777956751224
 20
375.58610075513189
 30
0.0
 11
926.22777956751224
 21
410.58610075513201
 31
0.0
  0
LINE
  5
24A56
  8
SU
 10
979.65243176540253
 20
746.2407786038043
 30
0.0
 11
989.65243176540253
 21
752.24077860380419
 31
0.0
  0
LINE
  5
24A57
  8
SU
 10
979.65243176540253
 20
758.2407786038043
 30
0.0
 11
989.65243176540253
 21
752.24077860380419
 31
0.0
  0
LINE
  5
24A58
  8
SU
 10
979.65243176540253
 20
746.2407786038043
 30
0.0
 11
979.65243176540253
 21
758.2407786038043
 31
0.0
  0
LINE
  5
24A59
  8
SU
 10
989.58470382083533
 20
752.20014183706371
 30
0.0
 11
989.58470382083533
 21
752.28141537054455
 31
0.0
  0
LINE
  5
24A5A
  8
SU
 10
989.3847038208354
 20
752.08014183706382
 30
0.0
 11
989.3847038208354
 21
752.40141537054456
 31
0.0
  0
LINE
  5
24A5B
  8
SU
 10
989.18470382083524
 20
751.9601418370637
 30
0.0
 11
989.18470382083524
 21
752.52141537054456
 31
0.0
  0
LINE
  5
24A5C
  8
SU
 10
988.98470382083553
 20
751.84014183706381
 30
0.0
 11
988.98470382083553
 21
752.64141537054479
 31
0.0
  0
LINE
  5
24A5D
  8
SU
 10
988.78470382083503
 20
751.72014183706392
 30
0.0
 11
988.78470382083503
 21
752.76141537054468
 31
0.0
  0
LINE
  5
24A5E
  8
SU
 10
988.58470382083533
 20
751.60014183706369
 30
0.0
 11
988.58470382083533
 21
752.88141537054457
 31
0.0
  0
LINE
  5
24A5F
  8
SU
 10
988.3847038208354
 20
751.48014183706368
 30
0.0
 11
988.3847038208354
 21
753.00141537054469
 31
0.0
  0
LINE
  5
24A60
  8
SU
 10
988.18470382083524
 20
751.36014183706379
 30
0.0
 11
988.18470382083524
 21
753.12141537054481
 31
0.0
  0
LINE
  5
24A61
  8
SU
 10
987.98470382083531
 20
751.2401418370639
 30
0.0
 11
987.98470382083531
 21
753.24141537054459
 31
0.0
  0
LINE
  5
24A62
  8
SU
 10
987.78470382083515
 20
751.12014183706401
 30
0.0
 11
987.78470382083515
 21
753.36141537054448
 31
0.0
  0
LINE
  5
24A63
  8
SU
 10
987.58470382083544
 20
751.00014183706355
 30
0.0
 11
987.58470382083544
 21
753.48141537054471
 31
0.0
  0
LINE
  5
24A64
  8
SU
 10
987.38470382083551
 20
750.88014183706366
 30
0.0
 11
987.38470382083551
 21
753.60141537054483
 31
0.0
  0
LINE
  5
24A65
  8
SU
 10
987.18470382083524
 20
750.76014183706377
 30
0.0
 11
987.18470382083524
 21
753.72141537054472
 31
0.0
  0
LINE
  5
24A66
  8
SU
 10
986.98470382083531
 20
750.64014183706377
 30
0.0
 11
986.98470382083531
 21
753.84141537054461
 31
0.0
  0
LINE
  5
24A67
  8
SU
 10
986.78470382083515
 20
750.52014183706387
 30
0.0
 11
986.78470382083515
 21
753.96141537054473
 31
0.0
  0
LINE
  5
24A68
  8
SU
 10
986.58470382083544
 20
750.40014183706376
 30
0.0
 11
986.58470382083544
 21
754.08141537054462
 31
0.0
  0
LINE
  5
24A69
  8
SU
 10
986.38470382083551
 20
750.28014183706375
 30
0.0
 11
986.38470382083551
 21
754.20141537054474
 31
0.0
  0
LINE
  5
24A6A
  8
SU
 10
986.18470382083524
 20
750.16014183706375
 30
0.0
 11
986.18470382083524
 21
754.32141537054463
 31
0.0
  0
LINE
  5
24A6B
  8
SU
 10
985.98470382083542
 20
750.04014183706386
 30
0.0
 11
985.98470382083542
 21
754.44141537054475
 31
0.0
  0
LINE
  5
24A6C
  8
SU
 10
985.78470382083515
 20
749.92014183706374
 30
0.0
 11
985.78470382083515
 21
754.56141537054464
 31
0.0
  0
LINE
  5
24A6D
  8
SU
 10
985.58470382083522
 20
749.80014183706385
 30
0.0
 11
985.58470382083522
 21
754.68141537054476
 31
0.0
  0
LINE
  5
24A6E
  8
SU
 10
985.38470382083551
 20
749.68014183706396
 30
0.0
 11
985.38470382083551
 21
754.80141537054465
 31
0.0
  0
LINE
  5
24A6F
  8
SU
 10
985.18470382083535
 20
749.56014183706384
 30
0.0
 11
985.18470382083535
 21
754.92141537054465
 31
0.0
  0
LINE
  5
24A70
  8
SU
 10
984.98470382083542
 20
749.44014183706372
 30
0.0
 11
984.98470382083542
 21
755.04141537054466
 31
0.0
  0
LINE
  5
24A71
  8
SU
 10
984.78470382083515
 20
749.32014183706383
 30
0.0
 11
984.78470382083515
 21
755.16141537054477
 31
0.0
  0
LINE
  5
24A72
  8
SU
 10
984.58470382083522
 20
749.2001418370636
 30
0.0
 11
984.58470382083522
 21
755.28141537054466
 31
0.0
  0
LINE
  5
24A73
  8
SU
 10
984.38470382083551
 20
749.08014183706371
 30
0.0
 11
984.38470382083551
 21
755.40141537054456
 31
0.0
  0
LINE
  5
24A74
  8
SU
 10
984.18470382083535
 20
748.9601418370637
 30
0.0
 11
984.18470382083535
 21
755.52141537054456
 31
0.0
  0
LINE
  5
24A75
  8
SU
 10
983.98470382083542
 20
748.84014183706381
 30
0.0
 11
983.98470382083542
 21
755.64141537054468
 31
0.0
  0
LINE
  5
24A76
  8
SU
 10
983.78470382083515
 20
748.72014183706392
 30
0.0
 11
983.78470382083515
 21
755.76141537054457
 31
0.0
  0
LINE
  5
24A77
  8
SU
 10
983.58470382083533
 20
748.6001418370638
 30
0.0
 11
983.58470382083533
 21
755.88141537054446
 31
0.0
  0
LINE
  5
24A78
  8
SU
 10
983.38470382083563
 20
748.48014183706357
 30
0.0
 11
983.38470382083563
 21
756.00141537054469
 31
0.0
  0
LINE
  5
24A79
  8
SU
 10
983.18470382083513
 20
748.36014183706368
 30
0.0
 11
983.18470382083513
 21
756.12141537054481
 31
0.0
  0
LINE
  5
24A7A
  8
SU
 10
982.98470382083542
 20
748.24014183706379
 30
0.0
 11
982.98470382083542
 21
756.2414153705447
 31
0.0
  0
LINE
  5
24A7B
  8
SU
 10
982.78470382083515
 20
748.1201418370639
 30
0.0
 11
982.78470382083515
 21
756.36141537054448
 31
0.0
  0
LINE
  5
24A7C
  8
SU
 10
982.58470382083533
 20
748.00014183706355
 30
0.0
 11
982.58470382083533
 21
756.48141537054471
 31
0.0
  0
LINE
  5
24A7D
  8
SU
 10
982.3847038208354
 20
747.88014183706366
 30
0.0
 11
982.3847038208354
 21
756.60141537054483
 31
0.0
  0
LINE
  5
24A7E
  8
SU
 10
982.18470382083524
 20
747.76014183706388
 30
0.0
 11
982.18470382083524
 21
756.72141537054472
 31
0.0
  0
LINE
  5
24A7F
  8
SU
 10
981.98470382083542
 20
747.64014183706365
 30
0.0
 11
981.98470382083542
 21
756.84141537054461
 31
0.0
  0
LINE
  5
24A80
  8
SU
 10
981.78470382083515
 20
747.52014183706376
 30
0.0
 11
981.78470382083515
 21
756.96141537054473
 31
0.0
  0
LINE
  5
24A81
  8
SU
 10
981.58470382083533
 20
747.40014183706376
 30
0.0
 11
981.58470382083533
 21
757.08141537054462
 31
0.0
  0
LINE
  5
24A82
  8
SU
 10
981.3847038208354
 20
747.28014183706387
 30
0.0
 11
981.3847038208354
 21
757.20141537054474
 31
0.0
  0
LINE
  5
24A83
  8
SU
 10
981.18470382083524
 20
747.16014183706375
 30
0.0
 11
981.18470382083524
 21
757.32141537054463
 31
0.0
  0
LINE
  5
24A84
  8
SU
 10
980.98470382083553
 20
747.04014183706386
 30
0.0
 11
980.98470382083553
 21
757.44141537054475
 31
0.0
  0
LINE
  5
24A85
  8
SU
 10
980.78470382083503
 20
746.92014183706374
 30
0.0
 11
980.78470382083503
 21
757.56141537054464
 31
0.0
  0
LINE
  5
24A86
  8
SU
 10
980.58470382083533
 20
746.80014183706385
 30
0.0
 11
980.58470382083533
 21
757.68141537054476
 31
0.0
  0
LINE
  5
24A87
  8
SU
 10
980.3847038208354
 20
746.68014183706396
 30
0.0
 11
980.3847038208354
 21
757.80141537054465
 31
0.0
  0
LINE
  5
24A88
  8
SU
 10
980.18470382083524
 20
746.56014183706384
 30
0.0
 11
980.18470382083524
 21
757.92141537054465
 31
0.0
  0
LINE
  5
24A89
  8
SU
 10
979.98470382083531
 20
746.44014183706372
 30
0.0
 11
979.98470382083531
 21
758.04141537054466
 31
0.0
  0
LINE
  5
24A8A
  8
SU
 10
979.78470382083515
 20
746.32014183706383
 30
0.0
 11
979.78470382083515
 21
758.16141537054466
 31
0.0
  0
LINE
  5
24A8B
  8
SU
 10
548.65243176540321
 20
746.2407786038043
 30
0.0
 11
538.65243176540321
 21
752.24077860380419
 31
0.0
  0
LINE
  5
24A8C
  8
SU
 10
548.65243176540321
 20
758.2407786038043
 30
0.0
 11
538.65243176540321
 21
752.24077860380419
 31
0.0
  0
LINE
  5
24A8D
  8
SU
 10
548.65243176540321
 20
746.2407786038043
 30
0.0
 11
548.65243176540321
 21
758.2407786038043
 31
0.0
  0
LINE
  5
24A8E
  8
SU
 10
538.7201597099704
 20
752.20014183706371
 30
0.0
 11
538.7201597099704
 21
752.28141537054455
 31
0.0
  0
LINE
  5
24A8F
  8
SU
 10
538.92015970997022
 20
752.08014183706382
 30
0.0
 11
538.92015970997022
 21
752.40141537054456
 31
0.0
  0
LINE
  5
24A90
  8
SU
 10
539.12015970997049
 20
751.9601418370637
 30
0.0
 11
539.12015970997049
 21
752.52141537054456
 31
0.0
  0
LINE
  5
24A91
  8
SU
 10
539.32015970997031
 20
751.84014183706381
 30
0.0
 11
539.32015970997031
 21
752.64141537054479
 31
0.0
  0
LINE
  5
24A92
  8
SU
 10
539.52015970997047
 20
751.72014183706392
 30
0.0
 11
539.52015970997047
 21
752.76141537054468
 31
0.0
  0
LINE
  5
24A93
  8
SU
 10
539.72015970997029
 20
751.60014183706369
 30
0.0
 11
539.72015970997029
 21
752.88141537054457
 31
0.0
  0
LINE
  5
24A94
  8
SU
 10
539.92015970997022
 20
751.48014183706368
 30
0.0
 11
539.92015970997022
 21
753.00141537054469
 31
0.0
  0
LINE
  5
24A95
  8
SU
 10
540.12015970997049
 20
751.36014183706379
 30
0.0
 11
540.12015970997049
 21
753.12141537054481
 31
0.0
  0
LINE
  5
24A96
  8
SU
 10
540.32015970997031
 20
751.2401418370639
 30
0.0
 11
540.32015970997031
 21
753.24141537054459
 31
0.0
  0
LINE
  5
24A97
  8
SU
 10
540.52015970997047
 20
751.12014183706401
 30
0.0
 11
540.52015970997047
 21
753.36141537054448
 31
0.0
  0
LINE
  5
24A98
  8
SU
 10
540.7201597099704
 20
751.00014183706355
 30
0.0
 11
540.7201597099704
 21
753.48141537054471
 31
0.0
  0
LINE
  5
24A99
  8
SU
 10
540.92015970997022
 20
750.88014183706366
 30
0.0
 11
540.92015970997022
 21
753.60141537054483
 31
0.0
  0
LINE
  5
24A9A
  8
SU
 10
541.12015970997038
 20
750.76014183706377
 30
0.0
 11
541.12015970997038
 21
753.72141537054472
 31
0.0
  0
LINE
  5
24A9B
  8
SU
 10
541.3201597099702
 20
750.64014183706377
 30
0.0
 11
541.3201597099702
 21
753.84141537054461
 31
0.0
  0
LINE
  5
24A9C
  8
SU
 10
541.52015970997059
 20
750.52014183706387
 30
0.0
 11
541.52015970997059
 21
753.96141537054473
 31
0.0
  0
LINE
  5
24A9D
  8
SU
 10
541.7201597099704
 20
750.40014183706376
 30
0.0
 11
541.7201597099704
 21
754.08141537054462
 31
0.0
  0
LINE
  5
24A9E
  8
SU
 10
541.92015970997022
 20
750.28014183706375
 30
0.0
 11
541.92015970997022
 21
754.20141537054474
 31
0.0
  0
LINE
  5
24A9F
  8
SU
 10
542.12015970997038
 20
750.16014183706375
 30
0.0
 11
542.12015970997038
 21
754.32141537054463
 31
0.0
  0
LINE
  5
24AA0
  8
SU
 10
542.32015970997031
 20
750.04014183706386
 30
0.0
 11
542.32015970997031
 21
754.44141537054475
 31
0.0
  0
LINE
  5
24AA1
  8
SU
 10
542.52015970997059
 20
749.92014183706374
 30
0.0
 11
542.52015970997059
 21
754.56141537054464
 31
0.0
  0
LINE
  5
24AA2
  8
SU
 10
542.7201597099704
 20
749.80014183706385
 30
0.0
 11
542.7201597099704
 21
754.68141537054476
 31
0.0
  0
LINE
  5
24AA3
  8
SU
 10
542.92015970997022
 20
749.68014183706396
 30
0.0
 11
542.92015970997022
 21
754.80141537054465
 31
0.0
  0
LINE
  5
24AA4
  8
SU
 10
543.12015970997049
 20
749.56014183706384
 30
0.0
 11
543.12015970997049
 21
754.92141537054465
 31
0.0
  0
LINE
  5
24AA5
  8
SU
 10
543.32015970997031
 20
749.44014183706372
 30
0.0
 11
543.32015970997031
 21
755.04141537054466
 31
0.0
  0
LINE
  5
24AA6
  8
SU
 10
543.52015970997047
 20
749.32014183706383
 30
0.0
 11
543.52015970997047
 21
755.16141537054477
 31
0.0
  0
LINE
  5
24AA7
  8
SU
 10
543.72015970997029
 20
749.2001418370636
 30
0.0
 11
543.72015970997029
 21
755.28141537054466
 31
0.0
  0
LINE
  5
24AA8
  8
SU
 10
543.92015970997022
 20
749.08014183706371
 30
0.0
 11
543.92015970997022
 21
755.40141537054456
 31
0.0
  0
LINE
  5
24AA9
  8
SU
 10
544.12015970997049
 20
748.9601418370637
 30
0.0
 11
544.12015970997049
 21
755.52141537054456
 31
0.0
  0
LINE
  5
24AAA
  8
SU
 10
544.32015970997031
 20
748.84014183706381
 30
0.0
 11
544.32015970997031
 21
755.64141537054468
 31
0.0
  0
LINE
  5
24AAB
  8
SU
 10
544.52015970997047
 20
748.72014183706392
 30
0.0
 11
544.52015970997047
 21
755.76141537054457
 31
0.0
  0
LINE
  5
24AAC
  8
SU
 10
544.7201597099704
 20
748.6001418370638
 30
0.0
 11
544.7201597099704
 21
755.88141537054446
 31
0.0
  0
LINE
  5
24AAD
  8
SU
 10
544.92015970997022
 20
748.48014183706357
 30
0.0
 11
544.92015970997022
 21
756.00141537054469
 31
0.0
  0
LINE
  5
24AAE
  8
SU
 10
545.12015970997038
 20
748.36014183706368
 30
0.0
 11
545.12015970997038
 21
756.12141537054481
 31
0.0
  0
LINE
  5
24AAF
  8
SU
 10
545.3201597099702
 20
748.24014183706379
 30
0.0
 11
545.3201597099702
 21
756.2414153705447
 31
0.0
  0
LINE
  5
24AB0
  8
SU
 10
545.52015970997059
 20
748.1201418370639
 30
0.0
 11
545.52015970997059
 21
756.36141537054448
 31
0.0
  0
LINE
  5
24AB1
  8
SU
 10
545.7201597099704
 20
748.00014183706355
 30
0.0
 11
545.7201597099704
 21
756.48141537054471
 31
0.0
  0
LINE
  5
24AB2
  8
SU
 10
545.92015970997022
 20
747.88014183706366
 30
0.0
 11
545.92015970997022
 21
756.60141537054483
 31
0.0
  0
LINE
  5
24AB3
  8
SU
 10
546.12015970997038
 20
747.76014183706388
 30
0.0
 11
546.12015970997038
 21
756.72141537054472
 31
0.0
  0
LINE
  5
24AB4
  8
SU
 10
546.32015970997031
 20
747.64014183706365
 30
0.0
 11
546.32015970997031
 21
756.84141537054461
 31
0.0
  0
LINE
  5
24AB5
  8
SU
 10
546.52015970997059
 20
747.52014183706376
 30
0.0
 11
546.52015970997059
 21
756.96141537054473
 31
0.0
  0
LINE
  5
24AB6
  8
SU
 10
546.7201597099704
 20
747.40014183706376
 30
0.0
 11
546.7201597099704
 21
757.08141537054462
 31
0.0
  0
LINE
  5
24AB7
  8
SU
 10
546.92015970997022
 20
747.28014183706387
 30
0.0
 11
546.92015970997022
 21
757.20141537054474
 31
0.0
  0
LINE
  5
24AB8
  8
SU
 10
547.12015970997049
 20
747.16014183706375
 30
0.0
 11
547.12015970997049
 21
757.32141537054463
 31
0.0
  0
LINE
  5
24AB9
  8
SU
 10
547.32015970997031
 20
747.04014183706386
 30
0.0
 11
547.32015970997031
 21
757.44141537054475
 31
0.0
  0
LINE
  5
24ABA
  8
SU
 10
547.52015970997047
 20
746.92014183706374
 30
0.0
 11
547.52015970997047
 21
757.56141537054464
 31
0.0
  0
LINE
  5
24ABB
  8
SU
 10
547.72015970997029
 20
746.80014183706385
 30
0.0
 11
547.72015970997029
 21
757.68141537054476
 31
0.0
  0
LINE
  5
24ABC
  8
SU
 10
547.92015970997011
 20
746.68014183706396
 30
0.0
 11
547.92015970997011
 21
757.80141537054465
 31
0.0
  0
LINE
  5
24ABD
  8
SU
 10
548.12015970997049
 20
746.56014183706384
 30
0.0
 11
548.12015970997049
 21
757.92141537054465
 31
0.0
  0
LINE
  5
24ABE
  8
SU
 10
548.32015970997031
 20
746.44014183706372
 30
0.0
 11
548.32015970997031
 21
758.04141537054466
 31
0.0
  0
LINE
  5
24ABF
  8
SU
 10
548.52015970997047
 20
746.32014183706383
 30
0.0
 11
548.52015970997047
 21
758.16141537054466
 31
0.0
  0
LINE
  5
24AC0
  8
SU
 10
682.6524317654023
 20
616.58610075513184
 30
0.0
 11
682.6524317654023
 21
533.28871458695335
 31
0.0
  0
LINE
  5
24AC1
  8
SU
 10
717.65243176540218
 20
658.58609980340361
 30
0.0
 11
717.65243176540218
 21
533.28871458695335
 31
0.0
  0
LINE
  5
24AC2
  8
SU
 10
682.6524317654023
 20
536.28871458695335
 30
0.0
 11
717.65243176540218
 21
536.28871458695335
 31
0.0
  0
LINE
  5
24AC6
  8
SU
 10
852.65243176540253
 20
651.58609980340657
 30
0.0
 11
852.65243176540253
 21
715.24077860380407
 31
0.0
  0
LINE
  5
24AC7
  8
SU
 10
817.65243176540241
 20
712.24077860380396
 30
0.0
 11
852.65243176540253
 21
712.24077860380396
 31
0.0
  0
LINE
  5
24ACB
  8
SU
 10
987.65243176540253
 20
615.58609980340646
 30
0.0
 11
987.65243176540253
 21
735.5491131071592
 31
0.0
  0
LINE
  5
24ACC
  8
SU
 10
817.65243176540241
 20
615.58609980340646
 30
0.0
 11
817.65243176540241
 21
735.5491131071592
 31
0.0
  0
LINE
  5
24ACD
  8
SU
 10
987.65243176540253
 20
732.5491131071592
 30
0.0
 11
817.65243176540241
 21
732.5491131071592
 31
0.0
  0
LINE
  5
24AD1
  8
SU
 10
538.65243176540343
 20
752.24077860380407
 30
0.0
 11
989.65243224126471
 21
752.24077860380407
 31
0.0
  0
LINE
  5
24AD3
  8
SU
 10
816.65243176540241
 20
614.58609980340646
 30
0.0
 11
784.65243176540253
 21
614.58609980340646
 31
0.0
  0
LINE
  5
24AD4
  8
SU
 10
816.65243176540241
 20
581.58610075513184
 30
0.0
 11
784.65243176540253
 21
581.58610075513184
 31
0.0
  0
LINE
  5
24AD5
  8
SU
 10
787.65243176540253
 20
614.58609980340646
 30
0.0
 11
787.65243176540253
 21
581.58610075513184
 31
0.0
  0
LINE
  5
24AD9
  8
SU
 10
787.65243176540264
 20
617.58609980340623
 30
0.0
 11
787.65243176540264
 21
614.58609980340646
 31
0.0
  0
LINE
  5
24ADB
  8
SU
 10
787.72069875265845
 20
650.58609980340646
 30
0.0
 11
787.72069875265845
 21
659.58609980340373
 31
0.0
  0
LINE
  5
24ADC
  8
SU
 10
787.72069875265845
 20
659.58609980340373
 30
0.0
 11
787.72069875265845
 21
675.38276647007035
 31
0.0
  0
LINE
  5
24ADF
  8
SU
 10
683.65243176540218
 20
650.586099803406
 30
0.0
 11
790.65243176540253
 21
650.586099803406
 31
0.0
  0
LINE
  5
24AE0
  8
SU
 10
683.65243176540218
 20
617.58610075513184
 30
0.0
 11
790.65243176540253
 21
617.58610075513172
 31
0.0
  0
LINE
  5
24AE1
  8
SU
 10
787.65243176540253
 20
650.586099803406
 30
0.0
 11
787.65243176540253
 21
617.58610075513172
 31
0.0
  0
LINE
  5
24AE5
  8
SU
 10
525.02228933404137
 20
103.47466526787829
 30
0.0
 11
525.02228933404137
 21
68.457321120501391
 31
0.0
  0
LINE
  5
24AE6
  8
SU
 10
518.02228176736605
 20
103.47466526787851
 30
0.0
 11
518.02228176736605
 21
68.457321120501391
 31
0.0
  0
LINE
  5
24AE7
  8
SU
 10
525.02228933404137
 20
71.457321120501391
 30
0.0
 11
518.02228176736605
 21
71.457321120501391
 31
0.0
  0
LINE
  5
24AE8
  8
SU
 10
518.02228176736605
 20
71.457321120501391
 30
0.0
 11
501.94894843403267
 21
71.457321120501391
 31
0.0
  0
LINE
  5
24AEC
  8
SU
 10
525.02228933404092
 20
103.47466526787851
 30
0.0
 11
525.02228933404092
 21
68.457321120501391
 31
0.0
  0
LINE
  5
24AED
  8
SU
 10
562.02228933404388
 20
103.4746652678789
 30
0.0
 11
562.02228933404388
 21
68.457321120501391
 31
0.0
  0
LINE
  5
24AEE
  8
SU
 10
525.02228933404092
 20
71.457321120501391
 30
0.0
 11
562.02228933404388
 21
71.457321120501391
 31
0.0
  0
LINE
  5
24AF2
  8
SU
 10
154.8587913362781
 20
103.47466526787851
 30
0.0
 11
154.8587913362781
 21
68.474665267878535
 31
0.0
  0
LINE
  5
24AF3
  8
SU
 10
148.35879133620949
 20
103.47466526787881
 30
0.0
 11
148.35879133620949
 21
68.474665267878535
 31
0.0
  0
LINE
  5
24AF4
  8
SU
 10
154.8587913362781
 20
71.474665267878549
 30
0.0
 11
148.35879133620949
 21
71.474665267878549
 31
0.0
  0
LINE
  5
24AF5
  8
SU
 10
148.35879133620949
 20
71.474665267878549
 30
0.0
 11
124.2621246695428
 21
71.474665267878549
 31
0.0
  0
LINE
  5
24AF9
  8
SU
 10
154.8587913363491
 20
103.47466526787881
 30
0.0
 11
154.8587913363491
 21
68.474665267878535
 31
0.0
  0
LINE
  5
24AFA
  8
SU
 10
228.85879133627819
 20
103.47466526787851
 30
0.0
 11
228.85879133627819
 21
68.474665267878535
 31
0.0
  0
LINE
  5
24AFB
  8
SU
 10
154.8587913363491
 20
71.474665267878549
 30
0.0
 11
228.85879133627819
 21
71.474665267878549
 31
0.0
  0
LINE
  5
24AFF
  8
SU
 10
528.27228176736605
 20
333.47463286180152
 30
0.0
 11
518.02228176736605
 21
333.47463286180152
 31
0.0
  0
LINE
  5
24B00
  8
SU
 10
518.02228176736605
 20
333.47463286180152
 30
0.0
 11
488.9456151006994
 21
333.47463286180152
 31
0.0
  0
LINE
  5
24B03
  8
SU
 10
528.27228176736605
 20
373.70466526678359
 30
0.0
 11
528.27228176736605
 21
330.4746652667834
 31
0.0
  0
LINE
  5
24B04
  8
SU
 10
528.27228176736605
 20
333.4746652667834
 30
0.0
 11
564.37228176736596
 21
333.4746652667834
 31
0.0
  0
LINE
  5
24B08
  8
SU
 10
518.02228176736605
 20
362.4746660512514
 30
0.0
 11
518.02228176736605
 21
310.47466526678261
 31
0.0
  0
LINE
  5
24B09
  8
SU
 10
527.02228933397271
 20
313.47466526678261
 30
0.0
 11
518.02228176736605
 21
313.47466526678261
 31
0.0
  0
LINE
  5
24B0C
  8
SU
 10
564.37228176736596
 20
359.47466526678352
 30
0.0
 11
564.37228176736596
 21
310.47466526678352
 31
0.0
  0
LINE
  5
24B0D
  8
SU
 10
560.02228055229057
 20
313.47466526678352
 30
0.0
 11
564.37228176736596
 21
313.47466526678352
 31
0.0
  0
LINE
  5
24B0E
  8
SU
 10
564.37228176736596
 20
313.47466526678352
 30
0.0
 11
589.02228176736605
 21
313.47466526678352
 31
0.0
  0
LINE
  5
24B11
  8
SU
 10
527.02228933397271
 20
329.4746652667834
 30
0.0
 11
527.02228933397271
 21
310.47466526678352
 31
0.0
  0
LINE
  5
24B12
  8
SU
 10
560.02228176736617
 20
329.4746652667834
 30
0.0
 11
560.02228176736617
 21
310.47466526678352
 31
0.0
  0
LINE
  5
24B13
  8
SU
 10
527.02228933397271
 20
313.47466526678352
 30
0.0
 11
560.02228176736617
 21
313.47466526678352
 31
0.0
  0
LINE
  5
24B17
  8
SU
 10
230.70872795771911
 20
359.47466556502911
 30
0.0
 11
230.70872795771911
 21
310.47466526678352
 31
0.0
  0
LINE
  5
24B18
  8
SU
 10
226.35878250258281
 20
313.47466526678352
 30
0.0
 11
230.70872795771911
 21
313.47466526678352
 31
0.0
  0
LINE
  5
24B19
  8
SU
 10
230.70872795771911
 20
313.47466526678352
 30
0.0
 11
255.35872795771911
 21
313.47466526678352
 31
0.0
  0
LINE
  5
24B1C
  8
SU
 10
157.35878376967219
 20
330.04201422665642
 30
0.0
 11
157.35878376967219
 21
310.47466526678352
 31
0.0
  0
LINE
  5
24B1D
  8
SU
 10
190.35879133627881
 20
330.04201413176258
 30
0.0
 11
190.35879133627881
 21
310.47466526678352
 31
0.0
  0
LINE
  5
24B1E
  8
SU
 10
157.35878376967219
 20
313.47466526678352
 30
0.0
 11
190.35879133627881
 21
313.47466526678352
 31
0.0
  0
LINE
  5
24B22
  8
SU
 10
153.00872795771949
 20
333.47466506132832
 30
0.0
 11
148.35879133627881
 21
333.47466506132832
 31
0.0
  0
LINE
  5
24B23
  8
SU
 10
148.35879133627881
 20
333.47466506132832
 30
0.0
 11
123.98545800294541
 21
333.47466506132832
 31
0.0
  0
LINE
  5
24B26
  8
SU
 10
153.00872795771949
 20
359.4746621318933
 30
0.0
 11
153.00872795771949
 21
330.47466526678352
 31
0.0
  0
LINE
  5
24B27
  8
SU
 10
153.00872795771949
 20
333.47466526678352
 30
0.0
 11
230.7087279577193
 21
333.47466526678352
 31
0.0
  0
LINE
  5
24B2B
  8
SU
 10
148.35879133627881
 20
362.4746660512514
 30
0.0
 11
148.35879133627881
 21
310.47466526678261
 31
0.0
  0
LINE
  5
24B2C
  8
SU
 10
157.35879133627881
 20
313.47466526678261
 30
0.0
 11
148.35879133627881
 21
313.47466526678261
 31
0.0
  0
LINE
  5
24B2F
  8
SU
 10
190.35879133627881
 20
313.47466526678352
 30
0.0
 11
193.35878376967219
 21
313.47466526678352
 31
0.0
  0
LINE
  5
24B31
  8
SU
 10
230.70872738332071
 20
374.47466556502911
 30
0.0
 11
230.70872738332071
 21
442.9746619264352
 31
0.0
  0
LINE
  5
24B32
  8
SU
 10
225.10872678682961
 20
439.97466192643532
 30
0.0
 11
230.70872738332071
 21
439.97466192643532
 31
0.0
  0
LINE
  5
24B35
  8
SU
 10
148.35879133627881
 20
401.47466486470472
 30
0.0
 11
148.35879133627881
 21
442.97466232851411
 31
0.0
  0
LINE
  5
24B36
  8
SU
 10
158.60872678683
 20
439.97466232851423
 30
0.0
 11
148.35879133627881
 21
439.97466232851423
 31
0.0
  0
LINE
  5
24B39
  8
OS
 10
158.60872678683
 20
409.97466486470461
 30
0.0
 11
225.10872678682961
 21
409.97466486470461
 31
0.0
1001
GENIUS_GENREC_14
1002
{
1000
PYDIR
1011
158.60872678683
1021
0.0
1031
0.0
1021
400.47466486470472
1031
0.0
1002
}
1002
{
1000
PXDIR
1011
225.10872678682961
1021
0.0
1031
0.0
1021
409.97466486470461
1031
0.0
1002
}
1002
{
1000
PORI
1011
158.60872678683
1021
0.0
1031
0.0
1021
409.97466486470461
1031
0.0
1002
}
1002
{
1000
PINS
1011
158.60872678683
1021
0.0
1031
0.0
1021
409.97466486470461
1031
0.0
1002
}
1002
{
1000
PINS2
1011
225.10872678682961
1021
0.0
1031
0.0
1021
400.47466486470472
1031
0.0
1002
}
1002
{
1000
C
1070
     1
1002
}
1001
GENIUS_GENODEF_13
1002
{
1000
HIER
1070
     0
1002
}
1002
{
1000
MANEDIT
1070
     0
1002
}
1002
{
1000
NOSEL
1070
     0
1002
}
1002
{
1000
BEHIND
1070
     0
1002
}
1002
{
1000
OTHER
1070
     0
1002
}
1002
{
1000
REACTOR
1002
}
1001
GENIUS_GENOBJ-N-REC_13
1002
{
1000
OWNER
1000
GEN
1002
}
  0
LINE
  5
24B3A
  8
OS
 10
225.10872678682961
 20
409.97466486470461
 30
0.0
 11
225.10872678682961
 21
400.47466486470472
 31
0.0
1001
GENIUS_GENREC_14
1002
{
1000
PYDIR
1011
158.60872678683
1021
0.0
1031
0.0
1021
400.47466486470472
1031
0.0
1002
}
1002
{
1000
PXDIR
1011
225.10872678682961
1021
0.0
1031
0.0
1021
409.97466486470461
1031
0.0
1002
}
1002
{
1000
PORI
1011
158.60872678683
1021
0.0
1031
0.0
1021
409.97466486470461
1031
0.0
1002
}
1002
{
1000
PINS
1011
158.60872678683
1021
0.0
1031
0.0
1021
409.97466486470461
1031
0.0
1002
}
1002
{
1000
PINS2
1011
225.10872678682961
1021
0.0
1031
0.0
1021
400.47466486470472
1031
0.0
1002
}
1002
{
1000
C
1070
     1
1002
}
1001
GENIUS_GENODEF_13
1002
{
1000
HIER
1070
     0
1002
}
1002
{
1000
MANEDIT
1070
     0
1002
}
1002
{
1000
NOSEL
1070
     0
1002
}
1002
{
1000
BEHIND
1070
     0
1002
}
1002
{
1000
OTHER
1070
     0
1002
}
1002
{
1000
REACTOR
1002
}
1001
GENIUS_GENOBJ-N-REC_13
1002
{
1000
OWNER
1000
GEN
1002
}
  0
LINE
  5
24B3B
  8
OS
 10
225.10872678682961
 20
400.47466486470472
 30
0.0
 11
158.60872678683
 21
400.47466486470472
 31
0.0
1001
GENIUS_GENREC_14
1002
{
1000
PYDIR
1011
158.60872678683
1021
0.0
1031
0.0
1021
400.47466486470472
1031
0.0
1002
}
1002
{
1000
PXDIR
1011
225.10872678682961
1021
0.0
1031
0.0
1021
409.97466486470461
1031
0.0
1002
}
1002
{
1000
PORI
1011
158.60872678683
1021
0.0
1031
0.0
1021
409.97466486470461
1031
0.0
1002
}
1002
{
1000
PINS
1011
158.60872678683
1021
0.0
1031
0.0
1021
409.97466486470461
1031
0.0
1002
}
1002
{
1000
PINS2
1011
225.10872678682961
1021
0.0
1031
0.0
1021
400.47466486470472
1031
0.0
1002
}
1002
{
1000
C
1070
     1
1002
}
1001
GENIUS_GENODEF_13
1002
{
1000
HIER
1070
     0
1002
}
1002
{
1000
MANEDIT
1070
     0
1002
}
1002
{
1000
NOSEL
1070
     0
1002
}
1002
{
1000
BEHIND
1070
     0
1002
}
1002
{
1000
OTHER
1070
     0
1002
}
1002
{
1000
REACTOR
1002
}
1001
GENIUS_GENOBJ-N-REC_13
1002
{
1000
OWNER
1000
GEN
1002
}
  0
LINE
  5
24B3C
  8
OS
 10
158.60872678683
 20
400.47466486470472
 30
0.0
 11
158.60872678683
 21
409.97466486470461
 31
0.0
1001
GENIUS_GENREC_14
1002
{
1000
PYDIR
1011
158.60872678683
1021
0.0
1031
0.0
1021
400.47466486470472
1031
0.0
1002
}
1002
{
1000
PXDIR
1011
225.10872678682961
1021
0.0
1031
0.0
1021
409.97466486470461
1031
0.0
1002
}
1002
{
1000
PORI
1011
158.60872678683
1021
0.0
1031
0.0
1021
409.97466486470461
1031
0.0
1002
}
1002
{
1000
PINS
1011
158.60872678683
1021
0.0
1031
0.0
1021
409.97466486470461
1031
0.0
1002
}
1002
{
1000
PINS2
1011
225.10872678682961
1021
0.0
1031
0.0
1021
400.47466486470472
1031
0.0
1002
}
1002
{
1000
C
1070
     1
1002
}
1001
GENIUS_GENODEF_13
1002
{
1000
HIER
1070
     0
1002
}
1002
{
1000
MANEDIT
1070
     0
1002
}
1002
{
1000
NOSEL
1070
     0
1002
}
1002
{
1000
BEHIND
1070
     0
1002
}
1002
{
1000
OTHER
1070
     0
1002
}
1002
{
1000
REACTOR
1002
}
1001
GENIUS_GENOBJ-N-REC_13
1002
{
1000
OWNER
1000
GEN
1002
}
  0
LINE
  5
24B3D
  8
SU
 10
225.10872678682961
 20
410.97466486470461
 30
0.0
 11
225.10872678682961
 21
442.9746619264352
 31
0.0
  0
LINE
  5
24B3E
  8
SU
 10
158.60872678683
 20
410.97466486470461
 30
0.0
 11
158.60872678683
 21
442.9746619264352
 31
0.0
  0
LINE
  5
24B3F
  8
SU
 10
225.10872678682961
 20
439.97466192643532
 30
0.0
 11
158.60872678683
 21
439.97466192643532
 31
0.0
  0
LINE
  5
24B43
  8
SU
 10
564.37228176736585
 20
374.47466526678357
 30
0.0
 11
564.37228176736585
 21
442.97466232851411
 31
0.0
  0
LINE
  5
24B44
  8
SU
 10
558.77228176736605
 20
439.97466232851423
 30
0.0
 11
564.37228176736585
 21
439.97466232851423
 31
0.0
  0
LINE
  5
24B45
  8
SU
 10
564.37228176736585
 20
439.97466232851423
 30
0.0
 11
588.74561510069918
 21
439.97466232851423
 31
0.0
  0
LINE
  5
24B48
  8
SU
 10
518.02228176736605
 20
401.47466526678352
 30
0.0
 11
518.02228176736605
 21
442.97466232851411
 31
0.0
  0
LINE
  5
24B49
  8
SU
 10
528.27228176736605
 20
439.97466232851423
 30
0.0
 11
518.02228176736605
 21
439.97466232851423
 31
0.0
  0
LINE
  5
24B4A
  8
SU
 10
518.02228176736605
 20
439.97466232851423
 30
0.0
 11
488.40894843403271
 21
439.97466232851423
 31
0.0
  0
LINE
  5
24B4D
  8
OS
 10
528.27228176736605
 20
409.97466526678352
 30
0.0
 11
558.77228176736605
 21
409.97466526678352
 31
0.0
1001
GENIUS_GENREC_14
1002
{
1000
PYDIR
1011
528.27228176736605
1021
0.0
1031
0.0
1021
400.47466526678357
1031
0.0
1002
}
1002
{
1000
PXDIR
1011
558.77228176736605
1021
0.0
1031
0.0
1021
409.97466526678352
1031
0.0
1002
}
1002
{
1000
PORI
1011
528.27228176736605
1021
0.0
1031
0.0
1021
409.97466526678352
1031
0.0
1002
}
1002
{
1000
PINS
1011
528.27228176736605
1021
0.0
1031
0.0
1021
409.97466526678352
1031
0.0
1002
}
1002
{
1000
PINS2
1011
558.77228176736605
1021
0.0
1031
0.0
1021
400.47466526678357
1031
0.0
1002
}
1002
{
1000
C
1070
     1
1002
}
1001
GENIUS_GENODEF_13
1002
{
1000
HIER
1070
     0
1002
}
1002
{
1000
MANEDIT
1070
     0
1002
}
1002
{
1000
NOSEL
1070
     0
1002
}
1002
{
1000
BEHIND
1070
     0
1002
}
1002
{
1000
OTHER
1070
     0
1002
}
1002
{
1000
REACTOR
1002
}
1001
GENIUS_GENOBJ-N-REC_13
1002
{
1000
OWNER
1000
GEN
1002
}
  0
LINE
  5
24B4E
  8
OS
 10
558.77228176736605
 20
409.97466526678352
 30
0.0
 11
558.77228176736605
 21
400.47466526678357
 31
0.0
1001
GENIUS_GENREC_14
1002
{
1000
PYDIR
1011
528.27228176736605
1021
0.0
1031
0.0
1021
400.47466526678357
1031
0.0
1002
}
1002
{
1000
PXDIR
1011
558.77228176736605
1021
0.0
1031
0.0
1021
409.97466526678352
1031
0.0
1002
}
1002
{
1000
PORI
1011
528.27228176736605
1021
0.0
1031
0.0
1021
409.97466526678352
1031
0.0
1002
}
1002
{
1000
PINS
1011
528.27228176736605
1021
0.0
1031
0.0
1021
409.97466526678352
1031
0.0
1002
}
1002
{
1000
PINS2
1011
558.77228176736605
1021
0.0
1031
0.0
1021
400.47466526678357
1031
0.0
1002
}
1002
{
1000
C
1070
     1
1002
}
1001
GENIUS_GENODEF_13
1002
{
1000
HIER
1070
     0
1002
}
1002
{
1000
MANEDIT
1070
     0
1002
}
1002
{
1000
NOSEL
1070
     0
1002
}
1002
{
1000
BEHIND
1070
     0
1002
}
1002
{
1000
OTHER
1070
     0
1002
}
1002
{
1000
REACTOR
1002
}
1001
GENIUS_GENOBJ-N-REC_13
1002
{
1000
OWNER
1000
GEN
1002
}
  0
LINE
  5
24B4F
  8
OS
 10
558.77228176736605
 20
400.47466526678357
 30
0.0
 11
528.27228176736605
 21
400.47466526678357
 31
0.0
1001
GENIUS_GENREC_14
1002
{
1000
PYDIR
1011
528.27228176736605
1021
0.0
1031
0.0
1021
400.47466526678357
1031
0.0
1002
}
1002
{
1000
PXDIR
1011
558.77228176736605
1021
0.0
1031
0.0
1021
409.97466526678352
1031
0.0
1002
}
1002
{
1000
PORI
1011
528.27228176736605
1021
0.0
1031
0.0
1021
409.97466526678352
1031
0.0
1002
}
1002
{
1000
PINS
1011
528.27228176736605
1021
0.0
1031
0.0
1021
409.97466526678352
1031
0.0
1002
}
1002
{
1000
PINS2
1011
558.77228176736605
1021
0.0
1031
0.0
1021
400.47466526678357
1031
0.0
1002
}
1002
{
1000
C
1070
     1
1002
}
1001
GENIUS_GENODEF_13
1002
{
1000
HIER
1070
     0
1002
}
1002
{
1000
MANEDIT
1070
     0
1002
}
1002
{
1000
NOSEL
1070
     0
1002
}
1002
{
1000
BEHIND
1070
     0
1002
}
1002
{
1000
OTHER
1070
     0
1002
}
1002
{
1000
REACTOR
1002
}
1001
GENIUS_GENOBJ-N-REC_13
1002
{
1000
OWNER
1000
GEN
1002
}
  0
LINE
  5
24B50
  8
OS
 10
528.27228176736605
 20
400.47466526678357
 30
0.0
 11
528.27228176736605
 21
409.97466526678352
 31
0.0
1001
GENIUS_GENREC_14
1002
{
1000
PYDIR
1011
528.27228176736605
1021
0.0
1031
0.0
1021
400.47466526678357
1031
0.0
1002
}
1002
{
1000
PXDIR
1011
558.77228176736605
1021
0.0
1031
0.0
1021
409.97466526678352
1031
0.0
1002
}
1002
{
1000
PORI
1011
528.27228176736605
1021
0.0
1031
0.0
1021
409.97466526678352
1031
0.0
1002
}
1002
{
1000
PINS
1011
528.27228176736605
1021
0.0
1031
0.0
1021
409.97466526678352
1031
0.0
1002
}
1002
{
1000
PINS2
1011
558.77228176736605
1021
0.0
1031
0.0
1021
400.47466526678357
1031
0.0
1002
}
1002
{
1000
C
1070
     1
1002
}
1001
GENIUS_GENODEF_13
1002
{
1000
HIER
1070
     0
1002
}
1002
{
1000
MANEDIT
1070
     0
1002
}
1002
{
1000
NOSEL
1070
     0
1002
}
1002
{
1000
BEHIND
1070
     0
1002
}
1002
{
1000
OTHER
1070
     0
1002
}
1002
{
1000
REACTOR
1002
}
1001
GENIUS_GENOBJ-N-REC_13
1002
{
1000
OWNER
1000
GEN
1002
}
  0
LINE
  5
24B51
  8
SU
 10
558.77228176736605
 20
410.97466526678352
 30
0.0
 11
558.77228176736605
 21
442.97466232851411
 31
0.0
  0
LINE
  5
24B52
  8
SU
 10
528.27228176736605
 20
410.97466526678352
 30
0.0
 11
528.27228176736605
 21
442.97466232851411
 31
0.0
  0
LINE
  5
24B53
  8
SU
 10
558.77228176736605
 20
439.97466232851423
 30
0.0
 11
528.27228176736605
 21
439.97466232851423
 31
0.0
  0
TEXT
  5
24B57
  8
SU
 10
676.72234631674417
 20
106.34633193454501
 30
0.0
 40
7.0
  1
9
 50
90.0
 41
0.8299999999999999
  0
TEXT
  5
24B59
  8
SU
 10
656.72234631681374
 20
336.07133193345032
 30
0.0
 40
7.0
  1
3.5
 50
90.0
 41
0.8299999999999999
  0
TEXT
  5
24B5C
  8
SU
 10
676.72234631681476
 20
377.04133193345029
 30
0.0
 40
7.0
  1
27.5
 50
90.0
 41
0.8299999999999999
  0
TEXT
  5
24B5F
  8
SU
 10
676.72234631681476
 20
339.5713327179181
 30
0.0
 40
7.0
  1
9.5
 50
90.0
 41
0.8299999999999999
  0
TEXT
  5
24B60
  8
SU
 10
656.72234631681476
 20
88.87133193454531
 30
0.0
 40
7.0
  1
5
 50
90.0
 41
0.8299999999999999
  0
TEXT
  5
24B63
  8
SU
 10
696.72234631681465
 20
248.08035645865121
 30
0.0
 40
10.0
  1
H
 50
90.0
 41
0.8299999999999999
  0
TEXT
  5
24B64
  8
SU
 10
676.72234631681476
 20
230.9683663411025
 30
0.0
 40
7.0
  1
DH
 50
90.0
 41
0.8299999999999999
  0
TEXT
  5
24B67
  8
SU
 10
331.05885588565701
 20
106.34633193454501
 30
0.0
 40
7.0
  1
9
 50
90.0
 41
0.8299999999999999
  0
TEXT
  5
24B69
  8
SU
 10
311.05885588572647
 20
336.07133220960372
 30
0.0
 40
7.0
  1
3.5
 50
90.0
 41
0.8299999999999999
  0
TEXT
  5
24B6C
  8
SU
 10
331.05885588572761
 20
377.04133193345029
 30
0.0
 40
7.0
  1
27.5
 50
90.0
 41
0.8299999999999999
  0
TEXT
  5
24B6F
  8
SU
 10
331.05885588572761
 20
339.5713327179181
 30
0.0
 40
7.0
  1
9.5
 50
90.0
 41
0.8299999999999999
  0
TEXT
  5
24B70
  8
SU
 10
311.05885588572761
 20
88.871331934545296
 30
0.0
 40
7.0
  1
5
 50
90.0
 41
0.8299999999999999
  0
TEXT
  5
24B73
  8
SU
 10
351.05885588572738
 20
248.0803564586511
 30
0.0
 40
10.0
  1
H
 50
90.0
 41
0.8299999999999999
  0
TEXT
  5
24B74
  8
SU
 10
331.05885588572761
 20
230.9683663411025
 30
0.0
 40
7.0
  1
DH
 50
90.0
 41
0.8299999999999999
  0
TEXT
  5
24B77
  8
SU
 10
204.32545421964221
 20
314.77466526678347
 30
0.0
 40
7.0
  1
33
 41
0.8299999999999999
  0
TEXT
  5
24B7A
  8
SU
 10
989.52409843206772
 20
447.88610075513162
 30
0.0
 40
7.0
  1
9
 41
0.8299999999999999
  0
TEXT
  5
24B7D
  8
SU
 10
965.61909843206888
 20
447.88610075513162
 30
0.0
 40
7.0
  1
33
 41
0.8299999999999999
  0
TEXT
  5
24B82
  8
SU
 10
1083.0627782702729
 20
560.61276742179859
 30
0.0
 40
7.0
  1
(3)
 50
90.0
 41
0.8299999999999999
  0
TEXT
  5
24B84
  8
SU
 10
978.64909843206908
 20
733.84911310715916
 30
0.0
 40
7.0
  1
2
 41
0.8299999999999999
  0
TEXT
  5
24B85
  8
SU
 10
1085.3961116036071
 20
601.25610075513191
 30
0.0
 40
7.0
  1
2.5
 50
90.0
 41
0.8299999999999999
  0
TEXT
  5
24B88
  8
SU
 10
1085.396111603606
 20
469.33443408846529
 30
0.0
 40
7.0
  1
DW
 50
90.0
 41
0.8299999999999999
  0
TEXT
  5
24B8B
  8
SU
 10
990.38576533666549
 20
753.54077860380403
 30
0.0
 40
7.0
  1
7
 41
0.8299999999999999
  0
TEXT
  5
24B8D
  8
SU
 10
1125.3961116036071
 20
412.67414162332619
 30
0.0
 40
7.0
  1
外々寸法
 50
90.0
 41
0.8299999999999999
  0
TEXT
  5
24B90
  8
SU
 10
1105.3961116036071
 20
609.65276647007147
 30
0.0
 40
7.0
  1
80.5
 50
90.0
 41
0.8299999999999999
  0
TEXT
  5
24B92
  8
SU
 10
754.48309843206823
 20
773.54077860380403
 30
0.0
 40
7.0
  1
外々寸法
 41
0.8299999999999999
  0
TEXT
  5
24B95
  8
SU
 10
1105.3961116036071
 20
381.83848123165018
 30
0.0
 40
10.0
  1
W2
 50
90.0
 41
0.8299999999999999
  0
TEXT
  5
24B96
  8
SU
 10
924.92777956751206
 20
387.55276742179882
 30
0.0
 40
7.0
  1
35
 50
90.0
 41
0.8299999999999999
  0
TEXT
  5
24B99
  8
SU
 10
694.61909843206877
 20
537.58871458695319
 30
0.0
 40
7.0
  1
35
 41
0.8299999999999999
  0
TEXT
  5
24B9C
  8
SU
 10
830.16167850605495
 20
713.54077860380403
 30
0.0
 40
7.0
  1
35
 41
0.8299999999999999
  0
TEXT
  5
24B9F
  8
SU
 10
896.15076509873586
 20
733.84911310715916
 30
0.0
 40
7.0
  1
DW
 41
0.8299999999999999
  0
TEXT
  5
24BA2
  8
SU
 10
756.8405272414293
 20
753.54077860380403
 30
0.0
 40
10.0
  1
W1
 41
0.8299999999999999
  0
TEXT
  5
24BA3
  8
SU
 10
786.35243176540234
 20
592.55276694593601
 30
0.0
 40
7.0
  1
33
 50
90.0
 41
0.8299999999999999
  0
TEXT
  5
24BA6
  8
SU
 10
786.15243176540253
 20
608.58276647007335
 30
0.0
 40
7.0
  1
3
 50
90.0
 41
0.8299999999999999
  0
TEXT
  5
24BA7
  8
SU
 10
786.4206987526585
 20
669.656099803404
 30
0.0
 40
7.0
  1
9
 50
90.0
 41
0.8299999999999999
  0
TEXT
  5
24BA9
  8
SU
 10
786.35243176540234
 20
628.55276694593556
 30
0.0
 40
7.0
  1
33
 50
90.0
 41
0.8299999999999999
  0
TEXT
  5
24BAC
  8
SU
 10
502.4189484340327
 20
72.757321120501388
 30
0.0
 40
7.0
  1
7
 41
0.8299999999999999
  0
TEXT
  5
24BAF
  8
SU
 10
537.73408918248708
 20
72.757321120501388
 30
0.0
 40
7.0
  1
37
 41
0.8299999999999999
  0
TEXT
  5
24BB2
  8
SU
 10
124.4554580028761
 20
72.774665267878547
 30
0.0
 40
7.0
  1
6.5
 41
0.8299999999999999
  0
TEXT
  5
24BB5
  8
SU
 10
186.18712466964689
 20
72.774665267878547
 30
0.0
 40
7.0
  1
74
 41
0.8299999999999999
  0
TEXT
  5
24BB8
  8
SU
 10
488.58561510069927
 20
334.77463286180148
 30
0.0
 40
7.0
  1
10.3
 41
0.8299999999999999
  0
TEXT
  5
24BBA
  8
SU
 10
536.16367726898068
 20
334.77466526678342
 30
0.0
 40
7.0
  1
36.1
 41
0.8299999999999999
  0
TEXT
  5
24BBD
  8
SU
 10
519.89395221733605
 20
314.77466526678262
 30
0.0
 40
7.0
  1
9
 41
0.8299999999999999
  0
TEXT
  5
24BBF
  8
SU
 10
574.44228176736601
 20
314.77466526678347
 30
0.0
 40
7.0
  1
4.4
 41
0.8299999999999999
  0
TEXT
  5
24BC1
  8
SU
 10
537.98895221733596
 20
314.77466526678347
 30
0.0
 40
7.0
  1
33
 41
0.8299999999999999
  0
TEXT
  5
24BC4
  8
SU
 10
240.7787279577191
 20
314.77466526678347
 30
0.0
 40
7.0
  1
4.4
 41
0.8299999999999999
  0
TEXT
  5
24BC6
  8
SU
 10
168.3254542196421
 20
314.77466526678347
 30
0.0
 40
7.0
  1
33
 41
0.8299999999999999
  0
TEXT
  5
24BC9
  8
SU
 10
124.45545800294551
 20
334.77466506132839
 30
0.0
 40
7.0
  1
4.7
 41
0.8299999999999999
  0
TEXT
  5
24BCB
  8
SU
 10
165.6701868378936
 20
334.77466526678347
 30
0.0
 40
7.0
  1
77.7
 41
0.8299999999999999
  0
TEXT
  5
24BCE
  8
SU
 10
150.23045800294551
 20
314.77466526678262
 30
0.0
 40
7.0
  1
9
 41
0.8299999999999999
  0
TEXT
  5
24BD0
  8
SU
 10
195.82878376967221
 20
304.97466526678352
 30
0.0
 40
7.0
  1
3
 41
0.8299999999999999
  0
TEXT
  5
24BD2
  8
SU
 10
220.9920604184085
 20
443.4746619264352
 30
0.0
 40
7.0
  1
5.6
 41
0.8299999999999999
  0
TEXT
  5
24BD4
  8
SU
 10
143.38542572822109
 20
443.47466232851423
 30
0.0
 40
7.0
  1
10.3
 41
0.8299999999999999
  0
TEXT
  5
24BD5
  8
SU
 10
182.0370601201632
 20
441.27466192643521
 30
0.0
 40
7.0
  1
66.5
 41
0.8299999999999999
  0
TEXT
  5
24BD8
  8
SU
 10
574.44228176736578
 20
441.27466232851418
 30
0.0
 40
7.0
  1
5.6
 41
0.8299999999999999
  0
TEXT
  5
24BDA
  8
SU
 10
488.04894843403258
 20
441.27466232851418
 30
0.0
 40
7.0
  1
10.3
 41
0.8299999999999999
  0
TEXT
  5
24BDC
  8
SU
 10
533.83894843403255
 20
441.27466232851418
 30
0.0
 40
7.0
  1
30.5
 41
0.8299999999999999
  0
ARC
  5
24BDF
  8
SU
 10
678.02234631674423
 20
104.47466526787851
 30
0.0
 40
0.5999999999999944
 50
90.0
 51
270.0
  0
ARC
  5
24BE0
  8
SU
 10
678.02234631674423
 20
104.47466526787851
 30
0.0
 40
0.5999999999999944
 50
270.0
 51
90.0
  0
ARC
  5
24BE1
  8
SU
 10
658.02234631681381
 20
359.97466526678352
 30
0.0
 40
0.6000000000000229
 50
90.0
 51
270.0
  0
ARC
  5
24BE2
  8
SU
 10
658.02234631681381
 20
359.97466526678352
 30
0.0
 40
0.6000000000000229
 50
270.0
 51
90.0
  0
ARC
  5
24BE3
  8
SU
 10
658.02234631681381
 20
363.47466605125129
 30
0.0
 40
0.6000000000000229
 50
270.0
 51
90.0
  0
ARC
  5
24BE4
  8
SU
 10
658.02234631681381
 20
363.47466605125129
 30
0.0
 40
0.6000000000000229
 50
90.0
 51
270.0
  0
ARC
  5
24BE5
  8
SU
 10
678.02234631681495
 20
372.97466526678357
 30
0.0
 40
0.6000000000000229
 50
90.0
 51
270.0
  0
ARC
  5
24BE6
  8
SU
 10
678.02234631681495
 20
372.97466526678357
 30
0.0
 40
0.6000000000000229
 50
270.0
 51
90.0
  0
ARC
  5
24BE7
  8
SU
 10
678.02234631681495
 20
400.47466526678357
 30
0.0
 40
0.6000000000000229
 50
270.0
 51
90.0
  0
ARC
  5
24BE8
  8
SU
 10
678.02234631681495
 20
400.47466526678357
 30
0.0
 40
0.6000000000000229
 50
90.0
 51
270.0
  0
ARC
  5
24BE9
  8
SU
 10
658.02234631681483
 20
104.47466526787851
 30
0.0
 40
0.5999999999999944
 50
90.0
 51
270.0
  0
ARC
  5
24BEA
  8
SU
 10
658.02234631681483
 20
104.47466526787851
 30
0.0
 40
0.5999999999999944
 50
270.0
 51
90.0
  0
ARC
  5
24BEB
  8
SU
 10
658.02234631681483
 20
109.47466526787851
 30
0.0
 40
0.5999999999999944
 50
270.0
 51
90.0
  0
ARC
  5
24BEC
  8
SU
 10
658.02234631681483
 20
109.47466526787851
 30
0.0
 40
0.5999999999999944
 50
90.0
 51
270.0
  0
ARC
  5
24BED
  8
SU
 10
678.02234631681495
 20
363.47466605125129
 30
0.0
 40
0.6000000000000229
 50
270.0
 51
90.0
  0
ARC
  5
24BEE
  8
SU
 10
678.02234631681495
 20
363.47466605125129
 30
0.0
 40
0.6000000000000229
 50
90.0
 51
270.0
  0
ARC
  5
24BEF
  8
SU
 10
678.02234631681483
 20
113.47466526787851
 30
0.0
 40
0.5999999999999944
 50
90.0
 51
270.0
  0
ARC
  5
24BF0
  8
SU
 10
678.02234631681483
 20
113.47466526787851
 30
0.0
 40
0.5999999999999944
 50
270.0
 51
90.0
  0
ARC
  5
24BF1
  8
SU
 10
332.35885588565702
 20
104.47466526787851
 30
0.0
 40
0.5999999999999944
 50
90.0
 51
270.0
  0
ARC
  5
24BF2
  8
SU
 10
332.35885588565702
 20
104.47466526787851
 30
0.0
 40
0.5999999999999944
 50
270.0
 51
90.0
  0
ARC
  5
24BF3
  8
SU
 10
312.3588558857266
 20
359.97466554293692
 30
0.0
 40
0.6000000000000229
 50
90.0
 51
270.0
  0
ARC
  5
24BF4
  8
SU
 10
312.3588558857266
 20
359.97466554293692
 30
0.0
 40
0.6000000000000229
 50
270.0
 51
90.0
  0
ARC
  5
24BF5
  8
SU
 10
312.3588558857266
 20
363.47466605125129
 30
0.0
 40
0.6000000000000229
 50
270.0
 51
90.0
  0
ARC
  5
24BF6
  8
SU
 10
312.3588558857266
 20
363.47466605125129
 30
0.0
 40
0.6000000000000229
 50
90.0
 51
270.0
  0
ARC
  5
24BF7
  8
SU
 10
332.35885588572768
 20
372.97466550758929
 30
0.0
 40
0.6000000000000229
 50
90.0
 51
270.0
  0
ARC
  5
24BF8
  8
SU
 10
332.35885588572768
 20
372.97466550758929
 30
0.0
 40
0.6000000000000229
 50
270.0
 51
90.0
  0
ARC
  5
24BF9
  8
SU
 10
332.35885588572768
 20
400.47466526678357
 30
0.0
 40
0.6000000000000229
 50
270.0
 51
90.0
  0
ARC
  5
24BFA
  8
SU
 10
332.35885588572768
 20
400.47466526678357
 30
0.0
 40
0.6000000000000229
 50
90.0
 51
270.0
  0
ARC
  5
24BFB
  8
SU
 10
312.35885588572762
 20
104.47466526787851
 30
0.0
 40
0.5999999999999944
 50
90.0
 51
270.0
  0
ARC
  5
24BFC
  8
SU
 10
312.35885588572762
 20
104.47466526787851
 30
0.0
 40
0.5999999999999944
 50
270.0
 51
90.0
  0
ARC
  5
24BFD
  8
SU
 10
312.35885588572762
 20
109.47466526787851
 30
0.0
 40
0.5999999999999944
 50
270.0
 51
90.0
  0
ARC
  5
24BFE
  8
SU
 10
312.35885588572762
 20
109.47466526787851
 30
0.0
 40
0.5999999999999944
 50
90.0
 51
270.0
  0
ARC
  5
24BFF
  8
SU
 10
332.35885588572768
 20
363.47466605125129
 30
0.0
 40
0.6000000000000229
 50
270.0
 51
90.0
  0
ARC
  5
24C00
  8
SU
 10
332.35885588572768
 20
363.47466605125129
 30
0.0
 40
0.6000000000000229
 50
90.0
 51
270.0
  0
ARC
  5
24C01
  8
SU
 10
332.35885588572762
 20
113.47466526787829
 30
0.0
 40
0.5999999999999944
 50
90.0
 51
270.0
  0
ARC
  5
24C02
  8
SU
 10
332.35885588572762
 20
113.47466526787829
 30
0.0
 40
0.5999999999999944
 50
270.0
 51
90.0
  0
ARC
  5
24C03
  8
SU
 10
226.35879133627881
 20
313.47466526678352
 30
0.0
 40
0.5999999999999944
 50
180.0
 51
0.0
  0
ARC
  5
24C04
  8
SU
 10
226.35879133627881
 20
313.47466526678352
 30
0.0
 40
0.5999999999999944
 50
0.0
 51
180.0
  0
ARC
  5
24C05
  8
SU
 10
193.35878376967219
 20
313.47466526678352
 30
0.0
 40
0.5999999999999944
 50
0.0
 51
180.0
  0
ARC
  5
24C06
  8
SU
 10
193.35878376967219
 20
313.47466526678352
 30
0.0
 40
0.5999999999999944
 50
180.0
 51
0.0
  0
ARC
  5
24C07
  8
SU
 10
996.6524317653998
 20
446.58610075513161
 30
0.0
 40
0.6000000000000229
 50
180.0
 51
0.0
  0
ARC
  5
24C08
  8
SU
 10
996.6524317653998
 20
446.58610075513161
 30
0.0
 40
0.6000000000000229
 50
0.0
 51
180.0
  0
ARC
  5
24C09
  8
SU
 10
987.65243176540253
 20
446.58610075513161
 30
0.0
 40
0.6000000000000229
 50
0.0
 51
180.0
  0
ARC
  5
24C0A
  8
SU
 10
987.65243176540253
 20
446.58610075513161
 30
0.0
 40
0.6000000000000229
 50
180.0
 51
0.0
  0
ARC
  5
24C0B
  8
SU
 10
954.65243176540253
 20
446.58610075513161
 30
0.0
 40
0.6000000000000229
 50
0.0
 51
180.0
  0
ARC
  5
24C0C
  8
SU
 10
954.65243176540253
 20
446.58610075513161
 30
0.0
 40
0.6000000000000229
 50
180.0
 51
0.0
  0
ARC
  5
24C0D
  8
SU
 10
987.65243176540196
 20
446.58610075513161
 30
0.0
 40
0.6000000000000229
 50
180.0
 51
0.0
  0
ARC
  5
24C0E
  8
SU
 10
987.65243176540196
 20
446.58610075513161
 30
0.0
 40
0.6000000000000229
 50
0.0
 51
180.0
  0
ARC
  5
24C0F
  8
SU
 10
1086.6961116036071
 20
579.086099803406
 30
0.0
 40
0.6000000000000229
 50
270.0
 51
90.0
  0
ARC
  5
24C10
  8
SU
 10
1086.6961116036071
 20
579.086099803406
 30
0.0
 40
0.6000000000000229
 50
90.0
 51
270.0
  0
ARC
  5
24C11
  8
SU
 10
1086.6961116036071
 20
576.08610075513184
 30
0.0
 40
0.6000000000000229
 50
90.0
 51
270.0
  0
ARC
  5
24C12
  8
SU
 10
1086.6961116036071
 20
576.08610075513184
 30
0.0
 40
0.6000000000000229
 50
270.0
 51
90.0
  0
ARC
  5
24C13
  8
SU
 10
989.65243224126471
 20
732.5491131071592
 30
0.0
 40
0.6000000000000229
 50
0.0
 51
180.0
  0
ARC
  5
24C14
  8
SU
 10
989.65243224126471
 20
732.5491131071592
 30
0.0
 40
0.6000000000000229
 50
180.0
 51
0.0
  0
ARC
  5
24C15
  8
SU
 10
1086.6961116036071
 20
581.58610075513184
 30
0.0
 40
0.6000000000000229
 50
90.0
 51
270.0
  0
ARC
  5
24C16
  8
SU
 10
1086.6961116036071
 20
581.58610075513184
 30
0.0
 40
0.6000000000000229
 50
270.0
 51
90.0
  0
ARC
  5
24C17
  8
SU
 10
1086.6961116036071
 20
579.086099803406
 30
0.0
 40
0.6000000000000229
 50
270.0
 51
90.0
  0
ARC
  5
24C18
  8
SU
 10
1086.6961116036071
 20
579.086099803406
 30
0.0
 40
0.6000000000000229
 50
90.0
 51
270.0
  0
ARC
  5
24C19
  8
SU
 10
1086.6961116036071
 20
576.08610075513184
 30
0.0
 40
0.6000000000000229
 50
270.0
 51
90.0
  0
ARC
  5
24C1A
  8
SU
 10
1086.6961116036071
 20
576.08610075513184
 30
0.0
 40
0.6000000000000229
 50
90.0
 51
270.0
  0
ARC
  5
24C1B
  8
SU
 10
1086.6961116036059
 20
375.58610075513189
 30
0.0
 40
0.6000000000000229
 50
90.0
 51
270.0
  0
ARC
  5
24C1C
  8
SU
 10
1086.6961116036059
 20
375.58610075513189
 30
0.0
 40
0.6000000000000229
 50
270.0
 51
90.0
  0
ARC
  5
24C1D
  8
SU
 10
996.6524317653998
 20
752.24077860380407
 30
0.0
 40
0.6000000000000229
 50
180.0
 51
0.0
  0
ARC
  5
24C1E
  8
SU
 10
996.6524317653998
 20
752.24077860380407
 30
0.0
 40
0.6000000000000229
 50
0.0
 51
180.0
  0
ARC
  5
24C1F
  8
SU
 10
1126.6961116036071
 20
201.58610075513209
 30
0.0
 40
0.5999999999999944
 50
90.0
 51
270.0
  0
ARC
  5
24C20
  8
SU
 10
1126.6961116036071
 20
201.58610075513209
 30
0.0
 40
0.5999999999999944
 50
270.0
 51
90.0
  0
ARC
  5
24C21
  8
SU
 10
1126.6961116036071
 20
659.5860998034035
 30
0.0
 40
0.6000000000000229
 50
270.0
 51
90.0
  0
ARC
  5
24C22
  8
SU
 10
1126.6961116036071
 20
659.5860998034035
 30
0.0
 40
0.6000000000000229
 50
90.0
 51
270.0
  0
ARC
  5
24C23
  8
SU
 10
1106.6961116036071
 20
659.58609980340373
 30
0.0
 40
0.6000000000000229
 50
270.0
 51
90.0
  0
ARC
  5
24C24
  8
SU
 10
1106.6961116036071
 20
659.58609980340373
 30
0.0
 40
0.6000000000000229
 50
90.0
 51
270.0
  0
ARC
  5
24C25
  8
SU
 10
996.6524317653998
 20
772.24077860380407
 30
0.0
 40
0.6000000000000229
 50
180.0
 51
0.0
  0
ARC
  5
24C26
  8
SU
 10
996.6524317653998
 20
772.24077860380407
 30
0.0
 40
0.6000000000000229
 50
0.0
 51
180.0
  0
ARC
  5
24C27
  8
SU
 10
538.65243176540343
 20
772.24077860380407
 30
0.0
 40
0.6000000000000229
 50
0.0
 51
180.0
  0
ARC
  5
24C28
  8
SU
 10
538.65243176540343
 20
772.24077860380407
 30
0.0
 40
0.6000000000000229
 50
180.0
 51
0.0
  0
ARC
  5
24C29
  8
SU
 10
926.22777956751224
 20
410.58610075513201
 30
0.0
 40
0.6000000000000229
 50
270.0
 51
90.0
  0
ARC
  5
24C2A
  8
SU
 10
926.22777956751224
 20
410.58610075513201
 30
0.0
 40
0.6000000000000229
 50
90.0
 51
270.0
  0
ARC
  5
24C2B
  8
SU
 10
926.22777956751224
 20
375.58610075513189
 30
0.0
 40
0.6000000000000229
 50
90.0
 51
270.0
  0
ARC
  5
24C2C
  8
SU
 10
926.22777956751224
 20
375.58610075513189
 30
0.0
 40
0.6000000000000229
 50
270.0
 51
90.0
  0
ARC
  5
24C2D
  8
SU
 10
717.65243176540218
 20
536.28871458695335
 30
0.0
 40
0.6000000000000229
 50
180.0
 51
0.0
  0
ARC
  5
24C2E
  8
SU
 10
717.65243176540218
 20
536.28871458695335
 30
0.0
 40
0.6000000000000229
 50
0.0
 51
180.0
  0
ARC
  5
24C2F
  8
SU
 10
682.6524317654023
 20
536.28871458695335
 30
0.0
 40
0.6000000000000229
 50
0.0
 51
180.0
  0
ARC
  5
24C30
  8
SU
 10
682.6524317654023
 20
536.28871458695335
 30
0.0
 40
0.6000000000000229
 50
180.0
 51
0.0
  0
ARC
  5
24C31
  8
SU
 10
852.65243176540253
 20
712.24077860380396
 30
0.0
 40
0.6000000000000229
 50
180.0
 51
0.0
  0
ARC
  5
24C32
  8
SU
 10
852.65243176540253
 20
712.24077860380396
 30
0.0
 40
0.6000000000000229
 50
0.0
 51
180.0
  0
ARC
  5
24C33
  8
SU
 10
817.65243176540241
 20
712.24077860380396
 30
0.0
 40
0.6000000000000229
 50
0.0
 51
180.0
  0
ARC
  5
24C34
  8
SU
 10
817.65243176540241
 20
712.24077860380396
 30
0.0
 40
0.6000000000000229
 50
180.0
 51
0.0
  0
ARC
  5
24C35
  8
SU
 10
817.65243176540241
 20
732.5491131071592
 30
0.0
 40
0.6000000000000229
 50
0.0
 51
180.0
  0
ARC
  5
24C36
  8
SU
 10
817.65243176540241
 20
732.5491131071592
 30
0.0
 40
0.6000000000000229
 50
180.0
 51
0.0
  0
ARC
  5
24C37
  8
SU
 10
987.65243176540253
 20
732.5491131071592
 30
0.0
 40
0.6000000000000229
 50
180.0
 51
0.0
  0
ARC
  5
24C38
  8
SU
 10
987.65243176540253
 20
732.5491131071592
 30
0.0
 40
0.6000000000000229
 50
0.0
 51
180.0
  0
ARC
  5
24C39
  8
SU
 10
787.65243176540253
 20
581.58610075513184
 30
0.0
 40
0.6000000000000229
 50
90.0
 51
270.0
  0
ARC
  5
24C3A
  8
SU
 10
787.65243176540253
 20
581.58610075513184
 30
0.0
 40
0.6000000000000229
 50
270.0
 51
90.0
  0
ARC
  5
24C3B
  8
SU
 10
787.65243176540253
 20
614.58609980340646
 30
0.0
 40
0.6000000000000229
 50
270.0
 51
90.0
  0
ARC
  5
24C3C
  8
SU
 10
787.65243176540253
 20
614.58609980340646
 30
0.0
 40
0.6000000000000229
 50
90.0
 51
270.0
  0
ARC
  5
24C3D
  8
SU
 10
787.72069875265845
 20
659.58609980340373
 30
0.0
 40
0.6000000000000229
 50
270.0
 51
90.0
  0
ARC
  5
24C3E
  8
SU
 10
787.72069875265845
 20
659.58609980340373
 30
0.0
 40
0.6000000000000229
 50
90.0
 51
270.0
  0
ARC
  5
24C3F
  8
SU
 10
787.65243176540253
 20
617.58610075513172
 30
0.0
 40
0.6000000000000229
 50
90.0
 51
270.0
  0
ARC
  5
24C40
  8
SU
 10
787.65243176540253
 20
617.58610075513172
 30
0.0
 40
0.6000000000000229
 50
270.0
 51
90.0
  0
ARC
  5
24C41
  8
SU
 10
787.65243176540253
 20
650.586099803406
 30
0.0
 40
0.6000000000000229
 50
270.0
 51
90.0
  0
ARC
  5
24C42
  8
SU
 10
787.65243176540253
 20
650.586099803406
 30
0.0
 40
0.6000000000000229
 50
90.0
 51
270.0
  0
ARC
  5
24C43
  8
SU
 10
518.02228176736605
 20
71.457321120501391
 30
0.0
 40
0.6000000000000229
 50
0.0
 51
180.0
  0
ARC
  5
24C44
  8
SU
 10
518.02228176736605
 20
71.457321120501391
 30
0.0
 40
0.6000000000000229
 50
180.0
 51
0.0
  0
ARC
  5
24C45
  8
SU
 10
525.02228933404137
 20
71.457321120501391
 30
0.0
 40
0.6000000000000229
 50
180.0
 51
0.0
  0
ARC
  5
24C46
  8
SU
 10
525.02228933404137
 20
71.457321120501391
 30
0.0
 40
0.6000000000000229
 50
0.0
 51
180.0
  0
ARC
  5
24C47
  8
SU
 10
562.02228933404388
 20
71.457321120501391
 30
0.0
 40
0.6000000000000229
 50
180.0
 51
0.0
  0
ARC
  5
24C48
  8
SU
 10
562.02228933404388
 20
71.457321120501391
 30
0.0
 40
0.6000000000000229
 50
0.0
 51
180.0
  0
ARC
  5
24C49
  8
SU
 10
525.02228933404092
 20
71.457321120501391
 30
0.0
 40
0.6000000000000229
 50
0.0
 51
180.0
  0
ARC
  5
24C4A
  8
SU
 10
525.02228933404092
 20
71.457321120501391
 30
0.0
 40
0.6000000000000229
 50
180.0
 51
0.0
  0
ARC
  5
24C4B
  8
SU
 10
148.35879133620949
 20
71.474665267878549
 30
0.0
 40
0.5999999999999944
 50
0.0
 51
180.0
  0
ARC
  5
24C4C
  8
SU
 10
148.35879133620949
 20
71.474665267878549
 30
0.0
 40
0.5999999999999944
 50
180.0
 51
0.0
  0
ARC
  5
24C4D
  8
SU
 10
154.8587913362781
 20
71.474665267878549
 30
0.0
 40
0.5999999999999944
 50
180.0
 51
0.0
  0
ARC
  5
24C4E
  8
SU
 10
154.8587913362781
 20
71.474665267878549
 30
0.0
 40
0.5999999999999944
 50
0.0
 51
180.0
  0
ARC
  5
24C4F
  8
SU
 10
228.85879133627819
 20
71.474665267878549
 30
0.0
 40
0.5999999999999944
 50
180.0
 51
0.0
  0
ARC
  5
24C50
  8
SU
 10
228.85879133627819
 20
71.474665267878549
 30
0.0
 40
0.5999999999999944
 50
0.0
 51
180.0
  0
ARC
  5
24C51
  8
SU
 10
154.8587913363491
 20
71.474665267878549
 30
0.0
 40
0.5999999999999944
 50
0.0
 51
180.0
  0
ARC
  5
24C52
  8
SU
 10
154.8587913363491
 20
71.474665267878549
 30
0.0
 40
0.5999999999999944
 50
180.0
 51
0.0
  0
ARC
  5
24C53
  8
SU
 10
518.02228176736605
 20
333.47463286180152
 30
0.0
 40
0.6000000000000229
 50
0.0
 51
180.0
  0
ARC
  5
24C54
  8
SU
 10
518.02228176736605
 20
333.47463286180152
 30
0.0
 40
0.6000000000000229
 50
180.0
 51
0.0
  0
ARC
  5
24C55
  8
SU
 10
564.37228176736596
 20
333.4746652667834
 30
0.0
 40
0.6000000000000229
 50
180.0
 51
0.0
  0
ARC
  5
24C56
  8
SU
 10
564.37228176736596
 20
333.4746652667834
 30
0.0
 40
0.6000000000000229
 50
0.0
 51
180.0
  0
ARC
  5
24C57
  8
SU
 10
528.27228176736605
 20
333.4746652667834
 30
0.0
 40
0.6000000000000229
 50
0.0
 51
180.0
  0
ARC
  5
24C58
  8
SU
 10
528.27228176736605
 20
333.4746652667834
 30
0.0
 40
0.6000000000000229
 50
180.0
 51
0.0
  0
ARC
  5
24C59
  8
SU
 10
518.02228176736605
 20
313.47466526678261
 30
0.0
 40
0.6000000000000229
 50
0.0
 51
180.0
  0
ARC
  5
24C5A
  8
SU
 10
518.02228176736605
 20
313.47466526678261
 30
0.0
 40
0.6000000000000229
 50
180.0
 51
0.0
  0
ARC
  5
24C5B
  8
SU
 10
564.37228176736596
 20
313.47466526678352
 30
0.0
 40
0.6000000000000229
 50
180.0
 51
0.0
  0
ARC
  5
24C5C
  8
SU
 10
564.37228176736596
 20
313.47466526678352
 30
0.0
 40
0.6000000000000229
 50
0.0
 51
180.0
  0
ARC
  5
24C5D
  8
SU
 10
560.02228176736617
 20
313.47466526678352
 30
0.0
 40
0.6000000000000229
 50
180.0
 51
0.0
  0
ARC
  5
24C5E
  8
SU
 10
560.02228176736617
 20
313.47466526678352
 30
0.0
 40
0.6000000000000229
 50
0.0
 51
180.0
  0
ARC
  5
24C5F
  8
SU
 10
527.02228933397271
 20
313.47466526678352
 30
0.0
 40
0.6000000000000229
 50
0.0
 51
180.0
  0
ARC
  5
24C60
  8
SU
 10
527.02228933397271
 20
313.47466526678352
 30
0.0
 40
0.6000000000000229
 50
180.0
 51
0.0
  0
ARC
  5
24C61
  8
SU
 10
230.70872795771911
 20
313.47466526678352
 30
0.0
 40
0.5999999999999944
 50
180.0
 51
0.0
  0
ARC
  5
24C62
  8
SU
 10
230.70872795771911
 20
313.47466526678352
 30
0.0
 40
0.5999999999999944
 50
0.0
 51
180.0
  0
ARC
  5
24C63
  8
SU
 10
190.35879133627881
 20
313.47466526678352
 30
0.0
 40
0.5999999999999944
 50
180.0
 51
0.0
  0
ARC
  5
24C64
  8
SU
 10
190.35879133627881
 20
313.47466526678352
 30
0.0
 40
0.5999999999999944
 50
0.0
 51
180.0
  0
ARC
  5
24C65
  8
SU
 10
157.35878376967219
 20
313.47466526678352
 30
0.0
 40
0.5999999999999944
 50
0.0
 51
180.0
  0
ARC
  5
24C66
  8
SU
 10
157.35878376967219
 20
313.47466526678352
 30
0.0
 40
0.5999999999999944
 50
180.0
 51
0.0
  0
ARC
  5
24C67
  8
SU
 10
148.35879133627881
 20
333.47466506132832
 30
0.0
 40
0.5999999999999944
 50
0.0
 51
180.0
  0
ARC
  5
24C68
  8
SU
 10
148.35879133627881
 20
333.47466506132832
 30
0.0
 40
0.5999999999999944
 50
180.0
 51
0.0
  0
ARC
  5
24C69
  8
SU
 10
230.7087279577193
 20
333.47466526678352
 30
0.0
 40
0.5999999999999944
 50
180.0
 51
0.0
  0
ARC
  5
24C6A
  8
SU
 10
230.7087279577193
 20
333.47466526678352
 30
0.0
 40
0.5999999999999944
 50
0.0
 51
180.0
  0
ARC
  5
24C6B
  8
SU
 10
153.00872795771949
 20
333.47466526678352
 30
0.0
 40
0.5999999999999944
 50
0.0
 51
180.0
  0
ARC
  5
24C6C
  8
SU
 10
153.00872795771949
 20
333.47466526678352
 30
0.0
 40
0.5999999999999944
 50
180.0
 51
0.0
  0
ARC
  5
24C6D
  8
SU
 10
148.35879133627881
 20
313.47466526678261
 30
0.0
 40
0.5999999999999944
 50
0.0
 51
180.0
  0
ARC
  5
24C6E
  8
SU
 10
148.35879133627881
 20
313.47466526678261
 30
0.0
 40
0.5999999999999944
 50
180.0
 51
0.0
  0
ARC
  5
24C6F
  8
SU
 10
230.70872738332071
 20
439.97466192643532
 30
0.0
 40
0.5999999999999944
 50
180.0
 51
0.0
  0
ARC
  5
24C70
  8
SU
 10
230.70872738332071
 20
439.97466192643532
 30
0.0
 40
0.5999999999999944
 50
0.0
 51
180.0
  0
ARC
  5
24C71
  8
SU
 10
148.35879133627881
 20
439.97466232851423
 30
0.0
 40
0.5999999999999944
 50
0.0
 51
180.0
  0
ARC
  5
24C72
  8
SU
 10
148.35879133627881
 20
439.97466232851423
 30
0.0
 40
0.5999999999999944
 50
180.0
 51
0.0
  0
ARC
  5
24C73
  8
SU
 10
158.60872678683
 20
439.97466192643532
 30
0.0
 40
0.5999999999999944
 50
0.0
 51
180.0
  0
ARC
  5
24C74
  8
SU
 10
158.60872678683
 20
439.97466192643532
 30
0.0
 40
0.5999999999999944
 50
180.0
 51
0.0
  0
ARC
  5
24C75
  8
SU
 10
225.10872678682961
 20
439.97466192643532
 30
0.0
 40
0.5999999999999944
 50
180.0
 51
0.0
  0
ARC
  5
24C76
  8
SU
 10
225.10872678682961
 20
439.97466192643532
 30
0.0
 40
0.5999999999999944
 50
0.0
 51
180.0
  0
ARC
  5
24C77
  8
SU
 10
564.37228176736585
 20
439.97466232851423
 30
0.0
 40
0.6000000000000229
 50
180.0
 51
0.0
  0
ARC
  5
24C78
  8
SU
 10
564.37228176736585
 20
439.97466232851423
 30
0.0
 40
0.6000000000000229
 50
0.0
 51
180.0
  0
ARC
  5
24C79
  8
SU
 10
518.02228176736605
 20
439.97466232851423
 30
0.0
 40
0.6000000000000229
 50
0.0
 51
180.0
  0
ARC
  5
24C7A
  8
SU
 10
518.02228176736605
 20
439.97466232851423
 30
0.0
 40
0.6000000000000229
 50
180.0
 51
0.0
  0
ARC
  5
24C7B
  8
SU
 10
528.27228176736605
 20
439.97466232851423
 30
0.0
 40
0.6000000000000229
 50
0.0
 51
180.0
  0
ARC
  5
24C7C
  8
SU
 10
528.27228176736605
 20
439.97466232851423
 30
0.0
 40
0.6000000000000229
 50
180.0
 51
0.0
  0
ARC
  5
24C7D
  8
SU
 10
558.77228176736605
 20
439.97466232851423
 30
0.0
 40
0.6000000000000229
 50
180.0
 51
0.0
  0
ARC
  5
24C7E
  8
SU
 10
558.77228176736605
 20
439.97466232851423
 30
0.0
 40
0.6000000000000229
 50
0.0
 51
180.0
  0
ENDSEC
  0
EOF
