  0
SECTION
  2
HEADER
  9
$ACADVER
  1
AC1009
  9
$INSBASE
 10
0.0
 20
0.0
 30
0.0
  9
$EXTMIN
 10
19.300000000000001
 20
16.25
 30
-0.0000000000000001
  9
$EXTMAX
 10
1165.5
 20
830.74999999999989
 30
0.0
  9
$LIMMIN
 10
0.0
 20
0.0
  9
$LIMMAX
 10
1189.0
 20
841.0
  9
$ORTHOMODE
 70
     1
  9
$REGENMODE
 70
     1
  9
$FILLMODE
 70
     1
  9
$QTEXTMODE
 70
     0
  9
$MIRRTEXT
 70
     0
  9
$DRAGMODE
 70
     2
  9
$LTSCALE
 40
1.0
  9
$OSMODE
 70
  3071
  9
$ATTMODE
 70
     1
  9
$TEXTSIZE
 40
12.5
  9
$TRACEWID
 40
1.0
  9
$TEXTSTYLE
  7
STANDARD
  9
$CLAYER
  8
0
  9
$CELTYPE
  6
BYLAYER
  9
$CECOLOR
 62
   256
  9
$DIMSCALE
 40
1.0
  9
$DIMASZ
 40
7.0
  9
$DIMEXO
 40
1.0
  9
$DIMDLI
 40
7.0
  9
$DIMRND
 40
0.0
  9
$DIMDLE
 40
0.0
  9
$DIMEXE
 40
3.0
  9
$DIMTP
 40
0.1
  9
$DIMTM
 40
0.1
  9
$DIMTXT
 40
7.0
  9
$DIMCEN
 40
0.0
  9
$DIMTSZ
 40
0.0
  9
$DIMTOL
 70
     0
  9
$DIMLIM
 70
     0
  9
$DIMTIH
 70
     0
  9
$DIMTOH
 70
     0
  9
$DIMSE1
 70
     0
  9
$DIMSE2
 70
     0
  9
$DIMTAD
 70
     1
  9
$DIMZIN
 70
     8
  9
$DIMBLK
  1
DOTSMALL
  9
$DIMASO
 70
     1
  9
$DIMSHO
 70
     1
  9
$DIMPOST
  1

  9
$DIMAPOST
  1
"
  9
$DIMALT
 70
     0
  9
$DIMALTD
 70
     2
  9
$DIMALTF
 40
0.0393701
  9
$DIMLFAC
 40
1.0
  9
$DIMTOFL
 70
     1
  9
$DIMTVP
 40
0.0
  9
$DIMTIX
 70
     0
  9
$DIMSOXD
 70
     0
  9
$DIMSAH
 70
     0
  9
$DIMBLK1
  1

  9
$DIMBLK2
  1

  9
$DIMSTYLE
  2
SANKYO
  9
$DIMCLRD
 70
   256
  9
$DIMCLRE
 70
   256
  9
$DIMCLRT
 70
   256
  9
$DIMTFAC
 40
0.71
  9
$DIMGAP
 40
1.3
  9
$LUNITS
 70
     2
  9
$LUPREC
 70
     4
  9
$SKETCHINC
 40
1.0
  9
$FILLETRAD
 40
0.4
  9
$AUNITS
 70
     0
  9
$AUPREC
 70
     0
  9
$MENU
  1
.
  9
$ELEVATION
 40
0.0
  9
$PELEVATION
 40
0.0
  9
$THICKNESS
 40
0.0
  9
$LIMCHECK
 70
     0
  9
$BLIPMODE
 70
     0
  9
$CHAMFERA
 40
10.0
  9
$CHAMFERB
 40
10.0
  9
$SKPOLY
 70
     0
  9
$TDCREATE
 40
2455110.561913426
  9
$TDUPDATE
 40
2459033.5581520488
  9
$TDINDWG
 40
2.3224339931000002
  9
$TDUSRTIMER
 40
2.3222383449000001
  9
$USRTIMER
 70
     1
  9
$ANGBASE
 50
0.0
  9
$ANGDIR
 70
     0
  9
$PDMODE
 70
     0
  9
$PDSIZE
 40
0.0
  9
$PLINEWID
 40
0.0
  9
$COORDS
 70
     2
  9
$SPLFRAME
 70
     0
  9
$SPLINETYPE
 70
     6
  9
$SPLINESEGS
 70
     8
  9
$ATTDIA
 70
     1
  9
$ATTREQ
 70
     1
  9
$HANDLING
 70
     1
  9
$HANDSEED
  5
20281
  9
$SURFTAB1
 70
     6
  9
$SURFTAB2
 70
     6
  9
$SURFTYPE
 70
     6
  9
$SURFU
 70
     6
  9
$SURFV
 70
     6
  9
$UCSNAME
  2

  9
$UCSORG
 10
0.0
 20
0.0
 30
0.0
  9
$UCSXDIR
 10
1.0
 20
0.0
 30
0.0
  9
$UCSYDIR
 10
0.0
 20
1.0
 30
0.0
  9
$PUCSNAME
  2

  9
$PUCSORG
 10
0.0
 20
0.0
 30
0.0
  9
$PUCSXDIR
 10
1.0
 20
0.0
 30
0.0
  9
$PUCSYDIR
 10
0.0
 20
1.0
 30
0.0
  9
$USERI1
 70
     0
  9
$USERI2
 70
     0
  9
$USERI3
 70
     0
  9
$USERI4
 70
     0
  9
$USERI5
 70
     0
  9
$USERR1
 40
0.0
  9
$USERR2
 40
0.0
  9
$USERR3
 40
0.0
  9
$USERR4
 40
0.0
  9
$USERR5
 40
0.0
  9
$WORLDVIEW
 70
     1
  9
$SHADEDGE
 70
     3
  9
$SHADEDIF
 70
    70
  9
$TILEMODE
 70
     1
  9
$MAXACTVP
 70
    48
  9
$PLIMCHECK
 70
     0
  9
$PEXTMIN
 10
1.0000000000000000E+020
 20
1.0000000000000000E+020
 30
1.0000000000000000E+020
  9
$PEXTMAX
 10
-1.0000000000000000E+020
 20
-1.0000000000000000E+020
 30
-1.0000000000000000E+020
  9
$PLIMMIN
 10
0.0
 20
0.0
  9
$PLIMMAX
 10
420.0
 20
297.0
  9
$UNITMODE
 70
     0
  9
$VISRETAIN
 70
     1
  9
$PLINEGEN
 70
     0
  9
$PSLTSCALE
 70
     1
  0
ENDSEC
  0
SECTION
  2
TABLES
  0
TABLE
  2
VPORT
 70
     1
  0
VPORT
  2
*ACTIVE
 70
     0
 10
0.0
 20
0.0
 11
1.0
 21
1.0
 12
592.41359224346638
 22
423.48359113394218
 13
0.0
 23
0.0
 14
2.5
 24
2.5
 15
10.0
 25
10.0
 16
0.0
 26
0.0
 36
1.0
 17
0.0
 27
0.0
 37
0.0
 40
820.92390940123255
 41
2.050913838120104
 42
50.0
 43
0.0
 44
0.0
 50
0.0
 51
0.0
 71
     0
 72
   100
 73
     1
 74
     1
 75
     0
 76
     0
 77
     0
 78
     0
  0
ENDTAB
  0
TABLE
  2
LTYPE
 70
    21
  0
LTYPE
  2
CONTINUOUS
 70
     0
  3
Solid line
 72
    65
 73
     0
 40
0.0
  0
LTYPE
  2
CENTER
 70
     0
  3
Center ____ _ ____ _ ____ _ ____ _ ____ _ ____
 72
    65
 73
     4
 40
50.799999999999997
 49
31.75
 49
-6.3499999999999988
 49
6.3499999999999988
 49
-6.3499999999999988
  0
LTYPE
  2
PHANTOM2
 70
     0
  3
Phantom (.5x) ___ _ _ ___ _ _ ___ _ _ ___ _ _
 72
    65
 73
     6
 40
31.75
 49
15.875
 49
-3.1749999999999989
 49
3.1749999999999989
 49
-3.1749999999999989
 49
3.1749999999999989
 49
-3.1749999999999989
  0
LTYPE
  2
AM_ISO02W050
 70
     0
  3
__ __ __ __ __ __ __ __ __ __ __ __ __ __ __
 72
    65
 73
     2
 40
7.5
 49
6.0
 49
-1.5
  0
LTYPE
  2
AMCONSTR
 70
     0
  3
_______________________
 72
    65
 73
     2
 40
9999.0
 49
9999.0
 49
0.0
  0
LTYPE
  2
AMZIGZAG
 70
     0
  3
/\/-/\/-/\/-/\/-/\/-/\/
 72
    65
 73
     2
 40
11.0001
 49
0.0001
 49
-11.0
  0
LTYPE
  2
ACISOWELD
 70
     0
  3
_ _ _ _ _
 72
    65
 73
     2
 40
2.0
 49
2.0
 49
-1.0
  0
LTYPE
  2
ACISOTGB
 70
     0
  3
__ . . __ . .
 72
    65
 73
     6
 40
9.0
 49
4.0
 49
-1.0
 49
1.0
 49
-1.0
 49
1.0
 49
-1.0
  0
LTYPE
  2
ACISOTGL
 70
     0
  3
_ _ _ _ _
 72
    65
 73
     2
 40
3.0
 49
2.0
 49
-1.0
  0
LTYPE
  2
HIDDEN
 70
     0
  3
Hidden __ __ __ __ __ __ __ __ __ __ __ __ __ _
 72
    65
 73
     2
 40
9.5249999999999986
 49
6.3499999999999988
 49
-3.1749999999999989
  0
LTYPE
  2
AM_ISO08W050
 70
     0
  3
____ . ____ . ____ . ____ . ____ . ____ . ____
 72
    65
 73
     4
 40
18.0
 49
12.0
 49
-1.5
 49
3.0
 49
-1.5
  0
LTYPE
  2
AM_ISO09W050
 70
     0
  3
_____ . . _____ . . _____ . . ____ .. ____
 72
    65
 73
     6
 40
22.5
 49
12.0
 49
-1.5
 49
3.0
 49
-1.5
 49
3.0
 49
-1.5
  0
LTYPE
  2
AM_ISO08W050X2
 70
     0
  3
__ . __ . __ . __ . __ . __
 72
    65
 73
     4
 40
9.0
 49
6.0
 49
-0.75
 49
1.5
 49
-0.75
  0
LTYPE
  2
AM_ISO02W050X2
 70
     0
  3
 _ _ _ _ _ _ _ _ _ _ _ _
 72
    65
 73
     2
 40
3.75
 49
3.0
 49
-0.75
  0
LTYPE
  2
CENTER2
 70
     0
  3
Center (.5x) ___ _ ___ _ ___ _ ___ _ ___ _ ___
 72
    65
 73
     4
 40
28.574999999999999
 49
19.050000000000001
 49
-3.1749999999999989
 49
3.1749999999999989
 49
-3.1749999999999989
  0
LTYPE
  2
DASHED2
 70
     0
  3
Dashed (.5x) _ _ _ _ _ _ _ _ _ _ _ _ _ _ _ _ _
 72
    65
 73
     2
 40
9.5249999999999986
 49
6.3499999999999988
 49
-3.1749999999999989
  0
LTYPE
  2
DDM
 70
     0
  3
中点線
 72
    65
 73
     2
 40
3.0
 49
2.0
 49
-1.0
  0
LTYPE
  2
DD2
 70
     0
  3
二点鎖線
 72
    65
 73
     6
 40
12.0
 49
6.0
 49
-1.1999999999999991
 49
1.1999999999999991
 49
-1.1999999999999991
 49
1.1999999999999991
 49
-1.1999999999999991
  0
LTYPE
  2
HIDDEN2
 70
     0
  3
Hidden (.5x) _ _ _ _ _ _ _ _ _ _ _ _ _ _ _ _ _
 72
    65
 73
     2
 40
0.1875
 49
0.125
 49
-0.0625
  0
LTYPE
  2
ACANSTGB
 70
     0
  3
__ . . __ . .
 72
    65
 73
     6
 40
0.35433070866
 49
0.15748031496
 49
-0.03937007874
 49
0.03937007874
 49
-0.03937007874
 49
0.03937007874
 49
-0.03937007874
  0
LTYPE
  2
ACANSTGL
 70
     0
  3
_ _ _ _ _
 72
    65
 73
     2
 40
0.11811023622
 49
0.07874015748
 49
-0.03937007874
  0
ENDTAB
  0
TABLE
  2
LAYER
 70
    11
  0
LAYER
  2
0
 70
     0
 62
     7
  6
CONTINUOUS
  0
LAYER
  2
KI1
 70
     0
 62
     7
  6
CONTINUOUS
  0
LAYER
  2
SU
 70
     0
 62
     3
  6
CONTINUOUS
  0
LAYER
  2
MJ
 70
     0
 62
     2
  6
CONTINUOUS
  0
LAYER
  2
OS
 70
     0
 62
     2
  6
CONTINUOUS
  0
LAYER
  2
KI2
 70
     0
 62
     4
  6
CONTINUOUS
  0
LAYER
  2
PH
 70
     0
 62
     6
  6
PHANTOM2
  0
LAYER
  2
WK
 70
     4
 62
     7
  6
CONTINUOUS
  0
LAYER
  2
DEFPOINTS
 70
     1
 62
    -7
  6
CONTINUOUS
  0
LAYER
  2
TS
 70
     0
 62
     6
  6
DASHED2
  0
LAYER
  2
CL
 70
     0
 62
     4
  6
CENTER2
  0
ENDTAB
  0
TABLE
  2
STYLE
 70
     5
  0
STYLE
  2
STANDARD
 70
     0
 40
0.0
 41
0.8299999999999999
 50
0.0
 71
     0
 42
12.5
  3
romans.shx
  4
extfont.shx
  0
STYLE
  2

 70
     1
 40
0.0
 41
1.0
 50
0.0
 71
     0
 42
2.5
  3
ltypeshp.shx
  4

  0
STYLE
  2
ACISOGDT
 70
     0
 40
0.0
 41
1.0
 50
0.0
 71
     0
 42
2.5
  3
amgdt.shx
  4

  0
STYLE
  2
ACANSGDT
 70
     0
 40
0.0
 41
1.0
 50
0.0
 71
     0
 42
12.5
  3
amgdt.shx
  4

  0
STYLE
  2
SIMPLEX
 70
     0
 40
0.0
 41
1.0
 50
0.0
 71
     0
 42
3.5
  3
simplex.shx
  4
extfont2.shx
  0
ENDTAB
  0
TABLE
  2
VIEW
 70
     6
  0
VIEW
  2
AM_VIEW1
 70
     0
 40
297.5
 10
-194.33547008547001
 20
148.25
 41
457.32905982905982
 11
0.0
 21
0.0
 31
1.0
 12
0.0
 22
0.0
 32
0.0
 42
50.0
 43
0.0
 44
0.0
 50
0.0
 71
     0
  0
VIEW
  2
AM_VIEW2
 70
     0
 40
297.5
 10
189.33547008547001
 20
148.25
 41
457.32905982905982
 11
0.0
 21
0.0
 31
1.0
 12
0.0
 22
0.0
 32
0.0
 42
50.0
 43
0.0
 44
0.0
 50
0.0
 71
     0
  0
VIEW
  2
AM_VIEW3
 70
     0
 40
297.5
 10
-194.33547008547001
 20
-149.25
 41
457.32905982905982
 11
0.0
 21
0.0
 31
1.0
 12
0.0
 22
0.0
 32
0.0
 42
50.0
 43
0.0
 44
0.0
 50
0.0
 71
     0
  0
VIEW
  2
AM_VIEW4
 70
     0
 40
297.5
 10
189.33547008547001
 20
-149.25
 41
457.32905982905982
 11
0.0
 21
0.0
 31
1.0
 12
0.0
 22
0.0
 32
0.0
 42
50.0
 43
0.0
 44
0.0
 50
0.0
 71
     0
  0
VIEW
  2
AM_VIEW5
 70
     0
 40
297.5
 10
-2.5
 20
-0.5
 41
457.32905982905982
 11
0.0
 21
0.0
 31
1.0
 12
0.0
 22
0.0
 32
0.0
 42
50.0
 43
0.0
 44
0.0
 50
0.0
 71
     0
  0
VIEW
  2
AM_VIEW6
 70
     0
 40
594.99405000000002
 10
-2.5
 20
-0.5
 41
914.6489730769232
 11
0.0
 21
0.0
 31
1.0
 12
0.0
 22
0.0
 32
0.0
 42
50.0
 43
0.0
 44
0.0
 50
0.0
 71
     0
  0
ENDTAB
  0
TABLE
  2
UCS
 70
     0
  0
ENDTAB
  0
TABLE
  2
APPID
 70
    47
  0
APPID
  2
ACAD
 70
     0
  0
APPID
  2
MCAD_NO_VIS
 70
     0
  0
APPID
  2
ACAD_TEMP_GRAPHIC
 70
     0
  0
APPID
  2
ACATTRIBSERVICES
 70
     0
  0
APPID
  2
GENIUS_GENDIMSH_14
 70
     0
  0
APPID
  2
GENIUS_GENODEF_13
 70
     0
  0
APPID
  2
GENIUS_GENOENT_13
 70
     0
  0
APPID
  2
GENIUS_GENOBJ-N-TIT_13
 70
     0
  0
APPID
  2
GENIUS_GENOLIS_13
 70
     0
  0
APPID
  2
GENIUS_GENTITLE_13
 70
     0
  0
APPID
  2
GENIUS_GENOREF_13
 70
     0
  0
APPID
  2
GENIUS_GENSCREG_15
 70
     0
  0
APPID
  2
GENIUS_GENOBJ-N-SDF_13
 70
     0
  0
APPID
  2
GENIUS_GENOBJ-N-REV_13
 70
     0
  0
APPID
  2
GENIUS_GENOBJ-N-RSSYM_13
 70
     0
  0
APPID
  2
GENIUS_GENSYMENT_13
 70
     0
  0
APPID
  2
GENIUS_GENSCSYM_13
 70
     0
  0
APPID
  2
GENIUS_GENOBJ-N-CEN_13
 70
     0
  0
APPID
  2
GENIUS_GENOBJ-N-FIL_13
 70
     0
  0
APPID
  2
GENIUS_GENBH_13
 70
     0
  0
APPID
  2
GENIUS_GENOBJ-NBEHI-BHF_13
 70
     0
  0
APPID
  2
GENIUS_GENFIL_13
 70
     0
  0
APPID
  2
GENIUS_GENOBJ-N-CHA_13
 70
     0
  0
APPID
  2
GENIUS_GENOBJ-NBEHI-BHB_13
 70
     0
  0
APPID
  2
GENIUS_GENOBJ-N-CRS_13
 70
     0
  0
APPID
  2
GENIUS_GENDTOL_13
 70
     0
  0
APPID
  2
AD_DRAW
 70
     0
  0
APPID
  2
DESIGNERASSEMBLIES
 70
     0
  0
APPID
  2
ACADM_DIM_EDIT
 70
     0
  0
APPID
  2
AMDT_DM_ADJ
 70
     0
  0
APPID
  2
ACAD_PSEXT
 70
     0
  0
APPID
  2
ACAECLAYERSTANDARD
 70
     0
  0
APPID
  2
DCO15
 70
     0
  0
APPID
  2
GENIUS_GENOBJ-N-HTC_13
 70
     0
  0
APPID
  2
GENIUS_GENHATCH_13
 70
     0
  0
APPID
  2
ACAD_NAV_VCDISPLAY
 70
     0
  0
APPID
  2
ACAD_DSTYLE_DIMARC_LENGTH_
 70
     0
  0
APPID
  2
GENIUS_GENREC_14
 70
     0
  0
APPID
  2
GENIUS_GENOBJ-N-REC_13
 70
     0
  0
APPID
  2
GENIUS_GENCEN_19
 70
     0
  0
APPID
  2
ACAD_DSTYLE_DIMBREAK
 70
     0
  0
APPID
  2
ACAD_DSTYLE_DIMJAG
 70
     0
  0
APPID
  2
ACAD_DSTYLE_DIMINSPECT
 70
     0
  0
APPID
  2
ACAD_EXEMPT_FROM_CAD_STANDARDS
 70
     0
  0
APPID
  2
ACADANNOMONITORALERTICONDI
 70
     0
  0
APPID
  2
CONTENTBLOCKICON
 70
     0
  0
APPID
  2
ACAD_MLEADERVER
 70
     0
  0
ENDTAB
  0
TABLE
  2
DIMSTYLE
 70
    17
  0
DIMSTYLE
  2
SANKYO
 70
     0
  3

  4
"
  5
DOTSMALL
  6

  7

 40
1.0
 41
7.0
 42
1.0
 43
7.0
 44
3.0
 45
0.0
 46
0.0
 47
0.1
 48
0.1
140
7.0
141
0.0
142
0.0
143
0.0393701
144
1.0
145
0.0
146
0.71
147
1.3
 71
     0
 72
     0
 73
     0
 74
     0
 75
     0
 76
     0
 77
     1
 78
     8
170
     0
171
     2
172
     1
173
     0
174
     0
175
     0
176
   256
177
   256
178
   256
  0
DIMSTYLE
  2
AM_ISO
 70
     0
  3

  4
"
  5

  6

  7

 40
1.0
 41
1.6000000000000001
 42
1.0
 43
7.0
 44
1.0
 45
0.0
 46
0.0
 47
0.1
 48
0.1
140
2.5
141
0.0
142
0.0
143
0.0393701
144
1.0
145
0.0
146
0.71
147
0.625
 71
     0
 72
     0
 73
     0
 74
     0
 75
     0
 76
     0
 77
     1
 78
     8
170
     0
171
     2
172
     1
173
     0
174
     0
175
     0
176
   256
177
   256
178
   256
  0
DIMSTYLE
  2
AM_ISO$3
 70
     0
  3

  4
"
  5

  6

  7

 40
1.0
 41
1.6000000000000001
 42
1.0
 43
7.0
 44
1.0
 45
0.0
 46
0.0
 47
0.1
 48
0.1
140
2.5
141
0.0
142
0.0
143
0.0393701
144
1.0
145
0.0
146
0.71
147
0.625
 71
     0
 72
     0
 73
     0
 74
     0
 75
     0
 76
     0
 77
     1
 78
     8
170
     0
171
     2
172
     1
173
     0
174
     0
175
     0
176
   256
177
   256
178
   256
  0
DIMSTYLE
  2
AM_ISO$4
 70
     0
  3

  4
"
  5

  6

  7

 40
1.0
 41
1.6000000000000001
 42
1.0
 43
7.0
 44
1.0
 45
0.0
 46
0.0
 47
0.1
 48
0.1
140
2.5
141
0.0
142
0.0
143
0.0393701
144
1.0
145
0.0
146
0.71
147
0.625
 71
     0
 72
     0
 73
     0
 74
     0
 75
     0
 76
     0
 77
     1
 78
     8
170
     0
171
     2
172
     1
173
     0
174
     0
175
     0
176
   256
177
   256
178
   256
  0
DIMSTYLE
  2
AM_ISO$6
 70
     0
  3

  4
"
  5

  6

  7

 40
1.0
 41
1.6000000000000001
 42
1.0
 43
7.0
 44
1.0
 45
0.0
 46
0.0
 47
0.1
 48
0.1
140
2.5
141
0.0
142
0.0
143
0.0393701
144
1.0
145
0.0
146
0.71
147
0.625
 71
     0
 72
     0
 73
     0
 74
     0
 75
     0
 76
     0
 77
     0
 78
     8
170
     0
171
     2
172
     1
173
     0
174
     0
175
     0
176
   256
177
   256
178
   256
  0
DIMSTYLE
  2
AM_ISO$7
 70
     0
  3

  4
"
  5

  6

  7

 40
1.0
 41
1.6000000000000001
 42
1.0
 43
7.0
 44
1.0
 45
0.0
 46
0.0
 47
0.1
 48
0.1
140
2.5
141
0.0
142
0.0
143
0.0393701
144
1.0
145
0.0
146
0.71
147
0.625
 71
     0
 72
     0
 73
     0
 74
     0
 75
     0
 76
     0
 77
     1
 78
     8
170
     0
171
     2
172
     1
173
     0
174
     0
175
     0
176
   256
177
   256
178
   256
  0
DIMSTYLE
  2
AM_ISO$SF
 70
     0
  3

  4
"
  5

  6

  7

 40
1.0
 41
2.5
 42
1.0
 43
10.0
 44
1.0
 45
0.0
 46
0.0
 47
0.1
 48
0.1
140
3.5
141
0.0
142
0.0
143
0.0393701
144
1.0
145
0.0
146
0.71
147
1.5
 71
     0
 72
     0
 73
     0
 74
     0
 75
     1
 76
     1
 77
     1
 78
     8
170
     0
171
     2
172
     1
173
     0
174
     0
175
     0
176
   256
177
   256
178
     2
  0
DIMSTYLE
  2
AM_ISO$SH
 70
     0
  3

  4
"
  5

  6
GENAXEH
  7

 40
1.0
 41
2.5
 42
1.0
 43
10.0
 44
1.0
 45
0.0
 46
0.0
 47
0.1
 48
0.1
140
3.5
141
0.0
142
0.0
143
0.0393701
144
2.0
145
0.0
146
0.71
147
1.5
 71
     0
 72
     0
 73
     0
 74
     0
 75
     1
 76
     1
 77
     1
 78
     8
170
     0
171
     2
172
     1
173
     1
174
     0
175
     0
176
   256
177
   256
178
     2
  0
DIMSTYLE
  2
AM_ISO$2
 70
     0
  3

  4
"
  5

  6

  7

 40
1.0
 41
1.6000000000000001
 42
1.0
 43
7.0
 44
1.0
 45
0.0
 46
0.0
 47
0.1
 48
0.1
140
2.5
141
0.0
142
0.0
143
0.0393701
144
1.0
145
0.0
146
0.71
147
0.625
 71
     0
 72
     0
 73
     0
 74
     0
 75
     0
 76
     0
 77
     1
 78
     8
170
     0
171
     2
172
     1
173
     0
174
     0
175
     0
176
   256
177
   256
178
   256
  0
DIMSTYLE
  2
AM_ISO$0
 70
     0
  3

  4
"
  5

  6

  7

 40
1.0
 41
1.6000000000000001
 42
1.0
 43
7.0
 44
1.0
 45
0.0
 46
0.0
 47
0.1
 48
0.1
140
2.5
141
0.0
142
0.0
143
0.0393701
144
1.0
145
0.0
146
0.71
147
0.625
 71
     0
 72
     0
 73
     0
 74
     0
 75
     0
 76
     0
 77
     1
 78
     8
170
     0
171
     2
172
     1
173
     0
174
     0
175
     0
176
   256
177
   256
178
   256
  0
DIMSTYLE
  2
SANKYO$0
 70
     0
  3

  4
"
  5
DOTSMALL
  6

  7

 40
1.0
 41
7.0
 42
1.0
 43
7.0
 44
3.0
 45
0.0
 46
0.0
 47
0.1
 48
0.1
140
7.0
141
0.0
142
0.0
143
0.0393701
144
1.0
145
0.0
146
0.71
147
1.3
 71
     0
 72
     0
 73
     0
 74
     0
 75
     0
 76
     0
 77
     1
 78
     8
170
     0
171
     2
172
     1
173
     0
174
     0
175
     0
176
   256
177
   256
178
   256
  0
DIMSTYLE
  2
AM_ANSI
 70
     0
  3

  4
mm
  5

  6

  7

 40
1.0
 41
0.12
 42
0.05
 43
0.5
 44
0.1
 45
0.0
 46
0.0
 47
0.1
 48
0.1
140
0.12
141
0.0
142
0.0
143
25.399999999999999
144
1.0
145
0.0
146
0.71
147
0.06
 71
     0
 72
     0
 73
     1
 74
     1
 75
     0
 76
     0
 77
     0
 78
     7
170
     0
171
     2
172
     0
173
     0
174
     0
175
     0
176
   256
177
   256
178
     2
  0
DIMSTYLE
  2
AM_ANSI$3
 70
     0
  3

  4
mm
  5

  6

  7

 40
1.0
 41
0.12
 42
0.05
 43
0.5
 44
0.1
 45
0.0
 46
0.0
 47
0.1
 48
0.1
140
0.12
141
0.0
142
0.0
143
25.399999999999999
144
1.0
145
0.0
146
0.71
147
0.06
 71
     0
 72
     0
 73
     1
 74
     1
 75
     0
 76
     0
 77
     0
 78
     7
170
     0
171
     2
172
     0
173
     0
174
     0
175
     0
176
   256
177
   256
178
     2
  0
DIMSTYLE
  2
AM_ANSI$4
 70
     0
  3

  4
mm
  5

  6

  7

 40
1.0
 41
0.12
 42
0.05
 43
0.5
 44
0.1
 45
0.0
 46
0.0
 47
0.1
 48
0.1
140
0.12
141
0.0
142
0.0
143
25.399999999999999
144
1.0
145
0.0
146
0.71
147
0.06
 71
     0
 72
     0
 73
     1
 74
     1
 75
     0
 76
     0
 77
     0
 78
     7
170
     0
171
     2
172
     0
173
     0
174
     0
175
     0
176
   256
177
   256
178
     2
  0
DIMSTYLE
  2
AM_ANSI$7
 70
     0
  3

  4
mm
  5

  6

  7

 40
1.0
 41
0.12
 42
0.05
 43
0.5
 44
0.1
 45
0.0
 46
0.0
 47
0.1
 48
0.1
140
0.12
141
0.0
142
0.0
143
25.399999999999999
144
1.0
145
0.0
146
0.71
147
0.06
 71
     0
 72
     0
 73
     1
 74
     1
 75
     0
 76
     0
 77
     0
 78
     7
170
     0
171
     2
172
     0
173
     0
174
     0
175
     0
176
   256
177
   256
178
     2
  0
DIMSTYLE
  2
AM_ANSI$SF
 70
     0
  3

  4
mm
  5

  6

  7

 40
1.0
 41
0.12
 42
0.05
 43
0.5
 44
0.1
 45
0.0
 46
0.0
 47
0.1
 48
0.1
140
0.12
141
0.0
142
0.0
143
25.399999999999999
144
1.0
145
0.0
146
0.71
147
0.06
 71
     0
 72
     0
 73
     1
 74
     1
 75
     1
 76
     1
 77
     0
 78
     7
170
     0
171
     2
172
     0
173
     0
174
     0
175
     0
176
   256
177
   256
178
     2
  0
DIMSTYLE
  2
AM_ANSI$SH
 70
     0
  3

  4
mm
  5

  6
GENAXEH
  7

 40
1.0
 41
0.12
 42
0.05
 43
0.5
 44
0.1
 45
0.0
 46
0.0
 47
0.1
 48
0.1
140
0.12
141
0.0
142
0.0
143
25.399999999999999
144
1.0
145
0.0
146
0.71
147
0.06
 71
     0
 72
     0
 73
     1
 74
     1
 75
     1
 76
     1
 77
     0
 78
     7
170
     0
171
     2
172
     0
173
     1
174
     0
175
     0
176
   256
177
   256
178
     2
  0
ENDTAB
  0
ENDSEC
  0
SECTION
  2
BLOCKS
  0
BLOCK
  8
0
  2
$MODEL_SPACE
 70
     0
 10
0.0
 20
0.0
 30
0.0
  3
$MODEL_SPACE
  1

  0
ENDBLK
  5
1A
  8
0
  0
BLOCK
 67
     1
  8
0
  2
$PAPER_SPACE
 70
     0
 10
0.0
 20
0.0
 30
0.0
  3
$PAPER_SPACE
  1

  0
ENDBLK
  5
17
 67
     1
  8
0
  0
BLOCK
  8
0
  2
GENAXEH
 70
     0
 10
0.0
 20
0.0
 30
0.0
  3
GENAXEH
  1

  0
LINE
  5
102
  8
0
 10
-1.0
 20
0.0
 30
0.0
 11
1.0
 21
0.0
 31
0.0
  0
ENDBLK
  5
104
  8
0
  0
BLOCK
  8
0
  2
_OPEN
 70
     0
 10
0.0
 20
0.0
 30
0.0
  3
_OPEN
  1

  0
LINE
  5
30B
  8
0
  6
BYBLOCK
 62
     0
 10
-1.0
 20
0.1666666666666666
 30
0.0
 11
0.0
 21
0.0
 31
0.0
  0
LINE
  5
30C
  8
0
  6
BYBLOCK
 62
     0
 10
-1.0
 20
-0.1666666666666666
 30
0.0
 11
0.0
 21
0.0
 31
0.0
  0
LINE
  5
30D
  8
0
  6
BYBLOCK
 62
     0
 10
0.0
 20
0.0
 30
0.0
 11
-1.0
 21
0.0
 31
0.0
  0
ENDBLK
  5
30F
  8
0
  0
BLOCK
  8
0
  2
_DOTSMALL
 70
     0
 10
0.0
 20
0.0
 30
0.0
  3
_DOTSMALL
  1

  0
POLYLINE
  5
A331
  8
0
  6
BYBLOCK
 62
     0
 66
     1
 10
0.0
 20
0.0
 30
0.0
 70
     1
 40
0.5
 41
0.5
  0
VERTEX
  5
20267
  8
0
  6
BYBLOCK
 62
     0
 10
-0.0625
 20
0.0
 30
0.0
 42
1.0
  0
VERTEX
  5
20268
  8
0
  6
BYBLOCK
 62
     0
 10
0.0625
 20
0.0
 30
0.0
 42
1.0
  0
SEQEND
  5
20269
  8
0
  6
BYBLOCK
 62
     0
  0
ENDBLK
  5
A333
  8
0
  0
ENDSEC
  0
SECTION
  2
ENTITIES
  0
LINE
  5
9B1A
  8
WK
 10
23.5
 20
16.25
 30
0.0
 11
1165.5
 21
16.25
 31
0.0
  0
LINE
  5
9B1C
  8
WK
 10
23.5
 20
824.75
 30
0.0
 11
23.5
 21
16.25
 31
0.0
  0
TEXT
  5
9BE2
  8
WK
 10
22.5
 20
16.25
 30
0.0
 40
3.2000000000000002
  1
A0
 50
90.0
 41
0.8299999999999999
  0
LINE
  5
9C31
  8
WK
 10
1085.5
 20
34.25
 30
0.0
 11
1085.5
 21
16.25
 31
0.0
  0
LINE
  5
9C32
  8
WK
 10
890.49999999999989
 20
34.25
 30
0.0
 11
890.49999999999989
 21
16.25
 31
0.0
  0
LINE
  5
9C34
  8
WK
 10
1045.5
 20
34.25
 30
0.0
 11
1045.5
 21
16.25
 31
0.0
  0
LINE
  5
9C35
  8
WK
 10
1065.5
 20
34.25
 30
0.0
 11
1065.5
 21
16.25
 31
0.0
  0
LINE
  5
9C37
  8
WK
 10
1005.5
 20
34.25
 30
0.0
 11
1005.5
 21
16.25
 31
0.0
  0
LINE
  5
9C38
  8
WK
 10
985.5
 20
34.25
 30
0.0
 11
985.5
 21
16.25
 31
0.0
  0
LINE
  5
9C3A
  8
WK
 10
890.49999999999989
 20
34.25
 30
0.0
 11
1165.5
 21
34.25
 31
0.0
  0
LINE
  5
9C3B
  8
WK
 10
899.5
 20
26.25
 30
0.0
 11
972.49999999999989
 21
26.25
 31
0.0
  0
LINE
  5
9C3E
  8
WK
 10
1005.5
 20
22.25
 30
0.0
 11
1045.5
 21
22.25
 31
0.0
  0
LINE
  5
9C3F
  8
WK
 10
1005.5
 20
28.25
 30
0.0
 11
1045.5
 21
28.25
 31
0.0
  0
LINE
  5
9C46
  8
WK
 10
1151.8094750193111
 20
25.25
 30
0.0
 11
1163.8094750193111
 21
25.25
 31
0.0
  0
CIRCLE
  5
9C47
  8
WK
 10
1157.8094750193111
 20
25.25
 30
0.0
 40
6.0
  0
TEXT
  5
9C56
  8
WK
 10
992.52780952380954
 20
20.649999643948512
 30
0.0
 40
3.2000000000000002
  1
1:1
 41
0.8299999999999999
 72
     4
 11
995.5
 21
22.249999643948509
 31
0.0
  0
TEXT
  5
9C57
  8
WK
 10
1087.8031333333331
 20
30.150000000000009
 30
0.0
 40
3.2000000000000002
  1
図番
 41
0.8299999999999999
  0
TEXT
  5
9C58
  8
WK
 10
1067.9290000000001
 20
30.150000000000009
 30
0.0
 40
3.2000000000000002
  1
検図
 41
0.8299999999999999
  0
TEXT
  5
9C59
  8
WK
 10
1047.9290000000001
 20
30.150000000000009
 30
0.0
 40
3.2000000000000002
  1
作図
 41
0.8299999999999999
  0
TEXT
  5
9C5A
  8
WK
 10
1006.5535725057121
 20
29.149999999999999
 30
0.0
 40
3.2000000000000002
  1
作成
 41
0.8299999999999999
  0
TEXT
  5
9C5B
  8
WK
 10
1006.5535725057121
 20
23.149999999999999
 30
0.0
 40
3.2000000000000002
  1
制定
 41
0.8299999999999999
  0
TEXT
  5
9C5C
  8
WK
 10
1006.5535725057121
 20
17.149999999999999
 30
0.0
 40
3.2000000000000002
  1
廃止
 41
0.8299999999999999
  0
TEXT
  5
9C5D
  8
WK
 10
986.42899999999997
 20
30.149999999999999
 30
0.0
 40
3.2000000000000002
  1
尺度
 41
0.8299999999999999
  0
TEXT
  5
9C5E
  8
WK
 10
973.49999999999989
 20
18.25
 30
0.0
 40
4.0
  1
基準図
 41
0.8
  0
TEXT
  5
9C77
  8
WK
 10
892.30313333333345
 20
30.150000000000009
 30
0.0
 40
3.2000000000000002
  1
図名
 41
0.8299999999999999
  0
LINE
  5
9E0D
  8
WK
 10
23.5
 20
824.75
 30
0.0
 11
1165.5
 21
824.75
 31
0.0
  0
LINE
  5
9E18
  8
WK
 10
1165.5
 20
824.75
 30
0.0
 11
1165.5
 21
16.25
 31
0.0
  0
TEXT
  5
12887
  8
WK
 10
1130.0726417273511
 20
826.75
 30
0.0
 40
4.0
  1
大栄建材株式会社
 41
0.9
 72
     2
 11
1163.672641727351
 21
826.75
 31
0.0
  0
TEXT
  5
13021
  8
MJ
 10
1005.5
 20
42.25
 30
0.0
 40
7.0
  1
cl12a011
 41
0.8299999999999999
  0
TEXT
  5
13022
  8
MJ
 10
1005.5
 20
69.25
 30
0.0
 40
7.0
  1
クレーヴァ35　上吊り引戸
 41
0.8299999999999999
  0
TEXT
  5
13023
  8
MJ
 10
1005.5
 20
60.25
 30
0.0
 40
7.0
  1
アウトセット引戸
 41
0.8299999999999999
  0
TEXT
  5
13024
  8
MJ
 10
1005.5
 20
78.25
 30
0.0
 40
7.0
  1
スーパースクリーン　クレーヴァ
 41
0.8299999999999999
  0
TEXT
  5
13025
  8
MJ
 10
1005.5
 20
51.25
 30
0.0
 40
7.0
  1
たて横断面
 41
0.8299999999999999
  0
LINE
  5
180D4
  8
KI1
 10
268.93556287295479
 20
254.2830070738961
 30
0.0
 11
268.9355649834622
 21
177.2830070738961
 31
0.0
  0
LINE
  5
180D5
  8
KI1
 10
301.93556287295468
 20
254.2830070738961
 30
0.0
 11
301.93556498346197
 21
177.2830070738961
 31
0.0
  0
TEXT
  5
180D6
  8
MJ
 10
257.93489831679511
 20
111.7830070738972
 30
0.0
 40
7.0
  1
ガイドレール仕様
 41
0.8299999999999999
 72
     4
 11
285.4355649834618
 21
115.2830070738972
 31
0.0
  0
LINE
  5
180DF
  8
KI1
 10
268.93556498346101
 20
177.2830070738961
 30
0.0
 11
301.93556498346243
 21
177.2830071723636
 31
0.0
  0
LINE
  5
18BE9
  8
KI1
 10
135.93556286859899
 20
254.28300748772079
 30
0.0
 11
135.93556507566561
 21
174.28300748772079
 31
0.0
  0
LINE
  5
18BEA
  8
KI1
 10
168.93556286859891
 20
254.28300748772079
 30
0.0
 11
168.93556507566541
 21
174.28300748772079
 31
0.0
  0
TEXT
  5
18BEB
  8
MJ
 10
117.9628984089985
 20
111.783007487722
 30
0.0
 40
7.0
  1
マグネットガイド仕様
 41
0.8299999999999999
 72
     4
 11
152.43556507566521
 21
115.283007487722
 31
0.0
  0
LINE
  5
18BEC
  8
OS
 10
107.4355475123006
 20
147.28300748772199
 30
0.0
 11
197.43554751230059
 21
147.28300748772199
 31
0.0
  0
LINE
  5
18BED
  8
OS
 10
107.4355475123006
 20
149.28300748772199
 30
0.0
 11
197.43554751230059
 21
149.28300748772199
 31
0.0
  0
LINE
  5
18BEE
  8
OS
 10
107.4355475123006
 20
153.28300748772199
 30
0.0
 11
197.43554751230059
 21
153.28300748772199
 31
0.0
  0
LINE
  5
18BEF
  8
OS
 10
107.4355475123006
 20
157.28300748772199
 30
0.0
 11
197.43554751230059
 21
157.28300748772199
 31
0.0
  0
LINE
  5
18BF0
  8
OS
 10
107.4355475123006
 20
151.28300748772151
 30
0.0
 11
197.43554751230059
 21
151.28300748772151
 31
0.0
  0
LINE
  5
18BF1
  8
OS
 10
107.4355475123006
 20
155.28300748772199
 30
0.0
 11
197.43554751230059
 21
155.28300748772199
 31
0.0
  0
LINE
  5
18BF2
  8
OS
 10
107.4355475123006
 20
159.28300748772199
 30
0.0
 11
197.43554751230059
 21
159.28300748772199
 31
0.0
  0
LINE
  5
18BF4
  8
KI1
 10
135.9355650756645
 20
174.28300748772079
 30
0.0
 11
150.03554739830059
 21
174.28300752979339
 31
0.0
  0
LINE
  5
18BF8
  8
KI2
 10
139.3971422950506
 20
160.38300748177201
 30
0.0
 11
138.9355471621009
 21
160.38300748177201
 31
0.0
  0
ARC
  5
18BF9
  8
KI2
 10
139.9355475123009
 20
160.44388328597211
 30
0.0
 40
1.0
 50
104.9999999999944
 51
180.0
  0
LINE
  5
18BFA
  8
KI2
 10
138.9355471621009
 20
160.4438833818719
 30
0.0
 11
138.9355471621009
 21
160.38300748177201
 31
0.0
  0
LINE
  5
18BFB
  8
KI2
 10
147.6355472843008
 20
166.71388940522201
 30
0.0
 11
147.6355472843008
 21
162.28300704817201
 31
0.0
  0
LINE
  5
18BFC
  8
KI2
 10
157.23554774030089
 20
162.28300704817201
 30
0.0
 11
157.23554774030089
 21
166.71388940522201
 31
0.0
  0
LINE
  5
18BFD
  8
TS
 10
162.8355475406008
 20
147.48300704367199
 30
0.0
 11
152.4355475123009
 21
147.48300704367199
 31
0.0
  0
LINE
  5
18BFE
  8
KI2
 10
152.4355475123009
 20
162.28300704817201
 30
0.0
 11
161.8038954477008
 21
162.28300704817201
 31
0.0
  0
LINE
  5
18BFF
  8
KI2
 10
165.4739527295508
 20
159.28300748772199
 30
0.0
 11
139.3971422950506
 21
159.28300748772199
 31
0.0
  0
LINE
  5
18C00
  8
TS
 10
141.5355474020507
 20
159.28300748772199
 30
0.0
 11
141.5355474020507
 21
147.98300706742199
 31
0.0
  0
LINE
  5
18C01
  8
TS
 10
152.4355475123009
 20
147.48300704367199
 30
0.0
 11
142.03554748400069
 21
147.48300704367199
 31
0.0
  0
LINE
  5
18C02
  8
TS
 10
141.5355474020507
 20
147.98300706742199
 30
0.0
 11
142.03554748400069
 21
147.48300704367199
 31
0.0
  0
LINE
  5
18C03
  8
KI2
 10
143.06719957690069
 20
162.28300704817201
 30
0.0
 11
152.4355475123009
 21
162.28300704817201
 31
0.0
  0
LINE
  5
18C04
  8
TS
 10
146.93554754210089
 20
155.983007505622
 30
0.0
 11
149.93554756820069
 21
155.983007505622
 31
0.0
  0
LINE
  5
18C05
  8
TS
 10
149.93554756820069
 20
152.48300693192209
 30
0.0
 11
146.93554754210089
 21
152.48300693192209
 31
0.0
  0
LINE
  5
18C06
  8
TS
 10
146.93554754210089
 20
150.98300715172201
 30
0.0
 11
149.93554756820069
 21
150.98300715172201
 31
0.0
  0
LINE
  5
18C07
  8
TS
 10
149.93554756820069
 20
149.98300698782199
 30
0.0
 11
146.93554754210089
 21
149.98300698782199
 31
0.0
  0
LINE
  5
18C08
  8
TS
 10
146.93554754210089
 20
148.483007091172
 30
0.0
 11
149.93554756820069
 21
148.483007091172
 31
0.0
  0
LINE
  5
18C09
  8
TS
 10
149.93554756820069
 20
154.98300687602199
 30
0.0
 11
146.93554754210089
 21
154.98300687602199
 31
0.0
  0
LINE
  5
18C0A
  8
TS
 10
146.93554754210089
 20
153.48300709582199
 30
0.0
 11
149.93554756820069
 21
153.48300709582199
 31
0.0
  0
LINE
  5
18C0B
  8
KI2
 10
139.3971422950506
 20
159.28300748772199
 30
0.0
 11
139.3971422950506
 21
160.38300748177201
 31
0.0
  0
ARC
  5
18C0C
  8
KI2
 10
143.06720000990089
 20
161.283007043672
 30
0.0
 40
1.0
 50
90.0
 51
104.9999999999944
  0
LINE
  5
18C0D
  8
KI2
 10
142.8083813081507
 20
162.2489327491221
 30
0.0
 11
139.6767281259506
 21
161.40980924672201
 31
0.0
  0
LINE
  5
18C0E
  8
TS
 10
149.93554756820069
 20
157.48300682017199
 30
0.0
 11
146.93554754210089
 21
157.48300682017199
 31
0.0
  0
LINE
  5
18C0F
  8
TS
 10
154.9355474564006
 20
155.983007505622
 30
0.0
 11
157.93554748250079
 21
155.983007505622
 31
0.0
  0
LINE
  5
18C10
  8
TS
 10
157.93554748250079
 20
149.98300698782199
 30
0.0
 11
154.9355474564006
 21
149.98300698782199
 31
0.0
  0
LINE
  5
18C11
  8
TS
 10
154.9355474564006
 20
148.483007091172
 30
0.0
 11
157.93554748250079
 21
148.483007091172
 31
0.0
  0
LINE
  5
18C12
  8
TS
 10
157.93554748250079
 20
152.48300693192209
 30
0.0
 11
154.9355474564006
 21
152.48300693192209
 31
0.0
  0
LINE
  5
18C13
  8
TS
 10
154.9355474564006
 20
150.98300715172201
 30
0.0
 11
157.93554748250079
 21
150.98300715172201
 31
0.0
  0
LINE
  5
18C14
  8
TS
 10
154.9355474564006
 20
153.48300709582199
 30
0.0
 11
157.93554748250079
 21
153.48300709582199
 31
0.0
  0
LINE
  5
18C15
  8
TS
 10
157.93554748250079
 20
154.98300687602199
 30
0.0
 11
154.9355474564006
 21
154.98300687602199
 31
0.0
  0
LINE
  5
18C16
  8
TS
 10
157.93554748250079
 20
157.48300682017199
 30
0.0
 11
154.9355474564006
 21
157.48300682017199
 31
0.0
  0
LINE
  5
18C17
  8
TS
 10
163.33554762255079
 20
147.98300706742199
 30
0.0
 11
163.33554762255079
 21
159.28300748772199
 31
0.0
  0
LINE
  5
18C18
  8
TS
 10
162.8355475406008
 20
147.48300704367199
 30
0.0
 11
163.33554762255079
 21
147.98300706742199
 31
0.0
  0
LINE
  5
18C19
  8
KI2
 10
165.4739527295508
 20
160.38300748177201
 30
0.0
 11
165.4739527295508
 21
159.28300748772199
 31
0.0
  0
LINE
  5
18C1A
  8
KI2
 10
165.9355478625009
 20
160.38300748177201
 30
0.0
 11
165.4739527295508
 21
160.38300748177201
 31
0.0
  0
ARC
  5
18C1B
  8
KI2
 10
161.8038950147008
 20
161.283007043672
 30
0.0
 40
1.0
 50
75.000000000005542
 51
90.0
  0
LINE
  5
18C1C
  8
KI2
 10
165.19436689865071
 20
161.40980924672201
 30
0.0
 11
162.06271371645079
 21
162.2489327491221
 31
0.0
  0
ARC
  5
18C1D
  8
KI2
 10
164.9355475123009
 20
160.44388328597211
 30
0.0
 40
1.0
 50
0.0
 51
75.000000000005542
  0
LINE
  5
18C1E
  8
KI2
 10
165.9355478625009
 20
160.38300748177201
 30
0.0
 11
165.9355478625009
 21
160.4438833818719
 31
0.0
  0
LINE
  5
18C1F
  8
KI2
 10
155.43554753840061
 20
167.28300759207201
 30
0.0
 11
149.43554748620059
 21
167.28300759207201
 31
0.0
  0
LINE
  5
18C20
  8
KI2
 10
156.7355476583509
 20
175.28300671287201
 30
0.0
 11
148.69067499255081
 21
175.28300671287201
 31
0.0
  0
ARC
  5
18C21
  8
KI2
 10
150.4355475123009
 20
169.37050704367201
 30
0.0
 40
7.3125
 50
90.0
 51
109.7316138862018
  0
LINE
  5
18C22
  8
KI2
 10
149.43554748620059
 20
167.28300759207201
 30
0.0
 11
147.88345324650089
 21
167.0093310029221
 31
0.0
  0
ARC
  5
18C23
  8
KI2
 10
147.9355475123009
 20
166.71388858907201
 30
0.0
 40
0.3000000000000032
 50
100.0000000000051
 51
180.0
  0
LINE
  5
18C24
  8
KI2
 10
148.69067499255081
 20
175.28300671287201
 30
0.0
 11
148.13554736625079
 21
175.28300671287201
 31
0.0
  0
ARC
  5
18C25
  8
KI2
 10
148.13554751230069
 20
175.783007043672
 30
0.0
 40
0.5
 50
109.7316138862018
 51
270.0
  0
LINE
  5
18C26
  8
KI2
 10
150.03554739830059
 20
175.28300671287201
 30
0.0
 11
150.03554739830059
 21
167.28300759207201
 31
0.0
  0
LINE
  5
18C27
  8
KI2
 10
154.83554762630069
 20
167.28300759207201
 30
0.0
 11
154.83554762630069
 21
175.28300671287201
 31
0.0
  0
LINE
  5
18C28
  8
KI2
 10
156.98764177810079
 20
167.0093310029221
 30
0.0
 11
155.43554753840061
 21
167.28300759207201
 31
0.0
  0
ARC
  5
18C29
  8
KI2
 10
156.9355475123009
 20
166.71388858907201
 30
0.0
 40
0.3000000000000032
 50
0.0
 51
79.999999999994841
  0
ARC
  5
18C2A
  8
KI2
 10
154.4355475123009
 20
169.37050704367201
 30
0.0
 40
7.3125
 50
70.268386113798144
 51
90.0
  0
LINE
  5
18C2B
  8
KI2
 10
154.4355476073008
 20
176.68300619732199
 30
0.0
 11
150.69374635655069
 21
176.68300619732199
 31
0.0
  0
LINE
  5
18C2C
  8
KI2
 10
150.69374635655069
 20
176.68300619732199
 30
0.0
 11
150.43554741730071
 21
176.68300619732199
 31
0.0
  0
ARC
  5
18C2D
  8
KI2
 10
156.7355475123006
 20
175.783007043672
 30
0.0
 40
0.5
 50
270.0
 51
70.268386113798144
  0
LINE
  5
18C2E
  8
TS
 10
157.93554751229911
 20
153.48300704368481
 30
0.0
 11
157.93554751229911
 21
153.5579702929208
 31
0.0
  0
LINE
  5
18C2F
  8
TS
 10
157.93554751229911
 20
153.5579702929208
 30
0.0
 11
157.93554751229911
 21
153.63293759616741
 31
0.0
  0
LINE
  5
18C30
  8
TS
 10
157.93554751229911
 20
153.63293759616741
 30
0.0
 11
157.93554751229911
 21
153.70790892250619
 31
0.0
  0
LINE
  5
18C31
  8
TS
 10
157.93554751229911
 20
153.70790892250619
 30
0.0
 11
157.93554751229911
 21
153.78288424101919
 31
0.0
  0
LINE
  5
18C32
  8
TS
 10
157.93554751229911
 20
153.78288424101919
 30
0.0
 11
157.93554751229911
 21
153.8578635207883
 31
0.0
  0
LINE
  5
18C33
  8
TS
 10
157.93554751229911
 20
153.8578635207883
 30
0.0
 11
157.93554751229911
 21
153.93284673089511
 31
0.0
  0
LINE
  5
18C34
  8
TS
 10
157.93554751229911
 20
153.93284673089511
 30
0.0
 11
157.93554751229911
 21
154.0078338404216
 31
0.0
  0
LINE
  5
18C35
  8
TS
 10
157.93554751229911
 20
154.0078338404216
 30
0.0
 11
157.93554751229911
 21
154.08282481844961
 31
0.0
  0
LINE
  5
18C36
  8
TS
 10
157.93554751229911
 20
154.08282481844961
 30
0.0
 11
157.93554751229911
 21
154.15781963406079
 31
0.0
  0
LINE
  5
18C37
  8
TS
 10
157.93554751229911
 20
154.15781963406079
 30
0.0
 11
157.93554751229911
 21
154.23281825633711
 31
0.0
  0
LINE
  5
18C38
  8
TS
 10
157.93554751229911
 20
154.23281825633711
 30
0.0
 11
157.93554751229911
 21
154.30782065436051
 31
0.0
  0
LINE
  5
18C39
  8
TS
 10
157.93554751229911
 20
154.30782065436051
 30
0.0
 11
157.93554751229911
 21
154.3828267972126
 31
0.0
  0
LINE
  5
18C3A
  8
TS
 10
157.93554751229911
 20
154.3828267972126
 30
0.0
 11
157.93554751229911
 21
154.45783665397519
 31
0.0
  0
LINE
  5
18C3B
  8
TS
 10
157.93554751229911
 20
154.45783665397519
 30
0.0
 11
157.93554751229911
 21
154.5328501937303
 31
0.0
  0
LINE
  5
18C3C
  8
TS
 10
157.93554751229911
 20
154.5328501937303
 30
0.0
 11
157.93554751229911
 21
154.60786738555981
 31
0.0
  0
LINE
  5
18C3D
  8
TS
 10
157.93554751229911
 20
154.60786738555981
 30
0.0
 11
157.93554751229911
 21
154.6828881985453
 31
0.0
  0
LINE
  5
18C3E
  8
TS
 10
157.93554751229911
 20
154.6828881985453
 30
0.0
 11
157.93554751229911
 21
154.75791260176879
 31
0.0
  0
LINE
  5
18C3F
  8
TS
 10
157.93554751229911
 20
154.75791260176879
 30
0.0
 11
157.93554751229911
 21
154.83294056431191
 31
0.0
  0
LINE
  5
18C40
  8
TS
 10
157.93554751229911
 20
154.83294056431191
 30
0.0
 11
157.93554751229911
 21
154.90797205525661
 31
0.0
  0
LINE
  5
18C41
  8
TS
 10
157.93554751229911
 20
154.90797205525661
 30
0.0
 11
157.93554751229911
 21
154.98300704368469
 31
0.0
  0
LINE
  5
18C42
  8
TS
 10
157.93554751229911
 20
150.98300704368481
 30
0.0
 11
157.93554751229911
 21
151.0579702929208
 31
0.0
  0
LINE
  5
18C43
  8
TS
 10
157.93554751229911
 20
151.0579702929208
 30
0.0
 11
157.93554751229911
 21
151.13293759616741
 31
0.0
  0
LINE
  5
18C44
  8
TS
 10
157.93554751229911
 20
151.13293759616741
 30
0.0
 11
157.93554751229911
 21
151.20790892250619
 31
0.0
  0
LINE
  5
18C45
  8
TS
 10
157.93554751229911
 20
151.20790892250619
 30
0.0
 11
157.93554751229911
 21
151.28288424101919
 31
0.0
  0
LINE
  5
18C46
  8
TS
 10
157.93554751229911
 20
151.28288424101919
 30
0.0
 11
157.93554751229911
 21
151.3578635207883
 31
0.0
  0
LINE
  5
18C47
  8
TS
 10
157.93554751229911
 20
151.3578635207883
 30
0.0
 11
157.93554751229911
 21
151.43284673089511
 31
0.0
  0
LINE
  5
18C48
  8
TS
 10
157.93554751229911
 20
151.43284673089511
 30
0.0
 11
157.93554751229911
 21
151.5078338404216
 31
0.0
  0
LINE
  5
18C49
  8
TS
 10
157.93554751229911
 20
151.5078338404216
 30
0.0
 11
157.93554751229911
 21
151.58282481844961
 31
0.0
  0
LINE
  5
18C4A
  8
TS
 10
157.93554751229911
 20
151.58282481844961
 30
0.0
 11
157.93554751229911
 21
151.65781963406079
 31
0.0
  0
LINE
  5
18C4B
  8
TS
 10
157.93554751229911
 20
151.65781963406079
 30
0.0
 11
157.93554751229911
 21
151.73281825633711
 31
0.0
  0
LINE
  5
18C4C
  8
TS
 10
157.93554751229911
 20
151.73281825633711
 30
0.0
 11
157.93554751229911
 21
151.80782065436051
 31
0.0
  0
LINE
  5
18C4D
  8
TS
 10
157.93554751229911
 20
151.80782065436051
 30
0.0
 11
157.93554751229911
 21
151.8828267972126
 31
0.0
  0
LINE
  5
18C4E
  8
TS
 10
157.93554751229911
 20
151.8828267972126
 30
0.0
 11
157.93554751229911
 21
151.95783665397531
 31
0.0
  0
LINE
  5
18C4F
  8
TS
 10
157.93554751229911
 20
151.95783665397531
 30
0.0
 11
157.93554751229911
 21
152.03285019373041
 31
0.0
  0
LINE
  5
18C50
  8
TS
 10
157.93554751229911
 20
152.03285019373041
 30
0.0
 11
157.93554751229911
 21
152.1078673855599
 31
0.0
  0
LINE
  5
18C51
  8
TS
 10
157.93554751229911
 20
152.1078673855599
 30
0.0
 11
157.93554751229911
 21
152.1828881985453
 31
0.0
  0
LINE
  5
18C52
  8
TS
 10
157.93554751229911
 20
152.1828881985453
 30
0.0
 11
157.93554751229911
 21
152.25791260176879
 31
0.0
  0
LINE
  5
18C53
  8
TS
 10
157.93554751229911
 20
152.25791260176879
 30
0.0
 11
157.93554751229911
 21
152.33294056431191
 31
0.0
  0
LINE
  5
18C54
  8
TS
 10
157.93554751229911
 20
152.33294056431191
 30
0.0
 11
157.93554751229911
 21
152.40797205525661
 31
0.0
  0
LINE
  5
18C55
  8
TS
 10
157.93554751229911
 20
152.40797205525661
 30
0.0
 11
157.93554751229911
 21
152.48300704368481
 31
0.0
  0
LINE
  5
18C56
  8
TS
 10
157.93554751229911
 20
148.48300704368481
 30
0.0
 11
157.93554751229911
 21
148.5579702929208
 31
0.0
  0
LINE
  5
18C57
  8
TS
 10
157.93554751229911
 20
148.5579702929208
 30
0.0
 11
157.93554751229911
 21
148.6329375961673
 31
0.0
  0
LINE
  5
18C58
  8
TS
 10
157.93554751229911
 20
148.6329375961673
 30
0.0
 11
157.93554751229911
 21
148.70790892250619
 31
0.0
  0
LINE
  5
18C59
  8
TS
 10
157.93554751229911
 20
148.70790892250619
 30
0.0
 11
157.93554751229911
 21
148.78288424101919
 31
0.0
  0
LINE
  5
18C5A
  8
TS
 10
157.93554751229911
 20
148.78288424101919
 30
0.0
 11
157.93554751229911
 21
148.8578635207883
 31
0.0
  0
LINE
  5
18C5B
  8
TS
 10
157.93554751229911
 20
148.8578635207883
 30
0.0
 11
157.93554751229911
 21
148.93284673089511
 31
0.0
  0
LINE
  5
18C5C
  8
TS
 10
157.93554751229911
 20
148.93284673089511
 30
0.0
 11
157.93554751229911
 21
149.0078338404216
 31
0.0
  0
LINE
  5
18C5D
  8
TS
 10
157.93554751229911
 20
149.0078338404216
 30
0.0
 11
157.93554751229911
 21
149.08282481844961
 31
0.0
  0
LINE
  5
18C5E
  8
TS
 10
157.93554751229911
 20
149.08282481844961
 30
0.0
 11
157.93554751229911
 21
149.15781963406079
 31
0.0
  0
LINE
  5
18C5F
  8
TS
 10
157.93554751229911
 20
149.15781963406079
 30
0.0
 11
157.93554751229911
 21
149.23281825633711
 31
0.0
  0
LINE
  5
18C60
  8
TS
 10
157.93554751229911
 20
149.23281825633711
 30
0.0
 11
157.93554751229911
 21
149.30782065436051
 31
0.0
  0
LINE
  5
18C61
  8
TS
 10
157.93554751229911
 20
149.30782065436051
 30
0.0
 11
157.93554751229911
 21
149.3828267972126
 31
0.0
  0
LINE
  5
18C62
  8
TS
 10
157.93554751229911
 20
149.3828267972126
 30
0.0
 11
157.93554751229911
 21
149.45783665397519
 31
0.0
  0
LINE
  5
18C63
  8
TS
 10
157.93554751229911
 20
149.45783665397519
 30
0.0
 11
157.93554751229911
 21
149.53285019373041
 31
0.0
  0
LINE
  5
18C64
  8
TS
 10
157.93554751229911
 20
149.53285019373041
 30
0.0
 11
157.93554751229911
 21
149.60786738555981
 31
0.0
  0
LINE
  5
18C65
  8
TS
 10
157.93554751229911
 20
149.60786738555981
 30
0.0
 11
157.93554751229911
 21
149.6828881985453
 31
0.0
  0
LINE
  5
18C66
  8
TS
 10
157.93554751229911
 20
149.6828881985453
 30
0.0
 11
157.93554751229911
 21
149.75791260176879
 31
0.0
  0
LINE
  5
18C67
  8
TS
 10
157.93554751229911
 20
149.75791260176879
 30
0.0
 11
157.93554751229911
 21
149.83294056431191
 31
0.0
  0
LINE
  5
18C68
  8
TS
 10
157.93554751229911
 20
149.83294056431191
 30
0.0
 11
157.93554751229911
 21
149.90797205525661
 31
0.0
  0
LINE
  5
18C69
  8
TS
 10
157.93554751229911
 20
149.90797205525661
 30
0.0
 11
157.93554751229911
 21
149.98300704368481
 31
0.0
  0
LINE
  5
18C6A
  8
TS
 10
154.935547512299
 20
154.98300704368469
 30
0.0
 11
154.935547512299
 21
154.9401471564681
 31
0.0
  0
LINE
  5
18C6B
  8
TS
 10
154.935547512299
 20
154.9401471564681
 30
0.0
 11
154.935547512299
 21
154.89728742476819
 31
0.0
  0
LINE
  5
18C6C
  8
TS
 10
154.935547512299
 20
154.89728742476819
 30
0.0
 11
154.935547512299
 21
154.8544278491247
 31
0.0
  0
LINE
  5
18C6D
  8
TS
 10
154.935547512299
 20
154.8544278491247
 30
0.0
 11
154.935547512299
 21
154.81156843007679
 31
0.0
  0
LINE
  5
18C6E
  8
TS
 10
154.935547512299
 20
154.81156843007679
 30
0.0
 11
154.935547512299
 21
154.76870916816441
 31
0.0
  0
LINE
  5
18C6F
  8
TS
 10
154.935547512299
 20
154.76870916816441
 30
0.0
 11
154.935547512299
 21
154.7258500639268
 31
0.0
  0
LINE
  5
18C70
  8
TS
 10
154.935547512299
 20
154.7258500639268
 30
0.0
 11
154.935547512299
 21
154.68299111790381
 31
0.0
  0
LINE
  5
18C71
  8
TS
 10
154.935547512299
 20
154.68299111790381
 30
0.0
 11
154.935547512299
 21
154.640132330635
 31
0.0
  0
LINE
  5
18C72
  8
TS
 10
154.935547512299
 20
154.640132330635
 30
0.0
 11
154.935547512299
 21
154.59727370265949
 31
0.0
  0
LINE
  5
18C73
  8
TS
 10
154.935547512299
 20
154.59727370265949
 30
0.0
 11
154.935547512299
 21
154.55441523451731
 31
0.0
  0
LINE
  5
18C74
  8
TS
 10
154.935547512299
 20
154.55441523451731
 30
0.0
 11
154.935547512299
 21
154.511556926748
 31
0.0
  0
LINE
  5
18C75
  8
TS
 10
154.935547512299
 20
154.511556926748
 30
0.0
 11
154.935547512299
 21
154.4686987798909
 31
0.0
  0
LINE
  5
18C76
  8
TS
 10
154.935547512299
 20
154.4686987798909
 30
0.0
 11
154.935547512299
 21
154.42584079448571
 31
0.0
  0
LINE
  5
18C77
  8
TS
 10
154.935547512299
 20
154.42584079448571
 30
0.0
 11
154.935547512299
 21
154.3829829710719
 31
0.0
  0
LINE
  5
18C78
  8
TS
 10
154.935547512299
 20
154.3829829710719
 30
0.0
 11
154.935547512299
 21
154.34012531018899
 31
0.0
  0
LINE
  5
18C79
  8
TS
 10
154.935547512299
 20
154.34012531018899
 30
0.0
 11
154.935547512299
 21
154.2972678123767
 31
0.0
  0
LINE
  5
18C7A
  8
TS
 10
154.935547512299
 20
154.2972678123767
 30
0.0
 11
154.935547512299
 21
154.25441047817461
 31
0.0
  0
LINE
  5
18C7B
  8
TS
 10
154.935547512299
 20
154.25441047817461
 30
0.0
 11
154.935547512299
 21
154.21155330812189
 31
0.0
  0
LINE
  5
18C7C
  8
TS
 10
154.935547512299
 20
154.21155330812189
 30
0.0
 11
154.935547512299
 21
154.16869630275869
 31
0.0
  0
LINE
  5
18C7D
  8
TS
 10
154.935547512299
 20
154.16869630275869
 30
0.0
 11
154.935547512299
 21
154.12583946262421
 31
0.0
  0
LINE
  5
18C7E
  8
TS
 10
154.935547512299
 20
154.12583946262421
 30
0.0
 11
154.935547512299
 21
154.08298278825799
 31
0.0
  0
LINE
  5
18C7F
  8
TS
 10
154.935547512299
 20
154.08298278825799
 30
0.0
 11
154.935547512299
 21
154.0401262801997
 31
0.0
  0
LINE
  5
18C80
  8
TS
 10
154.935547512299
 20
154.0401262801997
 30
0.0
 11
154.935547512299
 21
153.99726993898889
 31
0.0
  0
LINE
  5
18C81
  8
TS
 10
154.935547512299
 20
153.99726993898889
 30
0.0
 11
154.935547512299
 21
153.95441376516521
 31
0.0
  0
LINE
  5
18C82
  8
TS
 10
154.935547512299
 20
153.95441376516521
 30
0.0
 11
154.935547512299
 21
153.91155775926799
 31
0.0
  0
LINE
  5
18C83
  8
TS
 10
154.935547512299
 20
153.91155775926799
 30
0.0
 11
154.935547512299
 21
153.86870192183699
 31
0.0
  0
LINE
  5
18C84
  8
TS
 10
154.935547512299
 20
153.86870192183699
 30
0.0
 11
154.935547512299
 21
153.82584625341161
 31
0.0
  0
LINE
  5
18C85
  8
TS
 10
154.935547512299
 20
153.82584625341161
 30
0.0
 11
154.935547512299
 21
153.7829907545316
 31
0.0
  0
LINE
  5
18C86
  8
TS
 10
154.935547512299
 20
153.7829907545316
 30
0.0
 11
154.935547512299
 21
153.74013542573641
 31
0.0
  0
LINE
  5
18C87
  8
TS
 10
154.935547512299
 20
153.74013542573641
 30
0.0
 11
154.935547512299
 21
153.69728026731099
 31
0.0
  0
LINE
  5
18C88
  8
TS
 10
154.935547512299
 20
153.69728026731099
 30
0.0
 11
154.935547512299
 21
153.65442527771381
 31
0.0
  0
LINE
  5
18C89
  8
TS
 10
154.935547512299
 20
153.65442527771381
 30
0.0
 11
154.935547512299
 21
153.6115704599691
 31
0.0
  0
LINE
  5
18C8A
  8
TS
 10
154.935547512299
 20
153.6115704599691
 30
0.0
 11
154.935547512299
 21
153.56871581466041
 31
0.0
  0
LINE
  5
18C8B
  8
TS
 10
154.935547512299
 20
153.56871581466041
 30
0.0
 11
154.935547512299
 21
153.5258613423712
 31
0.0
  0
LINE
  5
18C8C
  8
TS
 10
154.935547512299
 20
153.5258613423712
 30
0.0
 11
154.935547512299
 21
153.48300704368481
 31
0.0
  0
LINE
  5
18C8D
  8
TS
 10
154.935547512299
 20
152.48300704368481
 30
0.0
 11
154.935547512299
 21
152.4401471564681
 31
0.0
  0
LINE
  5
18C8E
  8
TS
 10
154.935547512299
 20
152.4401471564681
 30
0.0
 11
154.935547512299
 21
152.39728742476831
 31
0.0
  0
LINE
  5
18C8F
  8
TS
 10
154.935547512299
 20
152.39728742476831
 30
0.0
 11
154.935547512299
 21
152.3544278491247
 31
0.0
  0
LINE
  5
18C90
  8
TS
 10
154.935547512299
 20
152.3544278491247
 30
0.0
 11
154.935547512299
 21
152.31156843007679
 31
0.0
  0
LINE
  5
18C91
  8
TS
 10
154.935547512299
 20
152.31156843007679
 30
0.0
 11
154.935547512299
 21
152.26870916816429
 31
0.0
  0
LINE
  5
18C92
  8
TS
 10
154.935547512299
 20
152.26870916816429
 30
0.0
 11
154.935547512299
 21
152.2258500639268
 31
0.0
  0
LINE
  5
18C93
  8
TS
 10
154.935547512299
 20
152.2258500639268
 30
0.0
 11
154.935547512299
 21
152.18299111790381
 31
0.0
  0
LINE
  5
18C94
  8
TS
 10
154.935547512299
 20
152.18299111790381
 30
0.0
 11
154.935547512299
 21
152.14013233063491
 31
0.0
  0
LINE
  5
18C95
  8
TS
 10
154.935547512299
 20
152.14013233063491
 30
0.0
 11
154.935547512299
 21
152.09727370265949
 31
0.0
  0
LINE
  5
18C96
  8
TS
 10
154.935547512299
 20
152.09727370265949
 30
0.0
 11
154.935547512299
 21
152.05441523451731
 31
0.0
  0
LINE
  5
18C97
  8
TS
 10
154.935547512299
 20
152.05441523451731
 30
0.0
 11
154.935547512299
 21
152.01155692674789
 31
0.0
  0
LINE
  5
18C98
  8
TS
 10
154.935547512299
 20
152.01155692674789
 30
0.0
 11
154.935547512299
 21
151.9686987798909
 31
0.0
  0
LINE
  5
18C99
  8
TS
 10
154.935547512299
 20
151.9686987798909
 30
0.0
 11
154.935547512299
 21
151.92584079448551
 31
0.0
  0
LINE
  5
18C9A
  8
TS
 10
154.935547512299
 20
151.92584079448551
 30
0.0
 11
154.935547512299
 21
151.8829829710719
 31
0.0
  0
LINE
  5
18C9B
  8
TS
 10
154.935547512299
 20
151.8829829710719
 30
0.0
 11
154.935547512299
 21
151.84012531018899
 31
0.0
  0
LINE
  5
18C9C
  8
TS
 10
154.935547512299
 20
151.84012531018899
 30
0.0
 11
154.935547512299
 21
151.7972678123767
 31
0.0
  0
LINE
  5
18C9D
  8
TS
 10
154.935547512299
 20
151.7972678123767
 30
0.0
 11
154.935547512299
 21
151.75441047817449
 31
0.0
  0
LINE
  5
18C9E
  8
TS
 10
154.935547512299
 20
151.75441047817449
 30
0.0
 11
154.935547512299
 21
151.71155330812201
 31
0.0
  0
LINE
  5
18C9F
  8
TS
 10
154.935547512299
 20
151.71155330812201
 30
0.0
 11
154.935547512299
 21
151.66869630275869
 31
0.0
  0
LINE
  5
18CA0
  8
TS
 10
154.935547512299
 20
151.66869630275869
 30
0.0
 11
154.935547512299
 21
151.62583946262421
 31
0.0
  0
LINE
  5
18CA1
  8
TS
 10
154.935547512299
 20
151.62583946262421
 30
0.0
 11
154.935547512299
 21
151.58298278825799
 31
0.0
  0
LINE
  5
18CA2
  8
TS
 10
154.935547512299
 20
151.58298278825799
 30
0.0
 11
154.935547512299
 21
151.5401262801997
 31
0.0
  0
LINE
  5
18CA3
  8
TS
 10
154.935547512299
 20
151.5401262801997
 30
0.0
 11
154.935547512299
 21
151.49726993898889
 31
0.0
  0
LINE
  5
18CA4
  8
TS
 10
154.935547512299
 20
151.49726993898889
 30
0.0
 11
154.935547512299
 21
151.45441376516521
 31
0.0
  0
LINE
  5
18CA5
  8
TS
 10
154.935547512299
 20
151.45441376516521
 30
0.0
 11
154.935547512299
 21
151.41155775926799
 31
0.0
  0
LINE
  5
18CA6
  8
TS
 10
154.935547512299
 20
151.41155775926799
 30
0.0
 11
154.935547512299
 21
151.36870192183699
 31
0.0
  0
LINE
  5
18CA7
  8
TS
 10
154.935547512299
 20
151.36870192183699
 30
0.0
 11
154.935547512299
 21
151.3258462534117
 31
0.0
  0
LINE
  5
18CA8
  8
TS
 10
154.935547512299
 20
151.3258462534117
 30
0.0
 11
154.935547512299
 21
151.28299075453171
 31
0.0
  0
LINE
  5
18CA9
  8
TS
 10
154.935547512299
 20
151.28299075453171
 30
0.0
 11
154.935547512299
 21
151.2401354257365
 31
0.0
  0
LINE
  5
18CAA
  8
TS
 10
154.935547512299
 20
151.2401354257365
 30
0.0
 11
154.935547512299
 21
151.19728026731099
 31
0.0
  0
LINE
  5
18CAB
  8
TS
 10
154.935547512299
 20
151.19728026731099
 30
0.0
 11
154.935547512299
 21
151.15442527771381
 31
0.0
  0
LINE
  5
18CAC
  8
TS
 10
154.935547512299
 20
151.15442527771381
 30
0.0
 11
154.935547512299
 21
151.1115704599691
 31
0.0
  0
LINE
  5
18CAD
  8
TS
 10
154.935547512299
 20
151.1115704599691
 30
0.0
 11
154.935547512299
 21
151.06871581466041
 31
0.0
  0
LINE
  5
18CAE
  8
TS
 10
154.935547512299
 20
151.06871581466041
 30
0.0
 11
154.935547512299
 21
151.02586134237109
 31
0.0
  0
LINE
  5
18CAF
  8
TS
 10
154.935547512299
 20
151.02586134237109
 30
0.0
 11
154.935547512299
 21
150.98300704368481
 31
0.0
  0
LINE
  5
18CB0
  8
TS
 10
154.935547512299
 20
149.98300704368481
 30
0.0
 11
154.935547512299
 21
149.9401471564681
 31
0.0
  0
LINE
  5
18CB1
  8
TS
 10
154.935547512299
 20
149.9401471564681
 30
0.0
 11
154.935547512299
 21
149.89728742476839
 31
0.0
  0
LINE
  5
18CB2
  8
TS
 10
154.935547512299
 20
149.89728742476839
 30
0.0
 11
154.935547512299
 21
149.8544278491247
 31
0.0
  0
LINE
  5
18CB3
  8
TS
 10
154.935547512299
 20
149.8544278491247
 30
0.0
 11
154.935547512299
 21
149.81156843007679
 31
0.0
  0
LINE
  5
18CB4
  8
TS
 10
154.935547512299
 20
149.81156843007679
 30
0.0
 11
154.935547512299
 21
149.76870916816441
 31
0.0
  0
LINE
  5
18CB5
  8
TS
 10
154.935547512299
 20
149.76870916816441
 30
0.0
 11
154.935547512299
 21
149.7258500639268
 31
0.0
  0
LINE
  5
18CB6
  8
TS
 10
154.935547512299
 20
149.7258500639268
 30
0.0
 11
154.935547512299
 21
149.68299111790381
 31
0.0
  0
LINE
  5
18CB7
  8
TS
 10
154.935547512299
 20
149.68299111790381
 30
0.0
 11
154.935547512299
 21
149.640132330635
 31
0.0
  0
LINE
  5
18CB8
  8
TS
 10
154.935547512299
 20
149.640132330635
 30
0.0
 11
154.935547512299
 21
149.59727370265949
 31
0.0
  0
LINE
  5
18CB9
  8
TS
 10
154.935547512299
 20
149.59727370265949
 30
0.0
 11
154.935547512299
 21
149.55441523451731
 31
0.0
  0
LINE
  5
18CBA
  8
TS
 10
154.935547512299
 20
149.55441523451731
 30
0.0
 11
154.935547512299
 21
149.511556926748
 31
0.0
  0
LINE
  5
18CBB
  8
TS
 10
154.935547512299
 20
149.511556926748
 30
0.0
 11
154.935547512299
 21
149.4686987798909
 31
0.0
  0
LINE
  5
18CBC
  8
TS
 10
154.935547512299
 20
149.4686987798909
 30
0.0
 11
154.935547512299
 21
149.42584079448551
 31
0.0
  0
LINE
  5
18CBD
  8
TS
 10
154.935547512299
 20
149.42584079448551
 30
0.0
 11
154.935547512299
 21
149.3829829710719
 31
0.0
  0
LINE
  5
18CBE
  8
TS
 10
154.935547512299
 20
149.3829829710719
 30
0.0
 11
154.935547512299
 21
149.34012531018899
 31
0.0
  0
LINE
  5
18CBF
  8
TS
 10
154.935547512299
 20
149.34012531018899
 30
0.0
 11
154.935547512299
 21
149.2972678123767
 31
0.0
  0
LINE
  5
18CC0
  8
TS
 10
154.935547512299
 20
149.2972678123767
 30
0.0
 11
154.935547512299
 21
149.25441047817461
 31
0.0
  0
LINE
  5
18CC1
  8
TS
 10
154.935547512299
 20
149.25441047817461
 30
0.0
 11
154.935547512299
 21
149.21155330812201
 31
0.0
  0
LINE
  5
18CC2
  8
TS
 10
154.935547512299
 20
149.21155330812201
 30
0.0
 11
154.935547512299
 21
149.16869630275869
 31
0.0
  0
LINE
  5
18CC3
  8
TS
 10
154.935547512299
 20
149.16869630275869
 30
0.0
 11
154.935547512299
 21
149.12583946262421
 31
0.0
  0
LINE
  5
18CC4
  8
TS
 10
154.935547512299
 20
149.12583946262421
 30
0.0
 11
154.935547512299
 21
149.08298278825799
 31
0.0
  0
LINE
  5
18CC5
  8
TS
 10
154.935547512299
 20
149.08298278825799
 30
0.0
 11
154.935547512299
 21
149.0401262801997
 31
0.0
  0
LINE
  5
18CC6
  8
TS
 10
154.935547512299
 20
149.0401262801997
 30
0.0
 11
154.935547512299
 21
148.99726993898889
 31
0.0
  0
LINE
  5
18CC7
  8
TS
 10
154.935547512299
 20
148.99726993898889
 30
0.0
 11
154.935547512299
 21
148.95441376516521
 31
0.0
  0
LINE
  5
18CC8
  8
TS
 10
154.935547512299
 20
148.95441376516521
 30
0.0
 11
154.935547512299
 21
148.91155775926799
 31
0.0
  0
LINE
  5
18CC9
  8
TS
 10
154.935547512299
 20
148.91155775926799
 30
0.0
 11
154.935547512299
 21
148.86870192183699
 31
0.0
  0
LINE
  5
18CCA
  8
TS
 10
154.935547512299
 20
148.86870192183699
 30
0.0
 11
154.935547512299
 21
148.82584625341161
 31
0.0
  0
LINE
  5
18CCB
  8
TS
 10
154.935547512299
 20
148.82584625341161
 30
0.0
 11
154.935547512299
 21
148.78299075453171
 31
0.0
  0
LINE
  5
18CCC
  8
TS
 10
154.935547512299
 20
148.78299075453171
 30
0.0
 11
154.935547512299
 21
148.74013542573641
 31
0.0
  0
LINE
  5
18CCD
  8
TS
 10
154.935547512299
 20
148.74013542573641
 30
0.0
 11
154.935547512299
 21
148.69728026731099
 31
0.0
  0
LINE
  5
18CCE
  8
TS
 10
154.935547512299
 20
148.69728026731099
 30
0.0
 11
154.935547512299
 21
148.65442527771381
 31
0.0
  0
LINE
  5
18CCF
  8
TS
 10
154.935547512299
 20
148.65442527771381
 30
0.0
 11
154.935547512299
 21
148.6115704599691
 31
0.0
  0
LINE
  5
18CD0
  8
TS
 10
154.935547512299
 20
148.6115704599691
 30
0.0
 11
154.935547512299
 21
148.56871581466041
 31
0.0
  0
LINE
  5
18CD1
  8
TS
 10
154.935547512299
 20
148.56871581466041
 30
0.0
 11
154.935547512299
 21
148.52586134237109
 31
0.0
  0
LINE
  5
18CD2
  8
TS
 10
154.935547512299
 20
148.52586134237109
 30
0.0
 11
154.935547512299
 21
148.48300704368481
 31
0.0
  0
LINE
  5
18CD3
  8
TS
 10
154.935547512299
 20
157.48300704368481
 30
0.0
 11
154.935547512299
 21
157.4401471564681
 31
0.0
  0
LINE
  5
18CD4
  8
TS
 10
154.935547512299
 20
157.4401471564681
 30
0.0
 11
154.935547512299
 21
157.39728742476819
 31
0.0
  0
LINE
  5
18CD5
  8
TS
 10
154.935547512299
 20
157.39728742476819
 30
0.0
 11
154.935547512299
 21
157.3544278491247
 31
0.0
  0
LINE
  5
18CD6
  8
TS
 10
154.935547512299
 20
157.3544278491247
 30
0.0
 11
154.935547512299
 21
157.31156843007679
 31
0.0
  0
LINE
  5
18CD7
  8
TS
 10
154.935547512299
 20
157.31156843007679
 30
0.0
 11
154.935547512299
 21
157.26870916816429
 31
0.0
  0
LINE
  5
18CD8
  8
TS
 10
154.935547512299
 20
157.26870916816429
 30
0.0
 11
154.935547512299
 21
157.2258500639268
 31
0.0
  0
LINE
  5
18CD9
  8
TS
 10
154.935547512299
 20
157.2258500639268
 30
0.0
 11
154.935547512299
 21
157.18299111790381
 31
0.0
  0
LINE
  5
18CDA
  8
TS
 10
154.935547512299
 20
157.18299111790381
 30
0.0
 11
154.935547512299
 21
157.14013233063491
 31
0.0
  0
LINE
  5
18CDB
  8
TS
 10
154.935547512299
 20
157.14013233063491
 30
0.0
 11
154.935547512299
 21
157.09727370265949
 31
0.0
  0
LINE
  5
18CDC
  8
TS
 10
154.935547512299
 20
157.09727370265949
 30
0.0
 11
154.935547512299
 21
157.05441523451731
 31
0.0
  0
LINE
  5
18CDD
  8
TS
 10
154.935547512299
 20
157.05441523451731
 30
0.0
 11
154.935547512299
 21
157.01155692674789
 31
0.0
  0
LINE
  5
18CDE
  8
TS
 10
154.935547512299
 20
157.01155692674789
 30
0.0
 11
154.935547512299
 21
156.9686987798909
 31
0.0
  0
LINE
  5
18CDF
  8
TS
 10
154.935547512299
 20
156.9686987798909
 30
0.0
 11
154.935547512299
 21
156.92584079448571
 31
0.0
  0
LINE
  5
18CE0
  8
TS
 10
154.935547512299
 20
156.92584079448571
 30
0.0
 11
154.935547512299
 21
156.8829829710719
 31
0.0
  0
LINE
  5
18CE1
  8
TS
 10
154.935547512299
 20
156.8829829710719
 30
0.0
 11
154.935547512299
 21
156.84012531018899
 31
0.0
  0
LINE
  5
18CE2
  8
TS
 10
154.935547512299
 20
156.84012531018899
 30
0.0
 11
154.935547512299
 21
156.7972678123767
 31
0.0
  0
LINE
  5
18CE3
  8
TS
 10
154.935547512299
 20
156.7972678123767
 30
0.0
 11
154.935547512299
 21
156.75441047817449
 31
0.0
  0
LINE
  5
18CE4
  8
TS
 10
154.935547512299
 20
156.75441047817449
 30
0.0
 11
154.935547512299
 21
156.71155330812189
 31
0.0
  0
LINE
  5
18CE5
  8
TS
 10
154.935547512299
 20
156.71155330812189
 30
0.0
 11
154.935547512299
 21
156.66869630275869
 31
0.0
  0
LINE
  5
18CE6
  8
TS
 10
154.935547512299
 20
156.66869630275869
 30
0.0
 11
154.935547512299
 21
156.62583946262421
 31
0.0
  0
LINE
  5
18CE7
  8
TS
 10
154.935547512299
 20
156.62583946262421
 30
0.0
 11
154.935547512299
 21
156.58298278825799
 31
0.0
  0
LINE
  5
18CE8
  8
TS
 10
154.935547512299
 20
156.58298278825799
 30
0.0
 11
154.935547512299
 21
156.5401262801997
 31
0.0
  0
LINE
  5
18CE9
  8
TS
 10
154.935547512299
 20
156.5401262801997
 30
0.0
 11
154.935547512299
 21
156.49726993898889
 31
0.0
  0
LINE
  5
18CEA
  8
TS
 10
154.935547512299
 20
156.49726993898889
 30
0.0
 11
154.935547512299
 21
156.45441376516521
 31
0.0
  0
LINE
  5
18CEB
  8
TS
 10
154.935547512299
 20
156.45441376516521
 30
0.0
 11
154.935547512299
 21
156.41155775926799
 31
0.0
  0
LINE
  5
18CEC
  8
TS
 10
154.935547512299
 20
156.41155775926799
 30
0.0
 11
154.935547512299
 21
156.36870192183699
 31
0.0
  0
LINE
  5
18CED
  8
TS
 10
154.935547512299
 20
156.36870192183699
 30
0.0
 11
154.935547512299
 21
156.3258462534117
 31
0.0
  0
LINE
  5
18CEE
  8
TS
 10
154.935547512299
 20
156.3258462534117
 30
0.0
 11
154.935547512299
 21
156.2829907545316
 31
0.0
  0
LINE
  5
18CEF
  8
TS
 10
154.935547512299
 20
156.2829907545316
 30
0.0
 11
154.935547512299
 21
156.24013542573641
 31
0.0
  0
LINE
  5
18CF0
  8
TS
 10
154.935547512299
 20
156.24013542573641
 30
0.0
 11
154.935547512299
 21
156.19728026731099
 31
0.0
  0
LINE
  5
18CF1
  8
TS
 10
154.935547512299
 20
156.19728026731099
 30
0.0
 11
154.935547512299
 21
156.15442527771381
 31
0.0
  0
LINE
  5
18CF2
  8
TS
 10
154.935547512299
 20
156.15442527771381
 30
0.0
 11
154.935547512299
 21
156.1115704599691
 31
0.0
  0
LINE
  5
18CF3
  8
TS
 10
154.935547512299
 20
156.1115704599691
 30
0.0
 11
154.935547512299
 21
156.06871581466041
 31
0.0
  0
LINE
  5
18CF4
  8
TS
 10
154.935547512299
 20
156.06871581466041
 30
0.0
 11
154.935547512299
 21
156.02586134237109
 31
0.0
  0
LINE
  5
18CF5
  8
TS
 10
154.935547512299
 20
156.02586134237109
 30
0.0
 11
154.935547512299
 21
155.98300704368481
 31
0.0
  0
LINE
  5
18CF6
  8
TS
 10
157.93554751229911
 20
155.98300704368481
 30
0.0
 11
157.93554751229911
 21
156.0579702929208
 31
0.0
  0
LINE
  5
18CF7
  8
TS
 10
157.93554751229911
 20
156.0579702929208
 30
0.0
 11
157.93554751229911
 21
156.1329375961673
 31
0.0
  0
LINE
  5
18CF8
  8
TS
 10
157.93554751229911
 20
156.1329375961673
 30
0.0
 11
157.93554751229911
 21
156.20790892250619
 31
0.0
  0
LINE
  5
18CF9
  8
TS
 10
157.93554751229911
 20
156.20790892250619
 30
0.0
 11
157.93554751229911
 21
156.28288424101919
 31
0.0
  0
LINE
  5
18CFA
  8
TS
 10
157.93554751229911
 20
156.28288424101919
 30
0.0
 11
157.93554751229911
 21
156.3578635207883
 31
0.0
  0
LINE
  5
18CFB
  8
TS
 10
157.93554751229911
 20
156.3578635207883
 30
0.0
 11
157.93554751229911
 21
156.43284673089511
 31
0.0
  0
LINE
  5
18CFC
  8
TS
 10
157.93554751229911
 20
156.43284673089511
 30
0.0
 11
157.93554751229911
 21
156.5078338404216
 31
0.0
  0
LINE
  5
18CFD
  8
TS
 10
157.93554751229911
 20
156.5078338404216
 30
0.0
 11
157.93554751229911
 21
156.58282481844961
 31
0.0
  0
LINE
  5
18CFE
  8
TS
 10
157.93554751229911
 20
156.58282481844961
 30
0.0
 11
157.93554751229911
 21
156.65781963406079
 31
0.0
  0
LINE
  5
18CFF
  8
TS
 10
157.93554751229911
 20
156.65781963406079
 30
0.0
 11
157.93554751229911
 21
156.7328182563372
 31
0.0
  0
LINE
  5
18D00
  8
TS
 10
157.93554751229911
 20
156.7328182563372
 30
0.0
 11
157.93554751229911
 21
156.80782065436051
 31
0.0
  0
LINE
  5
18D01
  8
TS
 10
157.93554751229911
 20
156.80782065436051
 30
0.0
 11
157.93554751229911
 21
156.8828267972126
 31
0.0
  0
LINE
  5
18D02
  8
TS
 10
157.93554751229911
 20
156.8828267972126
 30
0.0
 11
157.93554751229911
 21
156.95783665397531
 31
0.0
  0
LINE
  5
18D03
  8
TS
 10
157.93554751229911
 20
156.95783665397531
 30
0.0
 11
157.93554751229911
 21
157.03285019373041
 31
0.0
  0
LINE
  5
18D04
  8
TS
 10
157.93554751229911
 20
157.03285019373041
 30
0.0
 11
157.93554751229911
 21
157.1078673855599
 31
0.0
  0
LINE
  5
18D05
  8
TS
 10
157.93554751229911
 20
157.1078673855599
 30
0.0
 11
157.93554751229911
 21
157.1828881985453
 31
0.0
  0
LINE
  5
18D06
  8
TS
 10
157.93554751229911
 20
157.1828881985453
 30
0.0
 11
157.93554751229911
 21
157.25791260176879
 31
0.0
  0
LINE
  5
18D07
  8
TS
 10
157.93554751229911
 20
157.25791260176879
 30
0.0
 11
157.93554751229911
 21
157.33294056431191
 31
0.0
  0
LINE
  5
18D08
  8
TS
 10
157.93554751229911
 20
157.33294056431191
 30
0.0
 11
157.93554751229911
 21
157.40797205525661
 31
0.0
  0
LINE
  5
18D09
  8
TS
 10
157.93554751229911
 20
157.40797205525661
 30
0.0
 11
157.93554751229911
 21
157.48300704368481
 31
0.0
  0
LINE
  5
18D0A
  8
TS
 10
149.93554751229911
 20
153.48300704368481
 30
0.0
 11
149.93554751229911
 21
153.5258613423712
 31
0.0
  0
LINE
  5
18D0B
  8
TS
 10
149.93554751229911
 20
153.5258613423712
 30
0.0
 11
149.93554751229911
 21
153.56871581466041
 31
0.0
  0
LINE
  5
18D0C
  8
TS
 10
149.93554751229911
 20
153.56871581466041
 30
0.0
 11
149.93554751229911
 21
153.6115704599691
 31
0.0
  0
LINE
  5
18D0D
  8
TS
 10
149.93554751229911
 20
153.6115704599691
 30
0.0
 11
149.93554751229911
 21
153.65442527771381
 31
0.0
  0
LINE
  5
18D0E
  8
TS
 10
149.93554751229911
 20
153.65442527771381
 30
0.0
 11
149.93554751229911
 21
153.69728026731099
 31
0.0
  0
LINE
  5
18D0F
  8
TS
 10
149.93554751229911
 20
153.69728026731099
 30
0.0
 11
149.93554751229911
 21
153.7401354257365
 31
0.0
  0
LINE
  5
18D10
  8
TS
 10
149.93554751229911
 20
153.7401354257365
 30
0.0
 11
149.93554751229911
 21
153.78299075453171
 31
0.0
  0
LINE
  5
18D11
  8
TS
 10
149.93554751229911
 20
153.78299075453171
 30
0.0
 11
149.93554751229911
 21
153.82584625341181
 31
0.0
  0
LINE
  5
18D12
  8
TS
 10
149.93554751229911
 20
153.82584625341181
 30
0.0
 11
149.93554751229911
 21
153.86870192183699
 31
0.0
  0
LINE
  5
18D13
  8
TS
 10
149.93554751229911
 20
153.86870192183699
 30
0.0
 11
149.93554751229911
 21
153.91155775926799
 31
0.0
  0
LINE
  5
18D14
  8
TS
 10
149.93554751229911
 20
153.91155775926799
 30
0.0
 11
149.93554751229911
 21
153.95441376516521
 31
0.0
  0
LINE
  5
18D15
  8
TS
 10
149.93554751229911
 20
153.95441376516521
 30
0.0
 11
149.93554751229911
 21
153.99726993898889
 31
0.0
  0
LINE
  5
18D16
  8
TS
 10
149.93554751229911
 20
153.99726993898889
 30
0.0
 11
149.93554751229911
 21
154.0401262801997
 31
0.0
  0
LINE
  5
18D17
  8
TS
 10
149.93554751229911
 20
154.0401262801997
 30
0.0
 11
149.93554751229911
 21
154.08298278825799
 31
0.0
  0
LINE
  5
18D18
  8
TS
 10
149.93554751229911
 20
154.08298278825799
 30
0.0
 11
149.93554751229911
 21
154.12583946262421
 31
0.0
  0
LINE
  5
18D19
  8
TS
 10
149.93554751229911
 20
154.12583946262421
 30
0.0
 11
149.93554751229911
 21
154.16869630275869
 31
0.0
  0
LINE
  5
18D1A
  8
TS
 10
149.93554751229911
 20
154.16869630275869
 30
0.0
 11
149.93554751229911
 21
154.21155330812201
 31
0.0
  0
LINE
  5
18D1B
  8
TS
 10
149.93554751229911
 20
154.21155330812201
 30
0.0
 11
149.93554751229911
 21
154.25441047817461
 31
0.0
  0
LINE
  5
18D1C
  8
TS
 10
149.93554751229911
 20
154.25441047817461
 30
0.0
 11
149.93554751229911
 21
154.2972678123767
 31
0.0
  0
LINE
  5
18D1D
  8
TS
 10
149.93554751229911
 20
154.2972678123767
 30
0.0
 11
149.93554751229911
 21
154.34012531018899
 31
0.0
  0
LINE
  5
18D1E
  8
TS
 10
149.93554751229911
 20
154.34012531018899
 30
0.0
 11
149.93554751229911
 21
154.3829829710719
 31
0.0
  0
LINE
  5
18D1F
  8
TS
 10
149.93554751229911
 20
154.3829829710719
 30
0.0
 11
149.93554751229911
 21
154.42584079448571
 31
0.0
  0
LINE
  5
18D20
  8
TS
 10
149.93554751229911
 20
154.42584079448571
 30
0.0
 11
149.93554751229911
 21
154.4686987798909
 31
0.0
  0
LINE
  5
18D21
  8
TS
 10
149.93554751229911
 20
154.4686987798909
 30
0.0
 11
149.93554751229911
 21
154.511556926748
 31
0.0
  0
LINE
  5
18D22
  8
TS
 10
149.93554751229911
 20
154.511556926748
 30
0.0
 11
149.93554751229911
 21
154.55441523451731
 31
0.0
  0
LINE
  5
18D23
  8
TS
 10
149.93554751229911
 20
154.55441523451731
 30
0.0
 11
149.93554751229911
 21
154.59727370265949
 31
0.0
  0
LINE
  5
18D24
  8
TS
 10
149.93554751229911
 20
154.59727370265949
 30
0.0
 11
149.93554751229911
 21
154.640132330635
 31
0.0
  0
LINE
  5
18D25
  8
TS
 10
149.93554751229911
 20
154.640132330635
 30
0.0
 11
149.93554751229911
 21
154.68299111790381
 31
0.0
  0
LINE
  5
18D26
  8
TS
 10
149.93554751229911
 20
154.68299111790381
 30
0.0
 11
149.93554751229911
 21
154.7258500639268
 31
0.0
  0
LINE
  5
18D27
  8
TS
 10
149.93554751229911
 20
154.7258500639268
 30
0.0
 11
149.93554751229911
 21
154.76870916816441
 31
0.0
  0
LINE
  5
18D28
  8
TS
 10
149.93554751229911
 20
154.76870916816441
 30
0.0
 11
149.93554751229911
 21
154.81156843007679
 31
0.0
  0
LINE
  5
18D29
  8
TS
 10
149.93554751229911
 20
154.81156843007679
 30
0.0
 11
149.93554751229911
 21
154.8544278491247
 31
0.0
  0
LINE
  5
18D2A
  8
TS
 10
149.93554751229911
 20
154.8544278491247
 30
0.0
 11
149.93554751229911
 21
154.89728742476831
 31
0.0
  0
LINE
  5
18D2B
  8
TS
 10
149.93554751229911
 20
154.89728742476831
 30
0.0
 11
149.93554751229911
 21
154.9401471564681
 31
0.0
  0
LINE
  5
18D2C
  8
TS
 10
149.93554751229911
 20
154.9401471564681
 30
0.0
 11
149.93554751229911
 21
154.98300704368469
 31
0.0
  0
LINE
  5
18D2D
  8
TS
 10
146.93554751229911
 20
154.98300704368469
 30
0.0
 11
146.93554751229911
 21
154.90797205525661
 31
0.0
  0
LINE
  5
18D2E
  8
TS
 10
146.93554751229911
 20
154.90797205525661
 30
0.0
 11
146.93554751229911
 21
154.83294056431191
 31
0.0
  0
LINE
  5
18D2F
  8
TS
 10
146.93554751229911
 20
154.83294056431191
 30
0.0
 11
146.93554751229911
 21
154.75791260176879
 31
0.0
  0
LINE
  5
18D30
  8
TS
 10
146.93554751229911
 20
154.75791260176879
 30
0.0
 11
146.93554751229911
 21
154.6828881985453
 31
0.0
  0
LINE
  5
18D31
  8
TS
 10
146.93554751229911
 20
154.6828881985453
 30
0.0
 11
146.93554751229911
 21
154.60786738555981
 31
0.0
  0
LINE
  5
18D32
  8
TS
 10
146.93554751229911
 20
154.60786738555981
 30
0.0
 11
146.93554751229911
 21
154.5328501937303
 31
0.0
  0
LINE
  5
18D33
  8
TS
 10
146.93554751229911
 20
154.5328501937303
 30
0.0
 11
146.93554751229911
 21
154.45783665397519
 31
0.0
  0
LINE
  5
18D34
  8
TS
 10
146.93554751229911
 20
154.45783665397519
 30
0.0
 11
146.93554751229911
 21
154.3828267972126
 31
0.0
  0
LINE
  5
18D35
  8
TS
 10
146.93554751229911
 20
154.3828267972126
 30
0.0
 11
146.93554751229911
 21
154.30782065436051
 31
0.0
  0
LINE
  5
18D36
  8
TS
 10
146.93554751229911
 20
154.30782065436051
 30
0.0
 11
146.93554751229911
 21
154.23281825633711
 31
0.0
  0
LINE
  5
18D37
  8
TS
 10
146.93554751229911
 20
154.23281825633711
 30
0.0
 11
146.93554751229911
 21
154.15781963406079
 31
0.0
  0
LINE
  5
18D38
  8
TS
 10
146.93554751229911
 20
154.15781963406079
 30
0.0
 11
146.93554751229911
 21
154.08282481844961
 31
0.0
  0
LINE
  5
18D39
  8
TS
 10
146.93554751229911
 20
154.08282481844961
 30
0.0
 11
146.93554751229911
 21
154.0078338404216
 31
0.0
  0
LINE
  5
18D3A
  8
TS
 10
146.93554751229911
 20
154.0078338404216
 30
0.0
 11
146.93554751229911
 21
153.93284673089511
 31
0.0
  0
LINE
  5
18D3B
  8
TS
 10
146.93554751229911
 20
153.93284673089511
 30
0.0
 11
146.93554751229911
 21
153.8578635207883
 31
0.0
  0
LINE
  5
18D3C
  8
TS
 10
146.93554751229911
 20
153.8578635207883
 30
0.0
 11
146.93554751229911
 21
153.78288424101919
 31
0.0
  0
LINE
  5
18D3D
  8
TS
 10
146.93554751229911
 20
153.78288424101919
 30
0.0
 11
146.93554751229911
 21
153.70790892250619
 31
0.0
  0
LINE
  5
18D3E
  8
TS
 10
146.93554751229911
 20
153.70790892250619
 30
0.0
 11
146.93554751229911
 21
153.63293759616741
 31
0.0
  0
LINE
  5
18D3F
  8
TS
 10
146.93554751229911
 20
153.63293759616741
 30
0.0
 11
146.93554751229911
 21
153.5579702929208
 31
0.0
  0
LINE
  5
18D40
  8
TS
 10
146.93554751229911
 20
153.5579702929208
 30
0.0
 11
146.93554751229911
 21
153.48300704368481
 31
0.0
  0
LINE
  5
18D41
  8
TS
 10
149.93554751229911
 20
148.48300704368481
 30
0.0
 11
149.93554751229911
 21
148.52586134237109
 31
0.0
  0
LINE
  5
18D42
  8
TS
 10
149.93554751229911
 20
148.52586134237109
 30
0.0
 11
149.93554751229911
 21
148.56871581466041
 31
0.0
  0
LINE
  5
18D43
  8
TS
 10
149.93554751229911
 20
148.56871581466041
 30
0.0
 11
149.93554751229911
 21
148.6115704599691
 31
0.0
  0
LINE
  5
18D44
  8
TS
 10
149.93554751229911
 20
148.6115704599691
 30
0.0
 11
149.93554751229911
 21
148.65442527771381
 31
0.0
  0
LINE
  5
18D45
  8
TS
 10
149.93554751229911
 20
148.65442527771381
 30
0.0
 11
149.93554751229911
 21
148.69728026731099
 31
0.0
  0
LINE
  5
18D46
  8
TS
 10
149.93554751229911
 20
148.69728026731099
 30
0.0
 11
149.93554751229911
 21
148.7401354257365
 31
0.0
  0
LINE
  5
18D47
  8
TS
 10
149.93554751229911
 20
148.7401354257365
 30
0.0
 11
149.93554751229911
 21
148.78299075453171
 31
0.0
  0
LINE
  5
18D48
  8
TS
 10
149.93554751229911
 20
148.78299075453171
 30
0.0
 11
149.93554751229911
 21
148.8258462534117
 31
0.0
  0
LINE
  5
18D49
  8
TS
 10
149.93554751229911
 20
148.8258462534117
 30
0.0
 11
149.93554751229911
 21
148.8687019218371
 31
0.0
  0
LINE
  5
18D4A
  8
TS
 10
149.93554751229911
 20
148.8687019218371
 30
0.0
 11
149.93554751229911
 21
148.91155775926799
 31
0.0
  0
LINE
  5
18D4B
  8
TS
 10
149.93554751229911
 20
148.91155775926799
 30
0.0
 11
149.93554751229911
 21
148.95441376516521
 31
0.0
  0
LINE
  5
18D4C
  8
TS
 10
149.93554751229911
 20
148.95441376516521
 30
0.0
 11
149.93554751229911
 21
148.99726993898889
 31
0.0
  0
LINE
  5
18D4D
  8
TS
 10
149.93554751229911
 20
148.99726993898889
 30
0.0
 11
149.93554751229911
 21
149.0401262801997
 31
0.0
  0
LINE
  5
18D4E
  8
TS
 10
149.93554751229911
 20
149.0401262801997
 30
0.0
 11
149.93554751229911
 21
149.08298278825799
 31
0.0
  0
LINE
  5
18D4F
  8
TS
 10
149.93554751229911
 20
149.08298278825799
 30
0.0
 11
149.93554751229911
 21
149.12583946262421
 31
0.0
  0
LINE
  5
18D50
  8
TS
 10
149.93554751229911
 20
149.12583946262421
 30
0.0
 11
149.93554751229911
 21
149.16869630275869
 31
0.0
  0
LINE
  5
18D51
  8
TS
 10
149.93554751229911
 20
149.16869630275869
 30
0.0
 11
149.93554751229911
 21
149.21155330812201
 31
0.0
  0
LINE
  5
18D52
  8
TS
 10
149.93554751229911
 20
149.21155330812201
 30
0.0
 11
149.93554751229911
 21
149.25441047817461
 31
0.0
  0
LINE
  5
18D53
  8
TS
 10
149.93554751229911
 20
149.25441047817461
 30
0.0
 11
149.93554751229911
 21
149.2972678123767
 31
0.0
  0
LINE
  5
18D54
  8
TS
 10
149.93554751229911
 20
149.2972678123767
 30
0.0
 11
149.93554751229911
 21
149.34012531018899
 31
0.0
  0
LINE
  5
18D55
  8
TS
 10
149.93554751229911
 20
149.34012531018899
 30
0.0
 11
149.93554751229911
 21
149.3829829710719
 31
0.0
  0
LINE
  5
18D56
  8
TS
 10
149.93554751229911
 20
149.3829829710719
 30
0.0
 11
149.93554751229911
 21
149.42584079448571
 31
0.0
  0
LINE
  5
18D57
  8
TS
 10
149.93554751229911
 20
149.42584079448571
 30
0.0
 11
149.93554751229911
 21
149.4686987798909
 31
0.0
  0
LINE
  5
18D58
  8
TS
 10
149.93554751229911
 20
149.4686987798909
 30
0.0
 11
149.93554751229911
 21
149.511556926748
 31
0.0
  0
LINE
  5
18D59
  8
TS
 10
149.93554751229911
 20
149.511556926748
 30
0.0
 11
149.93554751229911
 21
149.55441523451731
 31
0.0
  0
LINE
  5
18D5A
  8
TS
 10
149.93554751229911
 20
149.55441523451731
 30
0.0
 11
149.93554751229911
 21
149.59727370265949
 31
0.0
  0
LINE
  5
18D5B
  8
TS
 10
149.93554751229911
 20
149.59727370265949
 30
0.0
 11
149.93554751229911
 21
149.640132330635
 31
0.0
  0
LINE
  5
18D5C
  8
TS
 10
149.93554751229911
 20
149.640132330635
 30
0.0
 11
149.93554751229911
 21
149.68299111790381
 31
0.0
  0
LINE
  5
18D5D
  8
TS
 10
149.93554751229911
 20
149.68299111790381
 30
0.0
 11
149.93554751229911
 21
149.7258500639268
 31
0.0
  0
LINE
  5
18D5E
  8
TS
 10
149.93554751229911
 20
149.7258500639268
 30
0.0
 11
149.93554751229911
 21
149.76870916816441
 31
0.0
  0
LINE
  5
18D5F
  8
TS
 10
149.93554751229911
 20
149.76870916816441
 30
0.0
 11
149.93554751229911
 21
149.81156843007679
 31
0.0
  0
LINE
  5
18D60
  8
TS
 10
149.93554751229911
 20
149.81156843007679
 30
0.0
 11
149.93554751229911
 21
149.8544278491247
 31
0.0
  0
LINE
  5
18D61
  8
TS
 10
149.93554751229911
 20
149.8544278491247
 30
0.0
 11
149.93554751229911
 21
149.89728742476839
 31
0.0
  0
LINE
  5
18D62
  8
TS
 10
149.93554751229911
 20
149.89728742476839
 30
0.0
 11
149.93554751229911
 21
149.9401471564681
 31
0.0
  0
LINE
  5
18D63
  8
TS
 10
149.93554751229911
 20
149.9401471564681
 30
0.0
 11
149.93554751229911
 21
149.98300704368481
 31
0.0
  0
LINE
  5
18D64
  8
TS
 10
146.93554751229911
 20
149.98300704368481
 30
0.0
 11
146.93554751229911
 21
149.90797205525661
 31
0.0
  0
LINE
  5
18D65
  8
TS
 10
146.93554751229911
 20
149.90797205525661
 30
0.0
 11
146.93554751229911
 21
149.83294056431191
 31
0.0
  0
LINE
  5
18D66
  8
TS
 10
146.93554751229911
 20
149.83294056431191
 30
0.0
 11
146.93554751229911
 21
149.75791260176879
 31
0.0
  0
LINE
  5
18D67
  8
TS
 10
146.93554751229911
 20
149.75791260176879
 30
0.0
 11
146.93554751229911
 21
149.6828881985453
 31
0.0
  0
LINE
  5
18D68
  8
TS
 10
146.93554751229911
 20
149.6828881985453
 30
0.0
 11
146.93554751229911
 21
149.60786738555981
 31
0.0
  0
LINE
  5
18D69
  8
TS
 10
146.93554751229911
 20
149.60786738555981
 30
0.0
 11
146.93554751229911
 21
149.53285019373041
 31
0.0
  0
LINE
  5
18D6A
  8
TS
 10
146.93554751229911
 20
149.53285019373041
 30
0.0
 11
146.93554751229911
 21
149.45783665397519
 31
0.0
  0
LINE
  5
18D6B
  8
TS
 10
146.93554751229911
 20
149.45783665397519
 30
0.0
 11
146.93554751229911
 21
149.3828267972126
 31
0.0
  0
LINE
  5
18D6C
  8
TS
 10
146.93554751229911
 20
149.3828267972126
 30
0.0
 11
146.93554751229911
 21
149.30782065436051
 31
0.0
  0
LINE
  5
18D6D
  8
TS
 10
146.93554751229911
 20
149.30782065436051
 30
0.0
 11
146.93554751229911
 21
149.23281825633711
 31
0.0
  0
LINE
  5
18D6E
  8
TS
 10
146.93554751229911
 20
149.23281825633711
 30
0.0
 11
146.93554751229911
 21
149.15781963406079
 31
0.0
  0
LINE
  5
18D6F
  8
TS
 10
146.93554751229911
 20
149.15781963406079
 30
0.0
 11
146.93554751229911
 21
149.08282481844961
 31
0.0
  0
LINE
  5
18D70
  8
TS
 10
146.93554751229911
 20
149.08282481844961
 30
0.0
 11
146.93554751229911
 21
149.0078338404216
 31
0.0
  0
LINE
  5
18D71
  8
TS
 10
146.93554751229911
 20
149.0078338404216
 30
0.0
 11
146.93554751229911
 21
148.93284673089511
 31
0.0
  0
LINE
  5
18D72
  8
TS
 10
146.93554751229911
 20
148.93284673089511
 30
0.0
 11
146.93554751229911
 21
148.8578635207883
 31
0.0
  0
LINE
  5
18D73
  8
TS
 10
146.93554751229911
 20
148.8578635207883
 30
0.0
 11
146.93554751229911
 21
148.78288424101919
 31
0.0
  0
LINE
  5
18D74
  8
TS
 10
146.93554751229911
 20
148.78288424101919
 30
0.0
 11
146.93554751229911
 21
148.70790892250619
 31
0.0
  0
LINE
  5
18D75
  8
TS
 10
146.93554751229911
 20
148.70790892250619
 30
0.0
 11
146.93554751229911
 21
148.6329375961673
 31
0.0
  0
LINE
  5
18D76
  8
TS
 10
146.93554751229911
 20
148.6329375961673
 30
0.0
 11
146.93554751229911
 21
148.5579702929208
 31
0.0
  0
LINE
  5
18D77
  8
TS
 10
146.93554751229911
 20
148.5579702929208
 30
0.0
 11
146.93554751229911
 21
148.48300704368481
 31
0.0
  0
LINE
  5
18D78
  8
TS
 10
146.93554751229911
 20
152.48300704368481
 30
0.0
 11
146.93554751229911
 21
152.40797205525661
 31
0.0
  0
LINE
  5
18D79
  8
TS
 10
146.93554751229911
 20
152.40797205525661
 30
0.0
 11
146.93554751229911
 21
152.33294056431191
 31
0.0
  0
LINE
  5
18D7A
  8
TS
 10
146.93554751229911
 20
152.33294056431191
 30
0.0
 11
146.93554751229911
 21
152.25791260176879
 31
0.0
  0
LINE
  5
18D7B
  8
TS
 10
146.93554751229911
 20
152.25791260176879
 30
0.0
 11
146.93554751229911
 21
152.1828881985453
 31
0.0
  0
LINE
  5
18D7C
  8
TS
 10
146.93554751229911
 20
152.1828881985453
 30
0.0
 11
146.93554751229911
 21
152.1078673855599
 31
0.0
  0
LINE
  5
18D7D
  8
TS
 10
146.93554751229911
 20
152.1078673855599
 30
0.0
 11
146.93554751229911
 21
152.03285019373041
 31
0.0
  0
LINE
  5
18D7E
  8
TS
 10
146.93554751229911
 20
152.03285019373041
 30
0.0
 11
146.93554751229911
 21
151.95783665397531
 31
0.0
  0
LINE
  5
18D7F
  8
TS
 10
146.93554751229911
 20
151.95783665397531
 30
0.0
 11
146.93554751229911
 21
151.8828267972126
 31
0.0
  0
LINE
  5
18D80
  8
TS
 10
146.93554751229911
 20
151.8828267972126
 30
0.0
 11
146.93554751229911
 21
151.80782065436051
 31
0.0
  0
LINE
  5
18D81
  8
TS
 10
146.93554751229911
 20
151.80782065436051
 30
0.0
 11
146.93554751229911
 21
151.73281825633711
 31
0.0
  0
LINE
  5
18D82
  8
TS
 10
146.93554751229911
 20
151.73281825633711
 30
0.0
 11
146.93554751229911
 21
151.65781963406079
 31
0.0
  0
LINE
  5
18D83
  8
TS
 10
146.93554751229911
 20
151.65781963406079
 30
0.0
 11
146.93554751229911
 21
151.58282481844961
 31
0.0
  0
LINE
  5
18D84
  8
TS
 10
146.93554751229911
 20
151.58282481844961
 30
0.0
 11
146.93554751229911
 21
151.5078338404216
 31
0.0
  0
LINE
  5
18D85
  8
TS
 10
146.93554751229911
 20
151.5078338404216
 30
0.0
 11
146.93554751229911
 21
151.43284673089511
 31
0.0
  0
LINE
  5
18D86
  8
TS
 10
146.93554751229911
 20
151.43284673089511
 30
0.0
 11
146.93554751229911
 21
151.3578635207883
 31
0.0
  0
LINE
  5
18D87
  8
TS
 10
146.93554751229911
 20
151.3578635207883
 30
0.0
 11
146.93554751229911
 21
151.28288424101919
 31
0.0
  0
LINE
  5
18D88
  8
TS
 10
146.93554751229911
 20
151.28288424101919
 30
0.0
 11
146.93554751229911
 21
151.20790892250619
 31
0.0
  0
LINE
  5
18D89
  8
TS
 10
146.93554751229911
 20
151.20790892250619
 30
0.0
 11
146.93554751229911
 21
151.13293759616741
 31
0.0
  0
LINE
  5
18D8A
  8
TS
 10
146.93554751229911
 20
151.13293759616741
 30
0.0
 11
146.93554751229911
 21
151.0579702929208
 31
0.0
  0
LINE
  5
18D8B
  8
TS
 10
146.93554751229911
 20
151.0579702929208
 30
0.0
 11
146.93554751229911
 21
150.98300704368481
 31
0.0
  0
LINE
  5
18D8C
  8
TS
 10
149.93554751229911
 20
150.98300704368481
 30
0.0
 11
149.93554751229911
 21
151.02586134237109
 31
0.0
  0
LINE
  5
18D8D
  8
TS
 10
149.93554751229911
 20
151.02586134237109
 30
0.0
 11
149.93554751229911
 21
151.06871581466041
 31
0.0
  0
LINE
  5
18D8E
  8
TS
 10
149.93554751229911
 20
151.06871581466041
 30
0.0
 11
149.93554751229911
 21
151.1115704599691
 31
0.0
  0
LINE
  5
18D8F
  8
TS
 10
149.93554751229911
 20
151.1115704599691
 30
0.0
 11
149.93554751229911
 21
151.15442527771381
 31
0.0
  0
LINE
  5
18D90
  8
TS
 10
149.93554751229911
 20
151.15442527771381
 30
0.0
 11
149.93554751229911
 21
151.19728026731099
 31
0.0
  0
LINE
  5
18D91
  8
TS
 10
149.93554751229911
 20
151.19728026731099
 30
0.0
 11
149.93554751229911
 21
151.2401354257365
 31
0.0
  0
LINE
  5
18D92
  8
TS
 10
149.93554751229911
 20
151.2401354257365
 30
0.0
 11
149.93554751229911
 21
151.28299075453171
 31
0.0
  0
LINE
  5
18D93
  8
TS
 10
149.93554751229911
 20
151.28299075453171
 30
0.0
 11
149.93554751229911
 21
151.32584625341181
 31
0.0
  0
LINE
  5
18D94
  8
TS
 10
149.93554751229911
 20
151.32584625341181
 30
0.0
 11
149.93554751229911
 21
151.3687019218371
 31
0.0
  0
LINE
  5
18D95
  8
TS
 10
149.93554751229911
 20
151.3687019218371
 30
0.0
 11
149.93554751229911
 21
151.41155775926799
 31
0.0
  0
LINE
  5
18D96
  8
TS
 10
149.93554751229911
 20
151.41155775926799
 30
0.0
 11
149.93554751229911
 21
151.45441376516521
 31
0.0
  0
LINE
  5
18D97
  8
TS
 10
149.93554751229911
 20
151.45441376516521
 30
0.0
 11
149.93554751229911
 21
151.49726993898889
 31
0.0
  0
LINE
  5
18D98
  8
TS
 10
149.93554751229911
 20
151.49726993898889
 30
0.0
 11
149.93554751229911
 21
151.5401262801997
 31
0.0
  0
LINE
  5
18D99
  8
TS
 10
149.93554751229911
 20
151.5401262801997
 30
0.0
 11
149.93554751229911
 21
151.58298278825799
 31
0.0
  0
LINE
  5
18D9A
  8
TS
 10
149.93554751229911
 20
151.58298278825799
 30
0.0
 11
149.93554751229911
 21
151.62583946262421
 31
0.0
  0
LINE
  5
18D9B
  8
TS
 10
149.93554751229911
 20
151.62583946262421
 30
0.0
 11
149.93554751229911
 21
151.66869630275869
 31
0.0
  0
LINE
  5
18D9C
  8
TS
 10
149.93554751229911
 20
151.66869630275869
 30
0.0
 11
149.93554751229911
 21
151.71155330812201
 31
0.0
  0
LINE
  5
18D9D
  8
TS
 10
149.93554751229911
 20
151.71155330812201
 30
0.0
 11
149.93554751229911
 21
151.75441047817449
 31
0.0
  0
LINE
  5
18D9E
  8
TS
 10
149.93554751229911
 20
151.75441047817449
 30
0.0
 11
149.93554751229911
 21
151.7972678123767
 31
0.0
  0
LINE
  5
18D9F
  8
TS
 10
149.93554751229911
 20
151.7972678123767
 30
0.0
 11
149.93554751229911
 21
151.84012531018899
 31
0.0
  0
LINE
  5
18DA0
  8
TS
 10
149.93554751229911
 20
151.84012531018899
 30
0.0
 11
149.93554751229911
 21
151.8829829710719
 31
0.0
  0
LINE
  5
18DA1
  8
TS
 10
149.93554751229911
 20
151.8829829710719
 30
0.0
 11
149.93554751229911
 21
151.92584079448571
 31
0.0
  0
LINE
  5
18DA2
  8
TS
 10
149.93554751229911
 20
151.92584079448571
 30
0.0
 11
149.93554751229911
 21
151.9686987798909
 31
0.0
  0
LINE
  5
18DA3
  8
TS
 10
149.93554751229911
 20
151.9686987798909
 30
0.0
 11
149.93554751229911
 21
152.01155692674789
 31
0.0
  0
LINE
  5
18DA4
  8
TS
 10
149.93554751229911
 20
152.01155692674789
 30
0.0
 11
149.93554751229911
 21
152.05441523451731
 31
0.0
  0
LINE
  5
18DA5
  8
TS
 10
149.93554751229911
 20
152.05441523451731
 30
0.0
 11
149.93554751229911
 21
152.09727370265949
 31
0.0
  0
LINE
  5
18DA6
  8
TS
 10
149.93554751229911
 20
152.09727370265949
 30
0.0
 11
149.93554751229911
 21
152.14013233063491
 31
0.0
  0
LINE
  5
18DA7
  8
TS
 10
149.93554751229911
 20
152.14013233063491
 30
0.0
 11
149.93554751229911
 21
152.18299111790381
 31
0.0
  0
LINE
  5
18DA8
  8
TS
 10
149.93554751229911
 20
152.18299111790381
 30
0.0
 11
149.93554751229911
 21
152.2258500639268
 31
0.0
  0
LINE
  5
18DA9
  8
TS
 10
149.93554751229911
 20
152.2258500639268
 30
0.0
 11
149.93554751229911
 21
152.26870916816429
 31
0.0
  0
LINE
  5
18DAA
  8
TS
 10
149.93554751229911
 20
152.26870916816429
 30
0.0
 11
149.93554751229911
 21
152.31156843007679
 31
0.0
  0
LINE
  5
18DAB
  8
TS
 10
149.93554751229911
 20
152.31156843007679
 30
0.0
 11
149.93554751229911
 21
152.3544278491247
 31
0.0
  0
LINE
  5
18DAC
  8
TS
 10
149.93554751229911
 20
152.3544278491247
 30
0.0
 11
149.93554751229911
 21
152.39728742476831
 31
0.0
  0
LINE
  5
18DAD
  8
TS
 10
149.93554751229911
 20
152.39728742476831
 30
0.0
 11
149.93554751229911
 21
152.4401471564681
 31
0.0
  0
LINE
  5
18DAE
  8
TS
 10
149.93554751229911
 20
152.4401471564681
 30
0.0
 11
149.93554751229911
 21
152.48300704368481
 31
0.0
  0
LINE
  5
18DAF
  8
TS
 10
149.93554751229911
 20
155.98300704368481
 30
0.0
 11
149.93554751229911
 21
156.02586134237109
 31
0.0
  0
LINE
  5
18DB0
  8
TS
 10
149.93554751229911
 20
156.02586134237109
 30
0.0
 11
149.93554751229911
 21
156.06871581466041
 31
0.0
  0
LINE
  5
18DB1
  8
TS
 10
149.93554751229911
 20
156.06871581466041
 30
0.0
 11
149.93554751229911
 21
156.1115704599691
 31
0.0
  0
LINE
  5
18DB2
  8
TS
 10
149.93554751229911
 20
156.1115704599691
 30
0.0
 11
149.93554751229911
 21
156.15442527771381
 31
0.0
  0
LINE
  5
18DB3
  8
TS
 10
149.93554751229911
 20
156.15442527771381
 30
0.0
 11
149.93554751229911
 21
156.19728026731099
 31
0.0
  0
LINE
  5
18DB4
  8
TS
 10
149.93554751229911
 20
156.19728026731099
 30
0.0
 11
149.93554751229911
 21
156.2401354257365
 31
0.0
  0
LINE
  5
18DB5
  8
TS
 10
149.93554751229911
 20
156.2401354257365
 30
0.0
 11
149.93554751229911
 21
156.2829907545316
 31
0.0
  0
LINE
  5
18DB6
  8
TS
 10
149.93554751229911
 20
156.2829907545316
 30
0.0
 11
149.93554751229911
 21
156.32584625341181
 31
0.0
  0
LINE
  5
18DB7
  8
TS
 10
149.93554751229911
 20
156.32584625341181
 30
0.0
 11
149.93554751229911
 21
156.36870192183699
 31
0.0
  0
LINE
  5
18DB8
  8
TS
 10
149.93554751229911
 20
156.36870192183699
 30
0.0
 11
149.93554751229911
 21
156.41155775926799
 31
0.0
  0
LINE
  5
18DB9
  8
TS
 10
149.93554751229911
 20
156.41155775926799
 30
0.0
 11
149.93554751229911
 21
156.45441376516521
 31
0.0
  0
LINE
  5
18DBA
  8
TS
 10
149.93554751229911
 20
156.45441376516521
 30
0.0
 11
149.93554751229911
 21
156.49726993898889
 31
0.0
  0
LINE
  5
18DBB
  8
TS
 10
149.93554751229911
 20
156.49726993898889
 30
0.0
 11
149.93554751229911
 21
156.5401262801997
 31
0.0
  0
LINE
  5
18DBC
  8
TS
 10
149.93554751229911
 20
156.5401262801997
 30
0.0
 11
149.93554751229911
 21
156.58298278825799
 31
0.0
  0
LINE
  5
18DBD
  8
TS
 10
149.93554751229911
 20
156.58298278825799
 30
0.0
 11
149.93554751229911
 21
156.62583946262421
 31
0.0
  0
LINE
  5
18DBE
  8
TS
 10
149.93554751229911
 20
156.62583946262421
 30
0.0
 11
149.93554751229911
 21
156.66869630275869
 31
0.0
  0
LINE
  5
18DBF
  8
TS
 10
149.93554751229911
 20
156.66869630275869
 30
0.0
 11
149.93554751229911
 21
156.71155330812201
 31
0.0
  0
LINE
  5
18DC0
  8
TS
 10
149.93554751229911
 20
156.71155330812201
 30
0.0
 11
149.93554751229911
 21
156.75441047817449
 31
0.0
  0
LINE
  5
18DC1
  8
TS
 10
149.93554751229911
 20
156.75441047817449
 30
0.0
 11
149.93554751229911
 21
156.7972678123767
 31
0.0
  0
LINE
  5
18DC2
  8
TS
 10
149.93554751229911
 20
156.7972678123767
 30
0.0
 11
149.93554751229911
 21
156.84012531018899
 31
0.0
  0
LINE
  5
18DC3
  8
TS
 10
149.93554751229911
 20
156.84012531018899
 30
0.0
 11
149.93554751229911
 21
156.8829829710719
 31
0.0
  0
LINE
  5
18DC4
  8
TS
 10
149.93554751229911
 20
156.8829829710719
 30
0.0
 11
149.93554751229911
 21
156.92584079448571
 31
0.0
  0
LINE
  5
18DC5
  8
TS
 10
149.93554751229911
 20
156.92584079448571
 30
0.0
 11
149.93554751229911
 21
156.9686987798909
 31
0.0
  0
LINE
  5
18DC6
  8
TS
 10
149.93554751229911
 20
156.9686987798909
 30
0.0
 11
149.93554751229911
 21
157.01155692674789
 31
0.0
  0
LINE
  5
18DC7
  8
TS
 10
149.93554751229911
 20
157.01155692674789
 30
0.0
 11
149.93554751229911
 21
157.05441523451731
 31
0.0
  0
LINE
  5
18DC8
  8
TS
 10
149.93554751229911
 20
157.05441523451731
 30
0.0
 11
149.93554751229911
 21
157.09727370265949
 31
0.0
  0
LINE
  5
18DC9
  8
TS
 10
149.93554751229911
 20
157.09727370265949
 30
0.0
 11
149.93554751229911
 21
157.14013233063491
 31
0.0
  0
LINE
  5
18DCA
  8
TS
 10
149.93554751229911
 20
157.14013233063491
 30
0.0
 11
149.93554751229911
 21
157.18299111790381
 31
0.0
  0
LINE
  5
18DCB
  8
TS
 10
149.93554751229911
 20
157.18299111790381
 30
0.0
 11
149.93554751229911
 21
157.2258500639268
 31
0.0
  0
LINE
  5
18DCC
  8
TS
 10
149.93554751229911
 20
157.2258500639268
 30
0.0
 11
149.93554751229911
 21
157.26870916816429
 31
0.0
  0
LINE
  5
18DCD
  8
TS
 10
149.93554751229911
 20
157.26870916816429
 30
0.0
 11
149.93554751229911
 21
157.31156843007679
 31
0.0
  0
LINE
  5
18DCE
  8
TS
 10
149.93554751229911
 20
157.31156843007679
 30
0.0
 11
149.93554751229911
 21
157.3544278491247
 31
0.0
  0
LINE
  5
18DCF
  8
TS
 10
149.93554751229911
 20
157.3544278491247
 30
0.0
 11
149.93554751229911
 21
157.39728742476819
 31
0.0
  0
LINE
  5
18DD0
  8
TS
 10
149.93554751229911
 20
157.39728742476819
 30
0.0
 11
149.93554751229911
 21
157.4401471564681
 31
0.0
  0
LINE
  5
18DD1
  8
TS
 10
149.93554751229911
 20
157.4401471564681
 30
0.0
 11
149.93554751229911
 21
157.48300704368481
 31
0.0
  0
LINE
  5
18DD2
  8
TS
 10
146.93554751229911
 20
157.48300704368481
 30
0.0
 11
146.93554751229911
 21
157.40797205525661
 31
0.0
  0
LINE
  5
18DD3
  8
TS
 10
146.93554751229911
 20
157.40797205525661
 30
0.0
 11
146.93554751229911
 21
157.33294056431191
 31
0.0
  0
LINE
  5
18DD4
  8
TS
 10
146.93554751229911
 20
157.33294056431191
 30
0.0
 11
146.93554751229911
 21
157.25791260176879
 31
0.0
  0
LINE
  5
18DD5
  8
TS
 10
146.93554751229911
 20
157.25791260176879
 30
0.0
 11
146.93554751229911
 21
157.1828881985453
 31
0.0
  0
LINE
  5
18DD6
  8
TS
 10
146.93554751229911
 20
157.1828881985453
 30
0.0
 11
146.93554751229911
 21
157.1078673855599
 31
0.0
  0
LINE
  5
18DD7
  8
TS
 10
146.93554751229911
 20
157.1078673855599
 30
0.0
 11
146.93554751229911
 21
157.03285019373041
 31
0.0
  0
LINE
  5
18DD8
  8
TS
 10
146.93554751229911
 20
157.03285019373041
 30
0.0
 11
146.93554751229911
 21
156.95783665397531
 31
0.0
  0
LINE
  5
18DD9
  8
TS
 10
146.93554751229911
 20
156.95783665397531
 30
0.0
 11
146.93554751229911
 21
156.8828267972126
 31
0.0
  0
LINE
  5
18DDA
  8
TS
 10
146.93554751229911
 20
156.8828267972126
 30
0.0
 11
146.93554751229911
 21
156.80782065436051
 31
0.0
  0
LINE
  5
18DDB
  8
TS
 10
146.93554751229911
 20
156.80782065436051
 30
0.0
 11
146.93554751229911
 21
156.7328182563372
 31
0.0
  0
LINE
  5
18DDC
  8
TS
 10
146.93554751229911
 20
156.7328182563372
 30
0.0
 11
146.93554751229911
 21
156.65781963406079
 31
0.0
  0
LINE
  5
18DDD
  8
TS
 10
146.93554751229911
 20
156.65781963406079
 30
0.0
 11
146.93554751229911
 21
156.58282481844961
 31
0.0
  0
LINE
  5
18DDE
  8
TS
 10
146.93554751229911
 20
156.58282481844961
 30
0.0
 11
146.93554751229911
 21
156.5078338404216
 31
0.0
  0
LINE
  5
18DDF
  8
TS
 10
146.93554751229911
 20
156.5078338404216
 30
0.0
 11
146.93554751229911
 21
156.43284673089511
 31
0.0
  0
LINE
  5
18DE0
  8
TS
 10
146.93554751229911
 20
156.43284673089511
 30
0.0
 11
146.93554751229911
 21
156.3578635207883
 31
0.0
  0
LINE
  5
18DE1
  8
TS
 10
146.93554751229911
 20
156.3578635207883
 30
0.0
 11
146.93554751229911
 21
156.28288424101919
 31
0.0
  0
LINE
  5
18DE2
  8
TS
 10
146.93554751229911
 20
156.28288424101919
 30
0.0
 11
146.93554751229911
 21
156.20790892250619
 31
0.0
  0
LINE
  5
18DE3
  8
TS
 10
146.93554751229911
 20
156.20790892250619
 30
0.0
 11
146.93554751229911
 21
156.1329375961673
 31
0.0
  0
LINE
  5
18DE4
  8
TS
 10
146.93554751229911
 20
156.1329375961673
 30
0.0
 11
146.93554751229911
 21
156.0579702929208
 31
0.0
  0
LINE
  5
18DE5
  8
TS
 10
146.93554751229911
 20
156.0579702929208
 30
0.0
 11
146.93554751229911
 21
155.98300704368481
 31
0.0
  0
LINE
  5
18DEA
  8
KI1
 10
154.83554762630069
 20
174.283007544116
 30
0.0
 11
168.93556507566581
 21
174.2830075861884
 31
0.0
  0
LINE
  5
19AFA
  8
KI2
 10
291.23555620178098
 20
167.08300497103809
 30
0.0
 11
279.63555620177982
 21
167.08300497103809
 31
0.0
  0
LINE
  5
19AFB
  8
KI2
 10
279.63555620177982
 20
161.08300497103809
 30
0.0
 11
291.23555620178098
 21
161.08300497103809
 31
0.0
  0
LINE
  5
19AFC
  8
KI2
 10
281.93555620178091
 20
167.08300497103809
 30
0.0
 11
281.93555620178091
 21
175.78300707389599
 31
0.0
  0
LINE
  5
19AFD
  8
KI2
 10
279.43555620178091
 20
166.88300497103779
 30
0.0
 11
279.63555620177982
 21
167.08300497103809
 31
0.0
  0
LINE
  5
19AFE
  8
KI2
 10
279.63555620177982
 20
161.08300497103809
 30
0.0
 11
279.43555620178091
 21
161.28300497103791
 31
0.0
  0
LINE
  5
19AFF
  8
KI2
 10
279.43555620178091
 20
166.88300497103779
 30
0.0
 11
279.43555620178091
 21
161.28300497103791
 31
0.0
  0
LINE
  5
19B00
  8
KI2
 10
288.9355562017808
 20
167.08300497103809
 30
0.0
 11
288.93555620178091
 21
175.7830070738961
 31
0.0
  0
LINE
  5
19B01
  8
KI2
 10
291.23555620178098
 20
167.08300497103809
 30
0.0
 11
291.43555620178091
 21
166.88300497103779
 31
0.0
  0
LINE
  5
19B02
  8
KI2
 10
291.43555620178091
 20
161.28300497103791
 30
0.0
 11
291.23555620178098
 21
161.08300497103809
 31
0.0
  0
LINE
  5
19B03
  8
KI2
 10
291.43555620178091
 20
161.28300497103791
 30
0.0
 11
291.43555620178091
 21
166.88300497103779
 31
0.0
  0
LINE
  5
19B45
  8
KI1
 10
272.63555620178022
 20
161.08300497103741
 30
0.0
 11
277.98555620177967
 21
161.08300497103741
 31
0.0
  0
LINE
  5
19B46
  8
KI1
 10
279.18555620177989
 20
162.28300497103669
 30
0.0
 11
272.9355562017804
 21
162.28300497103771
 31
0.0
  0
LINE
  5
19B47
  8
KI1
 10
272.63555620178022
 20
159.28300497103771
 30
0.0
 11
272.63555620178022
 21
161.08300497103741
 31
0.0
  0
LINE
  5
19B48
  8
KI1
 10
271.4355562017804
 20
160.78300497103771
 30
0.0
 11
271.4355562017804
 21
159.28300497103771
 31
0.0
  0
LINE
  5
19B49
  8
KI1
 10
271.4355562017804
 20
159.28300497103771
 30
0.0
 11
272.63555620178022
 21
159.28300497103771
 31
0.0
  0
ARC
  5
19B4A
  8
KI1
 10
272.9355562017804
 20
160.78300497103771
 30
0.0
 40
1.5
 50
89.999999999973952
 51
180.0
1001
GENIUS_GENOBJ-N-FIL_13
1002
{
1000
OWNER
1000
GEN
1002
}
1001
GENIUS_GENODEF_13
1002
{
1000
HIER
1070
     0
1002
}
1002
{
1000
MANEDIT
1070
     0
1002
}
1002
{
1000
NOSEL
1070
     0
1002
}
1002
{
1000
BEHIND
1070
     0
1002
}
1002
{
1000
OTHER
1070
     0
1002
}
1002
{
1000
REACTOR
1002
}
  0
ARC
  5
19B4B
  8
KI1
 10
292.38555620178113
 20
159.78300497103629
 30
0.0
 40
0.4999999999998013
 50
270.0
 51
0.0
  0
LINE
  5
19B4C
  8
KI1
 10
291.6855562017804
 20
162.28300497103669
 30
0.0
 11
297.9355562017804
 21
162.2830049710372
 31
0.0
  0
LINE
  5
19B4D
  8
KI1
 10
291.6855562017804
 20
161.08300497103781
 30
0.0
 11
291.6855562017804
 21
162.28300497103669
 31
0.0
  0
LINE
  5
19B4E
  8
KI1
 10
290.23555620177967
 20
161.08300497103781
 30
0.0
 11
291.6855562017804
 21
161.08300497103781
 31
0.0
  0
LINE
  5
19B4F
  8
KI1
 10
279.18555620177989
 20
161.08300497103781
 30
0.0
 11
280.63555620178022
 21
161.08300497103781
 31
0.0
  0
LINE
  5
19B50
  8
KI1
 10
279.18555620177989
 20
162.28300497103669
 30
0.0
 11
279.18555620177989
 21
161.08300497103781
 31
0.0
  0
LINE
  5
19B51
  8
KI1
 10
280.93555620177989
 20
160.48300497103699
 30
0.0
 11
285.13555620178022
 21
160.48300497103699
 31
0.0
  0
ARC
  5
19B52
  8
KI1
 10
280.63555620178022
 20
160.78300497103669
 30
0.0
 40
0.3000000000001962
 50
0.0
 51
90.0
  0
LINE
  5
19B53
  8
KI1
 10
280.93555620177989
 20
160.78300497103669
 30
0.0
 11
280.93555620177989
 21
160.48300497103699
 31
0.0
  0
LINE
  5
19B54
  8
KI1
 10
289.93555620177989
 20
160.48300497103699
 30
0.0
 11
289.93555620177989
 21
160.78300497103669
 31
0.0
  0
ARC
  5
19B55
  8
KI1
 10
285.43555620177989
 20
160.48300497103699
 30
0.0
 40
0.3000000000001962
 50
180.0
 51
0.0
  0
LINE
  5
19B56
  8
KI1
 10
285.73555620177967
 20
160.48300497103699
 30
0.0
 11
289.93555620177989
 21
160.48300497103699
 31
0.0
  0
LINE
  5
19B57
  8
KI1
 10
278.48555620177967
 20
159.2830049710368
 30
0.0
 11
292.38555620178113
 21
159.2830049710368
 31
0.0
  0
ARC
  5
19B58
  8
KI1
 10
290.23555620177967
 20
160.78300497103669
 30
0.0
 40
0.3000000000008781
 50
90.0
 51
180.0
  0
LINE
  5
19B59
  8
KI1
 10
298.23555620178058
 20
159.28300497103771
 30
0.0
 11
298.23555620178058
 21
161.08300497103741
 31
0.0
  0
LINE
  5
19B5A
  8
KI1
 10
299.4355562017804
 20
160.7830049710372
 30
0.0
 11
299.4355562017804
 21
159.28300497103771
 31
0.0
  0
LINE
  5
19B5B
  8
KI1
 10
299.4355562017804
 20
159.28300497103771
 30
0.0
 11
298.23555620178058
 21
159.28300497103771
 31
0.0
  0
LINE
  5
19B5C
  8
KI1
 10
298.23555620178058
 20
161.08300497103741
 30
0.0
 11
292.88555620178067
 21
161.08300497103741
 31
0.0
  0
LINE
  5
19B5D
  8
KI1
 10
292.88555620178067
 20
159.78300497103629
 30
0.0
 11
292.88555620178067
 21
161.08300497103781
 31
0.0
  0
ARC
  5
19B5E
  8
KI1
 10
297.9355562017804
 20
160.7830049710372
 30
0.0
 40
1.5
 50
0.0
 51
90.0
1001
GENIUS_GENODEF_13
1002
{
1000
HIER
1070
     0
1002
}
1002
{
1000
MANEDIT
1070
     0
1002
}
1002
{
1000
NOSEL
1070
     0
1002
}
1002
{
1000
BEHIND
1070
     0
1002
}
1002
{
1000
OTHER
1070
     0
1002
}
1002
{
1000
REACTOR
1002
}
1001
GENIUS_GENOBJ-N-FIL_13
1002
{
1000
OWNER
1000
GEN
1002
}
  0
LINE
  5
19B5F
  8
KI1
 10
277.98555620177967
 20
161.08300497103781
 30
0.0
 11
277.98555620177967
 21
159.78300497103629
 31
0.0
  0
ARC
  5
19B60
  8
KI1
 10
278.48555620177967
 20
159.78300497103629
 30
0.0
 40
0.4999999999999929
 50
180.0
 51
270.0
  0
ARC
  5
1D4E8
  8
KI2
 10
270.4355649834622
 20
177.2830070738961
 30
0.0
 40
1.5
 50
180.0
 51
270.0
  0
ARC
  5
1D4E9
  8
KI2
 10
300.4355649834622
 20
177.2830070738961
 30
0.0
 40
1.5
 50
270.0
 51
0.0
  0
LINE
  5
1D4EA
  8
KI2
 10
270.4355649834622
 20
175.78300707389599
 30
0.0
 11
300.4355649834622
 21
175.78300707389619
 31
0.0
  0
ARC
  5
1D4F5
  8
KI2
 10
137.43556507566561
 20
174.28300748772079
 30
0.0
 40
1.5
 50
180.0
 51
270.0
  0
ARC
  5
1D4F6
  8
KI2
 10
167.43556507566561
 20
174.28300748772079
 30
0.0
 40
1.5
 50
270.0
 51
0.0
  0
LINE
  5
1D4F7
  8
KI2
 10
137.43556507566561
 20
172.78300748772079
 30
0.0
 11
150.03554739830059
 21
172.78300748772091
 31
0.0
  0
LINE
  5
1D4F8
  8
KI2
 10
154.83554762630069
 20
172.78300748772091
 30
0.0
 11
167.43556507566561
 21
172.78300748772099
 31
0.0
  0
LINE
  5
1D96F
  8
OS
 10
240.4355562017804
 20
147.28300497103669
 30
0.0
 11
330.4355562017804
 21
147.28300497103669
 31
0.0
  0
LINE
  5
1D970
  8
OS
 10
240.4355562017804
 20
149.28300497103669
 30
0.0
 11
330.4355562017804
 21
149.28300497103669
 31
0.0
  0
LINE
  5
1D971
  8
OS
 10
240.4355562017804
 20
153.28300497103669
 30
0.0
 11
330.4355562017804
 21
153.28300497103669
 31
0.0
  0
LINE
  5
1D972
  8
OS
 10
240.4355562017804
 20
157.28300497103669
 30
0.0
 11
330.4355562017804
 21
157.28300497103669
 31
0.0
  0
LINE
  5
1D973
  8
OS
 10
240.4355562017804
 20
151.28300497103629
 30
0.0
 11
330.4355562017804
 21
151.28300497103629
 31
0.0
  0
LINE
  5
1D974
  8
OS
 10
240.4355562017804
 20
155.28300497103669
 30
0.0
 11
330.4355562017804
 21
155.28300497103669
 31
0.0
  0
LINE
  5
1D975
  8
OS
 10
240.4355562017804
 20
159.2830049710368
 30
0.0
 11
330.4355562017804
 21
159.2830049710368
 31
0.0
  0
LINE
  5
1EB19
  8
OS
 10
317.93556498351268
 20
331.1057439467258
 30
0.0
 11
86.435564985005612
 21
331.1057439467258
 31
0.0
  0
LINE
  5
1EB1A
  8
OS
 10
317.93556498351268
 20
334.10574394672591
 30
0.0
 11
86.435564985005612
 21
334.10574394672591
 31
0.0
  0
LINE
  5
1EB1B
  8
OS
 10
317.93556498351268
 20
337.1057439467258
 30
0.0
 11
86.435564985005612
 21
337.1057439467258
 31
0.0
  0
LINE
  5
1EB1C
  8
OS
 10
317.93556498351268
 20
328.10574394672591
 30
0.0
 11
86.435564985005612
 21
328.10574394672591
 31
0.0
  0
LINE
  5
1EB1D
  8
OS
 10
317.93556498351268
 20
340.10574394672591
 30
0.0
 11
86.435564985005612
 21
340.10574394672591
 31
0.0
  0
LINE
  5
1EB1E
  8
OS
 10
233.93556498351271
 20
635.60574394856064
 30
0.0
 11
128.9355649835129
 21
635.60574394856064
 31
0.0
  0
LINE
  5
1EB1F
  8
OS
 10
116.43556498351271
 20
633.60574394856087
 30
0.0
 11
116.43556498351271
 21
743.60574394672631
 31
0.0
  0
LINE
  5
1EB20
  8
OS
 10
233.93556498351211
 20
736.10574394856064
 30
0.0
 11
128.93556498351271
 21
691.10574394856064
 31
0.0
  0
LINE
  5
1EB21
  8
OS
 10
128.93556498351239
 20
633.60574394856064
 30
0.0
 11
128.93556498351271
 21
743.60574394672631
 31
0.0
  0
LINE
  5
1EB22
  8
OS
 10
118.43556498351241
 20
633.60574394856064
 30
0.0
 11
118.43556498351271
 21
743.60574394672631
 31
0.0
  0
LINE
  5
1EB23
  8
OS
 10
126.93556498351241
 20
633.60574394856064
 30
0.0
 11
126.93556498351271
 21
743.60574394672631
 31
0.0
  0
LINE
  5
1EB24
  8
OS
 10
233.93556498351211
 20
691.10574394856064
 30
0.0
 11
128.93556498351251
 21
691.10574394856064
 31
0.0
  0
LINE
  5
1EB25
  8
OS
 10
233.93556498351251
 20
644.10574394856064
 30
0.0
 11
128.9355649835129
 21
644.10574394856064
 31
0.0
  0
LINE
  5
1EB26
  8
OS
 10
233.93556498351251
 20
646.10574394856064
 30
0.0
 11
128.9355649835129
 21
646.10574394856064
 31
0.0
  0
LINE
  5
1EB27
  8
OS
 10
233.93556498351211
 20
691.10574394856064
 30
0.0
 11
128.93556498351271
 21
646.10574394856064
 31
0.0
  0
LINE
  5
1EB28
  8
OS
 10
233.93556498351219
 20
736.10574394856064
 30
0.0
 11
128.93556498351271
 21
736.10574394856064
 31
0.0
  0
LINE
  5
1EB29
  8
OS
 10
246.43556498351271
 20
633.60574394856087
 30
0.0
 11
246.43556498351271
 21
743.60574394672631
 31
0.0
  0
LINE
  5
1EB2A
  8
OS
 10
233.93556498351271
 20
633.60574394856064
 30
0.0
 11
233.93556498351271
 21
743.60574394672631
 31
0.0
  0
LINE
  5
1EB2B
  8
OS
 10
235.93556498351271
 20
633.60574394856064
 30
0.0
 11
235.93556498351271
 21
743.60574394672631
 31
0.0
  0
LINE
  5
1EB2C
  8
OS
 10
244.43556498351271
 20
633.60574394856064
 30
0.0
 11
244.43556498351271
 21
743.60574394672631
 31
0.0
  0
LINE
  5
1EB2D
  8
OS
 10
246.43556498217961
 20
633.60574394856064
 30
0.0
 11
116.4355649848457
 21
633.60574394856064
 31
0.0
  0
LINE
  5
1EB2E
  8
OS
 10
222.43556498351259
 20
701.09388351669008
 30
0.0
 11
224.94742541538321
 21
703.60574394856064
 31
0.0
1001
GENIUS_GENODEF_13
1002
{
1000
HIER
1070
     0
1002
}
1002
{
1000
MANEDIT
1070
     0
1002
}
1002
{
1000
NOSEL
1070
     0
1002
}
1002
{
1000
BEHIND
1070
     0
1002
}
1002
{
1000
OTHER
1070
     0
1002
}
1002
{
1000
REACTOR
1002
}
1001
GENIUS_GENOBJ-N-HTC_13
1002
{
1000
OWNER
1000
GEN
1002
}
1001
GENIUS_GENHATCH_13
1002
{
1000
DATA
1040
45.0
1042
2.5
1000
_U
1070
     0
1011
234.6880008809859
1021
0.0
1031
0.0
1021
668.73297070698425
1031
0.0
1002
}
1002
{
1000
UCS
1010
0.0
1020
0.0
1030
0.0
1010
1.0
1020
0.0
1030
0.0
1010
0.0
1020
1.0
1030
0.0
1002
}
  0
LINE
  5
1EB2F
  8
OS
 10
222.43556498351271
 20
694.02281570482467
 30
0.0
 11
232.01849322724871
 21
703.60574394856064
 31
0.0
1001
GENIUS_GENODEF_13
1002
{
1000
HIER
1070
     0
1002
}
1002
{
1000
MANEDIT
1070
     0
1002
}
1002
{
1000
NOSEL
1070
     0
1002
}
1002
{
1000
BEHIND
1070
     0
1002
}
1002
{
1000
OTHER
1070
     0
1002
}
1002
{
1000
REACTOR
1002
}
1001
GENIUS_GENOBJ-N-HTC_13
1002
{
1000
OWNER
1000
GEN
1002
}
1001
GENIUS_GENHATCH_13
1002
{
1000
DATA
1040
45.0
1042
2.5
1000
_U
1070
     0
1011
234.6880008809859
1021
0.0
1031
0.0
1021
668.73297070698425
1031
0.0
1002
}
1002
{
1000
UCS
1010
0.0
1020
0.0
1030
0.0
1010
1.0
1020
0.0
1030
0.0
1010
0.0
1020
1.0
1030
0.0
1002
}
  0
LINE
  5
1EB30
  8
OS
 10
222.43556498351271
 20
686.95174789295925
 30
0.0
 11
239.08956103911419
 21
703.60574394856064
 31
0.0
1001
GENIUS_GENODEF_13
1002
{
1000
HIER
1070
     0
1002
}
1002
{
1000
MANEDIT
1070
     0
1002
}
1002
{
1000
NOSEL
1070
     0
1002
}
1002
{
1000
BEHIND
1070
     0
1002
}
1002
{
1000
OTHER
1070
     0
1002
}
1002
{
1000
REACTOR
1002
}
1001
GENIUS_GENOBJ-N-HTC_13
1002
{
1000
OWNER
1000
GEN
1002
}
1001
GENIUS_GENHATCH_13
1002
{
1000
DATA
1040
45.0
1042
2.5
1000
_U
1070
     0
1011
234.6880008809859
1021
0.0
1031
0.0
1021
668.73297070698425
1031
0.0
1002
}
1002
{
1000
UCS
1010
0.0
1020
0.0
1030
0.0
1010
1.0
1020
0.0
1030
0.0
1010
0.0
1020
1.0
1030
0.0
1002
}
  0
LINE
  5
1EB31
  8
OS
 10
222.43556498351259
 20
679.88068008109371
 30
0.0
 11
246.16062885097949
 21
703.60574394856053
 31
0.0
1001
GENIUS_GENODEF_13
1002
{
1000
HIER
1070
     0
1002
}
1002
{
1000
MANEDIT
1070
     0
1002
}
1002
{
1000
NOSEL
1070
     0
1002
}
1002
{
1000
BEHIND
1070
     0
1002
}
1002
{
1000
OTHER
1070
     0
1002
}
1002
{
1000
REACTOR
1002
}
1001
GENIUS_GENOBJ-N-HTC_13
1002
{
1000
OWNER
1000
GEN
1002
}
1001
GENIUS_GENHATCH_13
1002
{
1000
DATA
1040
45.0
1042
2.5
1000
_U
1070
     0
1011
234.6880008809859
1021
0.0
1031
0.0
1021
668.73297070698425
1031
0.0
1002
}
1002
{
1000
UCS
1010
0.0
1020
0.0
1030
0.0
1010
1.0
1020
0.0
1030
0.0
1010
0.0
1020
1.0
1030
0.0
1002
}
  0
LINE
  5
1EB32
  8
OS
 10
222.43556498351259
 20
672.80961226922807
 30
0.0
 11
246.43556498351251
 21
696.80961226922796
 31
0.0
1001
GENIUS_GENODEF_13
1002
{
1000
HIER
1070
     0
1002
}
1002
{
1000
MANEDIT
1070
     0
1002
}
1002
{
1000
NOSEL
1070
     0
1002
}
1002
{
1000
BEHIND
1070
     0
1002
}
1002
{
1000
OTHER
1070
     0
1002
}
1002
{
1000
REACTOR
1002
}
1001
GENIUS_GENOBJ-N-HTC_13
1002
{
1000
OWNER
1000
GEN
1002
}
1001
GENIUS_GENHATCH_13
1002
{
1000
DATA
1040
45.0
1042
2.5
1000
_U
1070
     0
1011
234.6880008809859
1021
0.0
1031
0.0
1021
668.73297070698425
1031
0.0
1002
}
1002
{
1000
UCS
1010
0.0
1020
0.0
1030
0.0
1010
1.0
1020
0.0
1030
0.0
1010
0.0
1020
1.0
1030
0.0
1002
}
  0
LINE
  5
1EB33
  8
OS
 10
222.43556498351259
 20
665.73854445736265
 30
0.0
 11
246.43556498351259
 21
689.73854445736265
 31
0.0
1001
GENIUS_GENODEF_13
1002
{
1000
HIER
1070
     0
1002
}
1002
{
1000
MANEDIT
1070
     0
1002
}
1002
{
1000
NOSEL
1070
     0
1002
}
1002
{
1000
BEHIND
1070
     0
1002
}
1002
{
1000
OTHER
1070
     0
1002
}
1002
{
1000
REACTOR
1002
}
1001
GENIUS_GENOBJ-N-HTC_13
1002
{
1000
OWNER
1000
GEN
1002
}
1001
GENIUS_GENHATCH_13
1002
{
1000
DATA
1040
45.0
1042
2.5
1000
_U
1070
     0
1011
234.6880008809859
1021
0.0
1031
0.0
1021
668.73297070698425
1031
0.0
1002
}
1002
{
1000
UCS
1010
0.0
1020
0.0
1030
0.0
1010
1.0
1020
0.0
1030
0.0
1010
0.0
1020
1.0
1030
0.0
1002
}
  0
LINE
  5
1EB34
  8
OS
 10
222.43556498351271
 20
658.66747664549735
 30
0.0
 11
246.43556498351259
 21
682.66747664549712
 31
0.0
1001
GENIUS_GENODEF_13
1002
{
1000
HIER
1070
     0
1002
}
1002
{
1000
MANEDIT
1070
     0
1002
}
1002
{
1000
NOSEL
1070
     0
1002
}
1002
{
1000
BEHIND
1070
     0
1002
}
1002
{
1000
OTHER
1070
     0
1002
}
1002
{
1000
REACTOR
1002
}
1001
GENIUS_GENOBJ-N-HTC_13
1002
{
1000
OWNER
1000
GEN
1002
}
1001
GENIUS_GENHATCH_13
1002
{
1000
DATA
1040
45.0
1042
2.5
1000
_U
1070
     0
1011
234.6880008809859
1021
0.0
1031
0.0
1021
668.73297070698425
1031
0.0
1002
}
1002
{
1000
UCS
1010
0.0
1020
0.0
1030
0.0
1010
1.0
1020
0.0
1030
0.0
1010
0.0
1020
1.0
1030
0.0
1002
}
  0
LINE
  5
1EB35
  8
OS
 10
222.43556498351259
 20
651.59640883363181
 30
0.0
 11
246.43556498351239
 21
675.59640883363147
 31
0.0
1001
GENIUS_GENODEF_13
1002
{
1000
HIER
1070
     0
1002
}
1002
{
1000
MANEDIT
1070
     0
1002
}
1002
{
1000
NOSEL
1070
     0
1002
}
1002
{
1000
BEHIND
1070
     0
1002
}
1002
{
1000
OTHER
1070
     0
1002
}
1002
{
1000
REACTOR
1002
}
1001
GENIUS_GENOBJ-N-HTC_13
1002
{
1000
OWNER
1000
GEN
1002
}
1001
GENIUS_GENHATCH_13
1002
{
1000
DATA
1040
45.0
1042
2.5
1000
_U
1070
     0
1011
234.6880008809859
1021
0.0
1031
0.0
1021
668.73297070698425
1031
0.0
1002
}
1002
{
1000
UCS
1010
0.0
1020
0.0
1030
0.0
1010
1.0
1020
0.0
1030
0.0
1010
0.0
1020
1.0
1030
0.0
1002
}
  0
LINE
  5
1EB36
  8
OS
 10
222.43556498351259
 20
644.52534102176617
 30
0.0
 11
246.43556498351251
 21
668.52534102176617
 31
0.0
1001
GENIUS_GENODEF_13
1002
{
1000
HIER
1070
     0
1002
}
1002
{
1000
MANEDIT
1070
     0
1002
}
1002
{
1000
NOSEL
1070
     0
1002
}
1002
{
1000
BEHIND
1070
     0
1002
}
1002
{
1000
OTHER
1070
     0
1002
}
1002
{
1000
REACTOR
1002
}
1001
GENIUS_GENOBJ-N-HTC_13
1002
{
1000
OWNER
1000
GEN
1002
}
1001
GENIUS_GENHATCH_13
1002
{
1000
DATA
1040
45.0
1042
2.5
1000
_U
1070
     0
1011
234.6880008809859
1021
0.0
1031
0.0
1021
668.73297070698425
1031
0.0
1002
}
1002
{
1000
UCS
1010
0.0
1020
0.0
1030
0.0
1010
1.0
1020
0.0
1030
0.0
1010
0.0
1020
1.0
1030
0.0
1002
}
  0
LINE
  5
1EB37
  8
OS
 10
228.58703572217249
 20
643.60574394856064
 30
0.0
 11
246.43556498351259
 21
661.45427320990075
 31
0.0
1001
GENIUS_GENODEF_13
1002
{
1000
HIER
1070
     0
1002
}
1002
{
1000
MANEDIT
1070
     0
1002
}
1002
{
1000
NOSEL
1070
     0
1002
}
1002
{
1000
BEHIND
1070
     0
1002
}
1002
{
1000
OTHER
1070
     0
1002
}
1002
{
1000
REACTOR
1002
}
1001
GENIUS_GENOBJ-N-HTC_13
1002
{
1000
OWNER
1000
GEN
1002
}
1001
GENIUS_GENHATCH_13
1002
{
1000
DATA
1040
45.0
1042
2.5
1000
_U
1070
     0
1011
234.6880008809859
1021
0.0
1031
0.0
1021
668.73297070698425
1031
0.0
1002
}
1002
{
1000
UCS
1010
0.0
1020
0.0
1030
0.0
1010
1.0
1020
0.0
1030
0.0
1010
0.0
1020
1.0
1030
0.0
1002
}
  0
LINE
  5
1EB38
  8
OS
 10
235.6581035340381
 20
643.60574394856064
 30
0.0
 11
246.43556498351259
 21
654.38320539803522
 31
0.0
1001
GENIUS_GENODEF_13
1002
{
1000
HIER
1070
     0
1002
}
1002
{
1000
MANEDIT
1070
     0
1002
}
1002
{
1000
NOSEL
1070
     0
1002
}
1002
{
1000
BEHIND
1070
     0
1002
}
1002
{
1000
OTHER
1070
     0
1002
}
1002
{
1000
REACTOR
1002
}
1001
GENIUS_GENOBJ-N-HTC_13
1002
{
1000
OWNER
1000
GEN
1002
}
1001
GENIUS_GENHATCH_13
1002
{
1000
DATA
1040
45.0
1042
2.5
1000
_U
1070
     0
1011
234.6880008809859
1021
0.0
1031
0.0
1021
668.73297070698425
1031
0.0
1002
}
1002
{
1000
UCS
1010
0.0
1020
0.0
1030
0.0
1010
1.0
1020
0.0
1030
0.0
1010
0.0
1020
1.0
1030
0.0
1002
}
  0
LINE
  5
1EB39
  8
OS
 10
242.72917134590341
 20
643.60574394856064
 30
0.0
 11
246.43556498351251
 21
647.31213758616968
 31
0.0
1001
GENIUS_GENODEF_13
1002
{
1000
HIER
1070
     0
1002
}
1002
{
1000
MANEDIT
1070
     0
1002
}
1002
{
1000
NOSEL
1070
     0
1002
}
1002
{
1000
BEHIND
1070
     0
1002
}
1002
{
1000
OTHER
1070
     0
1002
}
1002
{
1000
REACTOR
1002
}
1001
GENIUS_GENOBJ-N-HTC_13
1002
{
1000
OWNER
1000
GEN
1002
}
1001
GENIUS_GENHATCH_13
1002
{
1000
DATA
1040
45.0
1042
2.5
1000
_U
1070
     0
1011
234.6880008809859
1021
0.0
1031
0.0
1021
668.73297070698425
1031
0.0
1002
}
1002
{
1000
UCS
1010
0.0
1020
0.0
1030
0.0
1010
1.0
1020
0.0
1030
0.0
1010
0.0
1020
1.0
1030
0.0
1002
}
  0
LINE
  5
1EB3A
  8
OS
 10
222.43556498351259
 20
643.60574394856064
 30
0.0
 11
222.43556498351259
 21
703.60574394856064
 31
0.0
  0
LINE
  5
1EB3B
  8
OS
 10
246.43556498351231
 20
703.60574394856064
 30
0.0
 11
222.43556498351259
 21
703.60574394856064
 31
0.0
  0
LINE
  5
1EB3C
  8
OS
 10
246.43556498351231
 20
643.60574394856064
 30
0.0
 11
222.43556498351259
 21
643.60574394856064
 31
0.0
  0
LINE
  5
1EB3E
  8
KI1
 10
246.43556498351271
 20
643.10574394672631
 30
0.0
 11
246.43556498351259
 21
501.85574394671471
 31
0.0
  0
LINE
  5
1EB3F
  8
OS
 10
116.4355649850056
 20
633.60574394856064
 30
0.0
 11
116.4355649843354
 21
501.8557439467146
 31
0.0
  0
LINE
  5
1EB47
  8
KI1
 10
268.93556498351251
 20
644.60574394671255
 30
0.0
 11
301.93556498351251
 21
644.60574394670334
 31
0.0
  0
LINE
  5
1EBD8
  8
KI1
 10
268.93556270009668
 20
644.60574394671255
 30
0.0
 11
268.9355638337816
 21
501.8557439467146
 31
0.0
  0
LINE
  5
1EBD9
  8
KI1
 10
301.93556270009651
 20
644.60574394670346
 30
0.0
 11
301.93556383378137
 21
501.8557439467146
 31
0.0
  0
TEXT
  5
1EBE1
  8
MJ
 10
258.3222316501284
 20
292.60574394672591
 30
0.0
 40
7.0
  1
床付けガイド仕様
 41
0.8299999999999999
 72
     4
 11
285.4355649834618
 21
296.1057439467258
 31
0.0
  0
LINE
  5
1EBE7
  8
SU
 10
208.53733176275719
 20
608.60574394856064
 30
0.0
 11
228.74459118439401
 21
643.60574394856064
 31
0.0
  0
LINE
  5
1EBE8
  8
SU
 10
144.8055038975964
 20
608.60574394856064
 30
0.0
 11
208.53733176275719
 21
608.60574394856064
 31
0.0
  0
TEXT
  5
1EBE9
  8
SU
 10
145.80004990053081
 20
610.93907728189401
 30
0.0
 40
7.0
  1
補強材（躯体）
 41
0.8299999999999999
  0
TEXT
  5
1EBEA
  8
SU
 10
145.80004990053081
 20
599.2724106152275
 30
0.0
 40
7.0
  1
２４ｘ６０ｍｍ以上
 41
0.8299999999999999
  0
LINE
  5
1EBEB
  8
SU
 10
228.74459118439401
 20
643.60574394856064
 30
0.0
 11
227.27160689548251
 21
641.68618524110946
 31
0.0
  0
LINE
  5
1EBEC
  8
SU
 10
228.74459118439401
 20
643.60574394856064
 30
0.0
 11
227.81836184892151
 21
641.36974276036733
 31
0.0
  0
LINE
  5
1EC04
  8
OS
 10
696.3506148009368
 20
268.25000000000023
 30
0.0
 11
631.01823500348803
 21
268.25000000000023
 31
0.0
  0
LINE
  5
1EC05
  8
OS
 10
631.01823500348803
 20
266.2500000000004
 30
0.0
 11
696.3506148009368
 21
266.2500000000004
 31
0.0
  0
LINE
  5
1EC06
  8
OS
 10
696.3506148009368
 20
276.75000000000023
 30
0.0
 11
631.01823500348803
 21
276.75000000000023
 31
0.0
  0
LINE
  5
1EC07
  8
OS
 10
696.3506148009368
 20
278.75000000000023
 30
0.0
 11
631.01823500348803
 21
278.75000000000023
 31
0.0
  0
LINE
  5
1EC08
  8
OS
 10
696.3506148009368
 20
383.75000000000023
 30
0.0
 11
631.01823500348803
 21
383.75000000000023
 31
0.0
  0
LINE
  5
1EC09
  8
OS
 10
696.3506148009368
 20
385.75000000000028
 30
0.0
 11
631.01823500348803
 21
385.75000000000023
 31
0.0
  0
LINE
  5
1EC0A
  8
OS
 10
696.3506148009368
 20
394.25000000000023
 30
0.0
 11
631.01823500348803
 21
394.25000000000023
 31
0.0
  0
LINE
  5
1EC0B
  8
OS
 10
696.3506148009368
 20
396.25000000000028
 30
0.0
 11
631.01823500348803
 21
396.25000000000028
 31
0.0
  0
LINE
  5
1EC0C
  8
OS
 10
631.01823500348803
 20
339.08237979744928
 30
0.0
 11
691.35061480093714
 21
278.75000000000023
 31
0.0
  0
LINE
  5
1EC0D
  8
OS
 10
631.01823500348803
 20
323.41762020255129
 30
0.0
 11
691.35061480093714
 21
383.75000000000023
 31
0.0
  0
LINE
  5
1EC0E
  8
OS
 10
696.35061480093714
 20
383.75000000000028
 30
0.0
 11
691.35061480093714
 21
278.7500000000004
 31
0.0
  0
LINE
  5
1EC0F
  8
OS
 10
691.35061480093714
 20
278.7500000000004
 30
0.0
 11
691.35061480093714
 21
383.75000000000028
 31
0.0
  0
LINE
  5
1EC10
  8
OS
 10
629.01823500348803
 20
278.75000000000023
 30
0.0
 11
519.85061480093555
 21
278.75000000000023
 31
0.0
  0
LINE
  5
1EC11
  8
OS
 10
629.01823500348803
 20
276.75000000000023
 30
0.0
 11
519.85061480093555
 21
276.75000000000023
 31
0.0
  0
LINE
  5
1EC12
  8
OS
 10
629.01823500348803
 20
268.25000000000023
 30
0.0
 11
519.85061480093555
 21
268.25000000000023
 31
0.0
  0
LINE
  5
1EC13
  8
OS
 10
519.85061480093555
 20
266.2500000000004
 30
0.0
 11
629.01823500348803
 21
266.2500000000004
 31
0.0
  0
LINE
  5
1EC14
  8
OS
 10
629.01823500348803
 20
385.75000000000023
 30
0.0
 11
519.85061480093555
 21
385.75000000000023
 31
0.0
  0
LINE
  5
1EC15
  8
OS
 10
629.01823500348803
 20
383.75000000000023
 30
0.0
 11
519.85061480093555
 21
383.75000000000023
 31
0.0
  0
LINE
  5
1EC16
  8
OS
 10
629.01823500348803
 20
394.25000000000023
 30
0.0
 11
519.85061480093555
 21
394.25000000000023
 31
0.0
  0
LINE
  5
1EC17
  8
OS
 10
629.01823500348803
 20
396.25000000000028
 30
0.0
 11
519.85061480093555
 21
396.25000000000028
 31
0.0
  0
LINE
  5
1EC18
  8
OS
 10
696.35061480093702
 20
266.2500000000004
 30
0.0
 11
696.35061480093702
 21
396.25000000000028
 31
0.0
  0
LINE
  5
1EC1A
  8
PH
 10
631.01823500348803
 20
198.7500000000004
 30
0.0
 11
743.10061480093714
 21
198.75000000000031
 31
0.0
  0
LINE
  5
1EC1B
  8
PH
 10
543.35061480093736
 20
266.2500000000004
 30
0.0
 11
629.01823500348803
 21
266.2500000000004
 31
0.0
  0
LINE
  5
1EC1C
  8
PH
 10
841.60061480093759
 20
198.7500000000002
 30
0.0
 11
745.10061480093714
 21
198.7500000000002
 31
0.0
  0
LINE
  5
1EC1D
  8
PH
 10
841.60061480093759
 20
266.25000000000023
 30
0.0
 11
745.10061480093714
 21
266.25000000000023
 31
0.0
  0
LINE
  5
1EC72
  8
OS
 10
932.85061480093736
 20
578.75000000000023
 30
0.0
 11
1010.534180855922
 21
578.75000000000023
 31
0.0
  0
LINE
  5
1EC73
  8
OS
 10
932.85061480093736
 20
576.75000000000023
 30
0.0
 11
1010.534180855922
 21
576.75000000000023
 31
0.0
  0
LINE
  5
1EC74
  8
OS
 10
932.85061480093736
 20
568.25000000000023
 30
0.0
 11
1010.534180855922
 21
568.25000000000023
 31
0.0
  0
LINE
  5
1EC75
  8
OS
 10
932.85061480093736
 20
566.25000000000023
 30
0.0
 11
1010.534180855922
 21
566.25000000000023
 31
0.0
  0
LINE
  5
1EC76
  8
OS
 10
1010.534180855922
 20
651.43356605498536
 30
0.0
 11
937.85061480093748
 21
578.75000000000023
 31
0.0
  0
LINE
  5
1EC77
  8
OS
 10
1010.534180855922
 20
611.06643394501486
 30
0.0
 11
937.85061480093748
 21
683.75000000000023
 31
0.0
  0
LINE
  5
1EC78
  8
OS
 10
932.85061480093736
 20
696.25000000000023
 30
0.0
 11
1010.534180855922
 21
696.25000000000023
 31
0.0
  0
LINE
  5
1EC79
  8
OS
 10
932.85061480093736
 20
694.25000000000023
 30
0.0
 11
1010.534180855922
 21
694.25000000000023
 31
0.0
  0
LINE
  5
1EC7A
  8
OS
 10
932.85061480093736
 20
685.75000000000034
 30
0.0
 11
1010.534180855922
 21
685.75000000000023
 31
0.0
  0
LINE
  5
1EC7B
  8
OS
 10
932.85061480093736
 20
683.75000000000034
 30
0.0
 11
1010.534180855922
 21
683.75000000000023
 31
0.0
  0
LINE
  5
1EC7C
  8
OS
 10
937.85061480093748
 20
683.75000000000023
 30
0.0
 11
932.85061480093736
 21
578.75000000000023
 31
0.0
  0
LINE
  5
1EC7D
  8
OS
 10
937.85061480093748
 20
578.75000000000023
 30
0.0
 11
937.85061480093748
 21
683.75000000000034
 31
0.0
  0
LINE
  5
1EC7E
  8
OS
 10
932.85061480093736
 20
566.25000000000034
 30
0.0
 11
932.85061480093736
 21
696.25000000000034
 31
0.0
  0
LINE
  5
1EC7F
  8
OS
 10
778.85061480093725
 20
568.25000000000023
 30
0.0
 11
686.167048745952
 21
568.25000000000023
 31
0.0
  0
LINE
  5
1EC80
  8
OS
 10
686.167048745952
 20
566.25000000000034
 30
0.0
 11
778.85061480093725
 21
566.25000000000023
 31
0.0
  0
LINE
  5
1EC81
  8
OS
 10
778.85061480093725
 20
576.75000000000023
 30
0.0
 11
686.167048745952
 21
576.75000000000023
 31
0.0
  0
LINE
  5
1EC82
  8
OS
 10
778.85061480093725
 20
578.75000000000023
 30
0.0
 11
686.167048745952
 21
578.75000000000023
 31
0.0
  0
LINE
  5
1EC83
  8
OS
 10
778.85061480093725
 20
683.75000000000023
 30
0.0
 11
686.167048745952
 21
683.75000000000023
 31
0.0
  0
LINE
  5
1EC84
  8
OS
 10
778.85061480093725
 20
685.75000000000023
 30
0.0
 11
686.167048745952
 21
685.75000000000023
 31
0.0
  0
LINE
  5
1EC85
  8
OS
 10
778.85061480093725
 20
694.25000000000023
 30
0.0
 11
686.167048745952
 21
694.25000000000023
 31
0.0
  0
LINE
  5
1EC86
  8
OS
 10
778.85061480093725
 20
696.25000000000023
 30
0.0
 11
686.167048745952
 21
696.25000000000023
 31
0.0
  0
LINE
  5
1EC87
  8
OS
 10
686.167048745952
 20
666.43356605498548
 30
0.0
 11
773.85061480093736
 21
578.75000000000023
 31
0.0
  0
LINE
  5
1EC88
  8
OS
 10
686.167048745952
 20
596.06643394501475
 30
0.0
 11
773.85061480093736
 21
683.75000000000023
 31
0.0
  0
LINE
  5
1EC89
  8
OS
 10
778.85061480093748
 20
683.75000000000034
 30
0.0
 11
773.85061480093736
 21
578.75000000000034
 31
0.0
  0
LINE
  5
1EC8A
  8
OS
 10
773.85061480093736
 20
578.75000000000034
 30
0.0
 11
773.85061480093736
 21
683.75000000000034
 31
0.0
  0
LINE
  5
1EC8B
  8
OS
 10
684.16704874595212
 20
578.75000000000023
 30
0.0
 11
519.85061480093532
 21
578.75000000000023
 31
0.0
  0
LINE
  5
1EC8C
  8
OS
 10
684.16704874595212
 20
576.75000000000023
 30
0.0
 11
519.85061480093532
 21
576.75000000000023
 31
0.0
  0
LINE
  5
1EC8D
  8
OS
 10
684.16704874595212
 20
568.25000000000023
 30
0.0
 11
519.85061480093532
 21
568.25000000000023
 31
0.0
  0
LINE
  5
1EC8E
  8
OS
 10
519.85061480093532
 20
566.25000000000034
 30
0.0
 11
684.16704874595212
 21
566.25000000000034
 31
0.0
  0
LINE
  5
1EC8F
  8
OS
 10
684.16704874595212
 20
685.75000000000023
 30
0.0
 11
519.85061480093532
 21
685.75000000000023
 31
0.0
  0
LINE
  5
1EC90
  8
OS
 10
684.16704874595212
 20
683.75000000000023
 30
0.0
 11
519.85061480093532
 21
683.75000000000023
 31
0.0
  0
LINE
  5
1EC91
  8
OS
 10
684.16704874595212
 20
694.25000000000023
 30
0.0
 11
519.85061480093532
 21
694.25000000000023
 31
0.0
  0
LINE
  5
1EC92
  8
OS
 10
684.16704874595212
 20
696.25000000000023
 30
0.0
 11
519.85061480093532
 21
696.25000000000023
 31
0.0
  0
LINE
  5
1EC93
  8
OS
 10
778.85061480093725
 20
566.25000000000023
 30
0.0
 11
778.85061480093725
 21
696.25000000000023
 31
0.0
  0
LINE
  5
1EC96
  8
PH
 10
686.167048745952
 20
498.7500000000004
 30
0.0
 11
849.35061480093748
 21
498.75000000000028
 31
0.0
  0
LINE
  5
1EC97
  8
KI1
 10
743.85061480093725
 20
510.75000000000023
 30
0.0
 11
849.35061480093748
 21
510.75000000000023
 31
0.0
  0
LINE
  5
1EC98
  8
KI1
 10
851.35061480093736
 20
510.75
 30
0.0
 11
945.35061480093736
 21
510.75000000000023
 31
0.0
  0
LINE
  5
1EC99
  8
KI1
 10
743.85061480093725
 20
543.75000000000023
 30
0.0
 11
849.35061480093748
 21
543.75000000000023
 31
0.0
  0
LINE
  5
1EC9A
  8
KI1
 10
851.35061480093736
 20
543.75000000000023
 30
0.0
 11
945.35061480093736
 21
543.75000000000023
 31
0.0
  0
LINE
  5
1EC9B
  8
PH
 10
851.35061480093736
 20
566.25000000000034
 30
0.0
 11
966.85061480093736
 21
566.25000000000034
 31
0.0
  0
LINE
  5
1ED3A
  8
KI1
 10
743.85061480093725
 20
543.75000000000023
 30
0.0
 11
743.85061480093725
 21
510.75000000000023
 31
0.0
  0
LINE
  5
1ED3B
  8
PH
 10
778.85061480093725
 20
543.75
 30
0.0
 11
778.85061480093748
 21
510.74999999999989
 31
0.0
  0
LINE
  5
1ED3C
  8
PH
 10
564.85061480093736
 20
510.7499999999996
 30
0.0
 11
684.16704874595212
 21
510.75
 31
0.0
  0
LINE
  5
1ED3D
  8
PH
 10
686.167048745952
 20
510.75
 30
0.0
 11
778.85061480093748
 21
510.74999999999989
 31
0.0
  0
LINE
  5
1ED3E
  8
PH
 10
564.85061480093725
 20
543.75000000000034
 30
0.0
 11
684.16704874595212
 21
543.75
 31
0.0
  0
LINE
  5
1ED3F
  8
PH
 10
686.167048745952
 20
543.75
 30
0.0
 11
778.85061480093725
 21
543.75
 31
0.0
  0
LINE
  5
1ED40
  8
PH
 10
564.85061480093736
 20
510.75000000000023
 30
0.0
 11
564.85061480093725
 21
543.75000000000023
 31
0.0
  0
LINE
  5
1ED5D
  8
KI1
 10
793.35061480093714
 20
243.75
 30
0.0
 11
793.35061480093714
 21
210.75
 31
0.0
  0
LINE
  5
1ED74
  8
KI1
 10
793.35061480093714
 20
210.75
 30
0.0
 11
745.10061480093714
 21
210.75
 31
0.0
  0
LINE
  5
1ED75
  8
KI1
 10
743.10061480093714
 20
210.75
 30
0.0
 11
661.35061480093702
 21
210.75
 31
0.0
  0
LINE
  5
1ED76
  8
KI1
 10
793.35061480093714
 20
243.75
 30
0.0
 11
745.10061480093714
 21
243.75
 31
0.0
  0
LINE
  5
1ED77
  8
KI1
 10
743.10061480093714
 20
243.75
 30
0.0
 11
661.35061480093702
 21
243.75
 31
0.0
  0
LINE
  5
1ED7A
  8
PH
 10
696.35061480093668
 20
243.75
 30
0.0
 11
696.35061480093668
 21
210.75
 31
0.0
  0
LINE
  5
1ED7B
  8
KI1
 10
661.35061480093702
 20
243.75
 30
0.0
 11
661.35061480093702
 21
210.75
 31
0.0
  0
LINE
  5
1ED7C
  8
PH
 10
696.35061480093668
 20
243.75
 30
0.0
 11
631.01823500348803
 21
243.75
 31
0.0
  0
LINE
  5
1ED7D
  8
PH
 10
629.01823500348803
 20
243.75
 30
0.0
 11
564.85061480093725
 21
243.75000000000011
 31
0.0
  0
LINE
  5
1ED7E
  8
PH
 10
696.35061480093668
 20
210.75
 30
0.0
 11
631.01823500348803
 21
210.75
 31
0.0
  0
LINE
  5
1ED7F
  8
PH
 10
629.01823500348803
 20
210.75
 30
0.0
 11
564.85061480093736
 21
210.75000000000011
 31
0.0
  0
LINE
  5
1ED8E
  8
OS
 10
890.35061480093793
 20
268.25000000000023
 30
0.0
 11
955.6829945983867
 21
268.25000000000023
 31
0.0
  0
LINE
  5
1ED8F
  8
OS
 10
955.6829945983867
 20
266.2500000000004
 30
0.0
 11
890.35061480093793
 21
266.2500000000004
 31
0.0
  0
LINE
  5
1ED90
  8
OS
 10
890.35061480093793
 20
276.75000000000023
 30
0.0
 11
955.6829945983867
 21
276.75000000000023
 31
0.0
  0
LINE
  5
1ED91
  8
OS
 10
890.35061480093793
 20
278.75000000000023
 30
0.0
 11
955.6829945983867
 21
278.75000000000023
 31
0.0
  0
LINE
  5
1ED92
  8
OS
 10
890.35061480093793
 20
383.75000000000023
 30
0.0
 11
955.6829945983867
 21
383.75000000000023
 31
0.0
  0
LINE
  5
1ED93
  8
OS
 10
890.35061480093793
 20
385.75000000000028
 30
0.0
 11
955.6829945983867
 21
385.75000000000023
 31
0.0
  0
LINE
  5
1ED94
  8
OS
 10
890.35061480093793
 20
394.25000000000023
 30
0.0
 11
955.6829945983867
 21
394.25000000000023
 31
0.0
  0
LINE
  5
1ED95
  8
OS
 10
890.35061480093793
 20
396.25000000000028
 30
0.0
 11
955.6829945983867
 21
396.25000000000028
 31
0.0
  0
LINE
  5
1ED96
  8
OS
 10
955.6829945983867
 20
339.08237979744928
 30
0.0
 11
895.35061480093759
 21
278.75000000000023
 31
0.0
  0
LINE
  5
1ED97
  8
OS
 10
955.6829945983867
 20
323.41762020255129
 30
0.0
 11
895.35061480093759
 21
383.75000000000023
 31
0.0
  0
LINE
  5
1ED98
  8
OS
 10
890.35061480093748
 20
383.75000000000028
 30
0.0
 11
895.35061480093759
 21
278.7500000000004
 31
0.0
  0
LINE
  5
1ED99
  8
OS
 10
895.35061480093759
 20
278.7500000000004
 30
0.0
 11
895.35061480093759
 21
383.75000000000028
 31
0.0
  0
LINE
  5
1ED9A
  8
OS
 10
957.6829945983867
 20
278.75000000000023
 30
0.0
 11
1066.850614800939
 21
278.75000000000023
 31
0.0
  0
LINE
  5
1ED9B
  8
OS
 10
957.6829945983867
 20
276.75000000000023
 30
0.0
 11
1066.850614800939
 21
276.75000000000023
 31
0.0
  0
LINE
  5
1ED9C
  8
OS
 10
957.6829945983867
 20
268.25000000000023
 30
0.0
 11
1066.850614800939
 21
268.25000000000023
 31
0.0
  0
LINE
  5
1ED9D
  8
OS
 10
1066.850614800939
 20
266.2500000000004
 30
0.0
 11
957.6829945983867
 21
266.2500000000004
 31
0.0
  0
LINE
  5
1ED9E
  8
OS
 10
957.6829945983867
 20
385.75000000000023
 30
0.0
 11
1066.850614800939
 21
385.75000000000023
 31
0.0
  0
LINE
  5
1ED9F
  8
OS
 10
957.6829945983867
 20
383.75000000000023
 30
0.0
 11
1066.850614800939
 21
383.75000000000023
 31
0.0
  0
LINE
  5
1EDA0
  8
OS
 10
957.6829945983867
 20
394.25000000000023
 30
0.0
 11
1066.850614800939
 21
394.25000000000023
 31
0.0
  0
LINE
  5
1EDA1
  8
OS
 10
957.6829945983867
 20
396.25000000000028
 30
0.0
 11
1066.850614800939
 21
396.25000000000028
 31
0.0
  0
LINE
  5
1EDA2
  8
OS
 10
890.35061480093771
 20
266.2500000000004
 30
0.0
 11
890.35061480093771
 21
396.25000000000028
 31
0.0
  0
LINE
  5
1EDA4
  8
PH
 10
955.6829945983867
 20
198.7500000000004
 30
0.0
 11
843.60061480093759
 21
198.75000000000031
 31
0.0
  0
LINE
  5
1EE07
  8
KI1
 10
793.35061480093714
 20
210.75
 30
0.0
 11
841.60061480093759
 21
210.75
 31
0.0
  0
LINE
  5
1EE08
  8
KI1
 10
843.60061480093759
 20
210.75
 30
0.0
 11
925.35061480093759
 21
210.75
 31
0.0
  0
LINE
  5
1EE09
  8
KI1
 10
793.35061480093714
 20
243.75
 30
0.0
 11
841.60061480093759
 21
243.75
 31
0.0
  0
LINE
  5
1EE0A
  8
KI1
 10
843.60061480093759
 20
243.75
 30
0.0
 11
925.35061480093759
 21
243.75
 31
0.0
  0
LINE
  5
1EE0C
  8
PH
 10
890.35061480093805
 20
243.75
 30
0.0
 11
890.35061480093805
 21
210.75
 31
0.0
  0
LINE
  5
1EE0D
  8
KI1
 10
925.35061480093759
 20
243.75
 30
0.0
 11
925.35061480093759
 21
210.75
 31
0.0
  0
LINE
  5
1EE0E
  8
PH
 10
890.35061480093805
 20
243.75
 30
0.0
 11
955.6829945983867
 21
243.75
 31
0.0
  0
LINE
  5
1EE0F
  8
PH
 10
957.6829945983867
 20
243.75000000000011
 30
0.0
 11
1021.850614800937
 21
243.75000000000011
 31
0.0
  0
LINE
  5
1EE10
  8
PH
 10
890.35061480093805
 20
210.75
 30
0.0
 11
955.6829945983867
 21
210.75
 31
0.0
  0
LINE
  5
1EE11
  8
PH
 10
957.6829945983867
 20
210.75
 30
0.0
 11
1021.850614800937
 21
210.75
 31
0.0
  0
LINE
  5
1F1D6
  8
KI1
 10
297.43556498167919
 20
673.60574394670653
 30
0.0
 11
291.43556498167879
 21
673.60574394670653
 31
0.0
  0
ARC
  5
1F1D7
  8
KI1
 10
294.0355649816787
 20
666.60574394672733
 30
0.0
 40
5.5
 50
46.186938539597037
 51
125.0968012275829
  0
LINE
  5
1F1D8
  8
KI1
 10
291.93556498167931
 20
652.10574394672733
 30
0.0
 11
298.43556498167828
 21
652.10574394672722
 31
0.0
  0
ARC
  5
1F1D9
  8
KI1
 10
294.0355649816787
 20
658.60574394672733
 30
0.0
 40
4.9999999999999574
 50
238.1092081981453
 51
319.9922460865169
  0
LINE
  5
1F1DA
  8
KI1
 10
248.5855649816784
 20
689.30574394856183
 30
0.0
 11
310.9355649816797
 21
689.30574394856183
 31
0.0
  0
LINE
  5
1F1DB
  8
KI1
 10
274.93556498167789
 20
688.00574394856199
 30
0.0
 11
310.9355649816797
 21
688.00574394856199
 31
0.0
  0
LINE
  5
1F1DC
  8
KI1
 10
272.93556498167828
 20
655.58415496078135
 30
0.0
 11
272.93556498167828
 21
670.35807655458598
 31
0.0
  0
LINE
  5
1F1DD
  8
KI1
 10
271.43556498167828
 20
654.30574394672749
 30
0.0
 11
271.43556498167879
 21
686.00574394856187
 31
0.0
  0
LINE
  5
1F1DE
  8
KI1
 10
270.4355649816784
 20
653.30574394672749
 30
0.0
 11
266.71130091296789
 21
653.30574394672772
 31
0.0
  0
LINE
  5
1F1DF
  8
KI1
 10
278.93556498167828
 20
652.10574394672733
 30
0.0
 11
267.08409311910361
 21
652.10574394672733
 31
0.0
  0
ARC
  5
1F1E0
  8
KI1
 10
260.0355649816787
 20
645.90574394672728
 30
0.0
 40
0.6
 50
135.00000000000921
 51
315.00000000000921
  0
LINE
  5
1F1E1
  8
KI1
 10
260.45982905039028
 20
645.48147987801542
 30
0.0
 11
263.67132592140382
 21
648.69297674902805
 31
0.0
  0
ARC
  5
1F1E2
  8
KI1
 10
266.71130091296789
 20
653.00574394672765
 30
0.0
 40
0.3
 50
89.999999999973952
 51
134.99999999998161
1001
GENIUS_GENOBJ-N-FIL_13
1002
{
1000
OWNER
1000
GEN
1002
}
1001
GENIUS_GENODEF_13
1002
{
1000
HIER
1070
     0
1002
}
1002
{
1000
MANEDIT
1070
     0
1002
}
1002
{
1000
NOSEL
1070
     0
1002
}
1002
{
1000
BEHIND
1070
     0
1002
}
1002
{
1000
OTHER
1070
     0
1002
}
1002
{
1000
REACTOR
1002
}
  0
ARC
  5
1F1E3
  8
KI1
 10
264.13678431256022
 20
648.87559242771147
 30
0.0
 40
0.499999999998959
 50
68.578178478118105
 51
201.4218215218952
  0
LINE
  5
1F1E4
  8
KI1
 10
266.49916887861212
 20
653.21787598108381
 30
0.0
 11
259.61130091296661
 21
646.33000801543915
 31
0.0
  0
LINE
  5
1F1E5
  8
KI1
 10
264.31939999124359
 20
649.3410508188681
 30
0.0
 11
267.08409311910361
 21
652.10574394672733
 31
0.0
  0
LINE
  5
1F1E6
  8
KI1
 10
279.93556498167828
 20
654.10574394672835
 30
0.0
 11
279.93556498167828
 21
653.10574394672733
 31
0.0
  0
ARC
  5
1F1E7
  8
KI1
 10
278.93556498167828
 20
653.10574394672733
 30
0.0
 40
1.0
 50
270.0
 51
0.0
  0
ARC
  5
1F1E8
  8
KI1
 10
279.63556498167861
 20
654.10574394672835
 30
0.0
 40
0.2999999999993582
 50
0.0
 51
121.8907918018546
  0
ARC
  5
1F1E9
  8
KI1
 10
273.23556498167852
 20
655.58415496078135
 30
0.0
 40
0.300000000001154
 50
180.0
 51
220.00775391345769
  0
ARC
  5
1F1EA
  8
KI1
 10
270.4355649816784
 20
654.30574394672749
 30
0.0
 40
1.0
 50
270.0
 51
0.0
1001
GENIUS_GENOBJ-N-FIL_13
1002
{
1000
OWNER
1000
GEN
1002
}
1001
GENIUS_GENODEF_13
1002
{
1000
HIER
1070
     0
1002
}
1002
{
1000
MANEDIT
1070
     0
1002
}
1002
{
1000
NOSEL
1070
     0
1002
}
1002
{
1000
BEHIND
1070
     0
1002
}
1002
{
1000
OTHER
1070
     0
1002
}
1002
{
1000
REACTOR
1002
}
  0
ARC
  5
1F1EB
  8
KI1
 10
276.83556498167837
 20
658.60574394672733
 30
0.0
 40
4.9999999999999574
 50
220.0077539134831
 51
301.89079180185468
  0
LINE
  5
1F1EC
  8
KI1
 10
290.93556498167879
 20
654.10574394672835
 30
0.0
 11
290.93556498167919
 21
653.10574394672733
 31
0.0
  0
ARC
  5
1F1ED
  8
KI1
 10
291.93556498167879
 20
653.10574394672733
 30
0.0
 40
1.0
 50
180.0
 51
270.0
  0
ARC
  5
1F1EE
  8
KI1
 10
291.23556498167898
 20
654.10574394672835
 30
0.0
 40
0.2999999999993582
 50
58.109208198145339
 51
180.0
  0
ARC
  5
1F1EF
  8
KI1
 10
269.43556498167879
 20
686.00574394856187
 30
0.0
 40
2.0
 50
0.0
 51
90.0
1001
GENIUS_GENOBJ-N-FIL_13
1002
{
1000
OWNER
1000
GEN
1002
}
1001
GENIUS_GENODEF_13
1002
{
1000
HIER
1070
     0
1002
}
1002
{
1000
MANEDIT
1070
     0
1002
}
1002
{
1000
NOSEL
1070
     0
1002
}
1002
{
1000
BEHIND
1070
     0
1002
}
1002
{
1000
OTHER
1070
     0
1002
}
1002
{
1000
REACTOR
1002
}
  0
LINE
  5
1F1F0
  8
KI1
 10
256.63556498167912
 20
688.00574394856199
 30
0.0
 11
263.83556498168019
 21
688.00574394856199
 31
0.0
  0
ARC
  5
1F1F1
  8
KI1
 10
248.5855649816784
 20
688.65574394856208
 30
0.0
 40
0.6499999999999999
 50
90.0
 51
270.0
  0
LINE
  5
1F1F2
  8
KI1
 10
248.5855649816784
 20
688.00574394856199
 30
0.0
 11
254.43556498167879
 21
688.00574394856199
 31
0.0
  0
ARC
  5
1F1F3
  8
KI1
 10
256.63556498167861
 20
686.90574394856185
 30
0.0
 40
0.3
 50
236.42929158720159
 51
15.82662013185748
  0
LINE
  5
1F1F4
  8
KI1
 10
254.43556498167879
 20
688.00574394856199
 30
0.0
 11
256.46967528405258
 21
686.65578273512779
 31
0.0
  0
LINE
  5
1F1F5
  8
KI1
 10
256.63556498167912
 20
688.00574394856199
 30
0.0
 11
256.92419239743128
 21
686.98756213037996
 31
0.0
  0
LINE
  5
1F1F6
  8
KI1
 10
265.33556498168019
 20
688.00574394856199
 30
0.0
 11
269.43556498167879
 21
688.00574394856199
 31
0.0
  0
ARC
  5
1F1F7
  8
KI1
 10
263.83556498168019
 20
687.50574394856199
 30
0.0
 40
0.5
 50
0.0
 51
90.0
1001
GENIUS_GENOBJ-N-FIL_13
1002
{
1000
OWNER
1000
GEN
1002
}
1001
GENIUS_GENODEF_13
1002
{
1000
HIER
1070
     0
1002
}
1002
{
1000
MANEDIT
1070
     0
1002
}
1002
{
1000
NOSEL
1070
     0
1002
}
1002
{
1000
BEHIND
1070
     0
1002
}
1002
{
1000
OTHER
1070
     0
1002
}
1002
{
1000
REACTOR
1002
}
  0
LINE
  5
1F1F8
  8
KI1
 10
264.8944887715042
 20
683.85095922373011
 30
0.0
 11
265.10490188766818
 21
683.27814716395153
 31
0.0
  0
LINE
  5
1F1F9
  8
KI1
 10
264.86839876224428
 20
684.45888306030145
 30
0.0
 11
265.30032880291748
 21
686.04262654276965
 31
0.0
  0
ARC
  5
1F1FA
  8
KI1
 10
264.33556498168031
 20
686.30574394856183
 30
0.0
 40
1.0
 50
344.74488129693839
 51
0.0
1001
GENIUS_GENODEF_13
1002
{
1000
HIER
1070
     0
1002
}
1002
{
1000
MANEDIT
1070
     0
1002
}
1002
{
1000
NOSEL
1070
     0
1002
}
1002
{
1000
BEHIND
1070
     0
1002
}
1002
{
1000
OTHER
1070
     0
1002
}
1002
{
1000
REACTOR
1002
}
1001
GENIUS_GENOBJ-N-FIL_13
1002
{
1000
OWNER
1000
GEN
1002
}
  0
ARC
  5
1F1FB
  8
KI1
 10
265.83316258348248
 20
684.19576565450927
 30
0.0
 40
1.0
 50
164.7448812969383
 51
200.16998003342459
1001
GENIUS_GENOBJ-N-FIL_13
1002
{
1000
OWNER
1000
GEN
1002
}
1001
GENIUS_GENODEF_13
1002
{
1000
HIER
1070
     0
1002
}
1002
{
1000
MANEDIT
1070
     0
1002
}
1002
{
1000
NOSEL
1070
     0
1002
}
1002
{
1000
BEHIND
1070
     0
1002
}
1002
{
1000
OTHER
1070
     0
1002
}
1002
{
1000
REACTOR
1002
}
  0
ARC
  5
1F1FC
  8
KI1
 10
265.83316258348248
 20
684.19576565450927
 30
0.0
 40
2.0
 50
164.7448812969383
 51
200.16998003342459
1001
GENIUS_GENOBJ-N-FIL_13
1002
{
1000
OWNER
1000
GEN
1002
}
1001
GENIUS_GENODEF_13
1002
{
1000
HIER
1070
     0
1002
}
1002
{
1000
MANEDIT
1070
     0
1002
}
1002
{
1000
NOSEL
1070
     0
1002
}
1002
{
1000
BEHIND
1070
     0
1002
}
1002
{
1000
OTHER
1070
     0
1002
}
1002
{
1000
REACTOR
1002
}
  0
LINE
  5
1F1FD
  8
KI1
 10
263.903634941007
 20
684.72200046609362
 30
0.0
 11
264.33556498168031
 21
686.30574394856183
 31
0.0
  0
LINE
  5
1F1FE
  8
KI1
 10
263.95581495952632
 20
683.50615279295073
 30
0.0
 11
264.1662280756899
 21
682.93334073317237
 31
0.0
  0
ARC
  5
1F1FF
  8
KI1
 10
264.63556498167912
 20
683.10574394856178
 30
0.0
 40
0.5
 50
200.16998003342459
 51
20.169980033424569
  0
LINE
  5
1F200
  8
KI1
 10
264.33556498168031
 20
687.50574394856199
 30
0.0
 11
264.33556498168031
 21
686.30574394856183
 31
0.0
  0
LINE
  5
1F201
  8
KI1
 10
265.33556498168019
 20
688.00574394856199
 30
0.0
 11
265.33556498168019
 21
686.30574394856183
 31
0.0
  0
LINE
  5
1F202
  8
KI1
 10
272.93556498167828
 20
675.60574394670653
 30
0.0
 11
272.93556498167789
 21
686.00574394856187
 31
0.0
  0
LINE
  5
1F203
  8
KI1
 10
280.93556498167879
 20
675.90574394744135
 30
0.0
 11
284.97730741218339
 21
675.90574394744158
 31
0.0
  0
LINE
  5
1F204
  8
KI1
 10
281.43556498167879
 20
678.70574394744131
 30
0.0
 11
289.4355649816784
 21
678.70574394744165
 31
0.0
  0
LINE
  5
1F205
  8
KI1
 10
279.73556498167852
 20
677.40574394744135
 30
0.0
 11
280.13556498167861
 21
677.40574394744135
 31
0.0
  0
ARC
  5
1F206
  8
KI1
 10
279.73556498167852
 20
677.1057439474414
 30
0.0
 40
0.3
 50
90.0
 51
179.99999999998701
1001
GENIUS_GENODEF_13
1002
{
1000
HIER
1070
     0
1002
}
1002
{
1000
MANEDIT
1070
     0
1002
}
1002
{
1000
NOSEL
1070
     0
1002
}
1002
{
1000
BEHIND
1070
     0
1002
}
1002
{
1000
OTHER
1070
     0
1002
}
1002
{
1000
REACTOR
1002
}
1001
GENIUS_GENOBJ-N-FIL_13
1002
{
1000
OWNER
1000
GEN
1002
}
  0
LINE
  5
1F207
  8
KI1
 10
281.43556498167879
 20
678.70574394744131
 30
0.0
 11
280.13556498167861
 21
677.40574394744135
 31
0.0
  0
ARC
  5
1F208
  8
KI1
 10
280.4355649816784
 20
671.60574394672756
 30
0.0
 40
0.5
 50
270.0
 51
0.0
  0
LINE
  5
1F209
  8
KI1
 10
280.4355649816784
 20
671.10574394672767
 30
0.0
 11
279.99784264184689
 21
671.10574394672733
 31
0.0
  0
LINE
  5
1F20A
  8
KI1
 10
279.43556498167879
 20
677.1057439474414
 30
0.0
 11
279.43556498167737
 21
673.60574394670653
 31
0.0
  0
LINE
  5
1F20B
  8
KI1
 10
280.93556498167828
 20
675.90574394744158
 30
0.0
 11
280.93556498167789
 21
671.60574394672733
 31
0.0
  0
ARC
  5
1F20C
  8
KI1
 10
274.93556498167828
 20
675.60574394670653
 30
0.0
 40
2.0
 50
180.0
 51
270.0
1001
GENIUS_GENODEF_13
1002
{
1000
HIER
1070
     0
1002
}
1002
{
1000
MANEDIT
1070
     0
1002
}
1002
{
1000
NOSEL
1070
     0
1002
}
1002
{
1000
BEHIND
1070
     0
1002
}
1002
{
1000
OTHER
1070
     0
1002
}
1002
{
1000
REACTOR
1002
}
1001
GENIUS_GENOBJ-N-FIL_13
1002
{
1000
OWNER
1000
GEN
1002
}
  0
ARC
  5
1F20D
  8
KI1
 10
273.23556498167812
 20
670.35807655458598
 30
0.0
 40
0.3
 50
133.81306146040291
 51
180.0
  0
ARC
  5
1F20E
  8
KI1
 10
276.83556498167837
 20
666.60574394672733
 30
0.0
 40
5.5
 50
54.903198772417063
 51
133.81306146040291
  0
LINE
  5
1F20F
  8
KI1
 10
274.93556498167828
 20
673.60574394670653
 30
0.0
 11
279.43556498167737
 21
673.60574394670653
 31
0.0
  0
ARC
  5
1F210
  8
KI1
 10
291.13556498167901
 20
677.1057439474414
 30
0.0
 40
0.3
 50
0.0
 51
90.0
1001
GENIUS_GENODEF_13
1002
{
1000
HIER
1070
     0
1002
}
1002
{
1000
MANEDIT
1070
     0
1002
}
1002
{
1000
NOSEL
1070
     0
1002
}
1002
{
1000
BEHIND
1070
     0
1002
}
1002
{
1000
OTHER
1070
     0
1002
}
1002
{
1000
REACTOR
1002
}
1001
GENIUS_GENOBJ-N-FIL_13
1002
{
1000
OWNER
1000
GEN
1002
}
  0
LINE
  5
1F211
  8
KI1
 10
291.13556498167901
 20
677.40574394744135
 30
0.0
 11
290.73556498167892
 21
677.40574394744135
 31
0.0
  0
LINE
  5
1F212
  8
KI1
 10
289.4355649816784
 20
678.70574394744165
 30
0.0
 11
290.73556498167892
 21
677.40574394744135
 31
0.0
  0
LINE
  5
1F213
  8
KI1
 10
290.43556498167879
 20
671.10574394672733
 30
0.0
 11
290.87328731888948
 21
671.10574394672767
 31
0.0
  0
ARC
  5
1F214
  8
KI1
 10
290.43556498167879
 20
671.60574394672756
 30
0.0
 40
0.5
 50
180.0
 51
270.0
  0
LINE
  5
1F215
  8
KI1
 10
289.93556498167879
 20
671.60574394672733
 30
0.0
 11
289.93556498167879
 21
675.90574394744135
 31
0.0
  0
LINE
  5
1F216
  8
KI1
 10
291.43556498167879
 20
673.60574394670653
 30
0.0
 11
291.43556498167879
 21
677.1057439474414
 31
0.0
  0
ARC
  5
1F217
  8
KI1
 10
285.43556498167879
 20
675.70574394744142
 30
0.0
 40
0.5
 50
23.57817847820715
 51
156.42182152179279
  0
LINE
  5
1F218
  8
KI1
 10
285.89382255117459
 20
675.90574394744135
 30
0.0
 11
289.93556498167879
 21
675.90574394744135
 31
0.0
  0
ARC
  5
1F219
  8
KI1
 10
274.93556498167789
 20
686.00574394856187
 30
0.0
 40
2.0
 50
90.0
 51
180.0
1001
GENIUS_GENOBJ-N-FIL_13
1002
{
1000
OWNER
1000
GEN
1002
}
1001
GENIUS_GENODEF_13
1002
{
1000
HIER
1070
     0
1002
}
1002
{
1000
MANEDIT
1070
     0
1002
}
1002
{
1000
NOSEL
1070
     0
1002
}
1002
{
1000
BEHIND
1070
     0
1002
}
1002
{
1000
OTHER
1070
     0
1002
}
1002
{
1000
REACTOR
1002
}
  0
LINE
  5
1F21A
  8
KI1
 10
297.93556498167879
 20
655.58415496078135
 30
0.0
 11
297.93556498167879
 21
670.35807655202689
 31
0.0
  0
LINE
  5
1F21B
  8
KI1
 10
313.9355649816797
 20
686.30574394856183
 30
0.0
 11
313.93556498167919
 21
640.75574394672708
 31
0.0
  0
LINE
  5
1F21C
  8
KI1
 10
312.63556498167952
 20
661.45574394856203
 30
0.0
 11
312.63556498167912
 21
640.75574394672708
 31
0.0
  0
ARC
  5
1F21D
  8
KI1
 10
313.28556498167922
 20
640.75574394672708
 30
0.0
 40
0.6500000000000092
 50
180.0
 51
0.0
  0
LINE
  5
1F21E
  8
KI1
 10
299.93556498167879
 20
661.95574394856203
 30
0.0
 11
312.13556498167952
 21
661.95574394856203
 31
0.0
  0
ARC
  5
1F21F
  8
KI1
 10
299.93556498167879
 20
661.45574394856203
 30
0.0
 40
0.5
 50
90.0
 51
180.0
1001
GENIUS_GENOBJ-N-FIL_13
1002
{
1000
OWNER
1000
GEN
1002
}
1001
GENIUS_GENODEF_13
1002
{
1000
HIER
1070
     0
1002
}
1002
{
1000
MANEDIT
1070
     0
1002
}
1002
{
1000
NOSEL
1070
     0
1002
}
1002
{
1000
BEHIND
1070
     0
1002
}
1002
{
1000
OTHER
1070
     0
1002
}
1002
{
1000
REACTOR
1002
}
  0
ARC
  5
1F220
  8
KI1
 10
297.63556498167912
 20
655.58415496078135
 30
0.0
 40
0.300000000001154
 50
319.99224608654231
 51
0.0
  0
ARC
  5
1F221
  8
KI1
 10
298.43556498167828
 20
653.10574394672722
 30
0.0
 40
1.0
 50
270.0
 51
0.0
1001
GENIUS_GENODEF_13
1002
{
1000
HIER
1070
     0
1002
}
1002
{
1000
MANEDIT
1070
     0
1002
}
1002
{
1000
NOSEL
1070
     0
1002
}
1002
{
1000
BEHIND
1070
     0
1002
}
1002
{
1000
OTHER
1070
     0
1002
}
1002
{
1000
REACTOR
1002
}
1001
GENIUS_GENOBJ-N-FIL_13
1002
{
1000
OWNER
1000
GEN
1002
}
  0
LINE
  5
1F222
  8
KI1
 10
299.4355649816784
 20
653.10574394672722
 30
0.0
 11
299.43556498167879
 21
661.45574394856203
 31
0.0
  0
ARC
  5
1F223
  8
KI1
 10
312.13556498167952
 20
661.45574394856203
 30
0.0
 40
0.5
 50
0.0
 51
90.0
1001
GENIUS_GENOBJ-N-FIL_13
1002
{
1000
OWNER
1000
GEN
1002
}
1001
GENIUS_GENODEF_13
1002
{
1000
HIER
1070
     0
1002
}
1002
{
1000
MANEDIT
1070
     0
1002
}
1002
{
1000
NOSEL
1070
     0
1002
}
1002
{
1000
BEHIND
1070
     0
1002
}
1002
{
1000
OTHER
1070
     0
1002
}
1002
{
1000
REACTOR
1002
}
  0
LINE
  5
1F224
  8
KI1
 10
312.63556498167952
 20
686.30574394856183
 30
0.0
 11
312.63556498167952
 21
663.75574394856187
 31
0.0
  0
LINE
  5
1F225
  8
KI1
 10
299.93556498167879
 20
663.25574394856187
 30
0.0
 11
312.13556498167952
 21
663.25574394856187
 31
0.0
  0
ARC
  5
1F226
  8
KI1
 10
299.93556498167879
 20
663.75574394856187
 30
0.0
 40
0.5
 50
180.0
 51
270.0
1001
GENIUS_GENOBJ-N-FIL_13
1002
{
1000
OWNER
1000
GEN
1002
}
1001
GENIUS_GENODEF_13
1002
{
1000
HIER
1070
     0
1002
}
1002
{
1000
MANEDIT
1070
     0
1002
}
1002
{
1000
NOSEL
1070
     0
1002
}
1002
{
1000
BEHIND
1070
     0
1002
}
1002
{
1000
OTHER
1070
     0
1002
}
1002
{
1000
REACTOR
1002
}
  0
LINE
  5
1F227
  8
KI1
 10
299.43556498167879
 20
663.75574394856187
 30
0.0
 11
299.43556498167919
 21
671.60574394670653
 31
0.0
  0
ARC
  5
1F228
  8
KI1
 10
297.63556498167912
 20
670.35807655458598
 30
0.0
 40
0.3
 50
0.0
 51
46.186938539597037
  0
ARC
  5
1F229
  8
KI1
 10
297.43556498167919
 20
671.60574394670653
 30
0.0
 40
2.0
 50
0.0
 51
90.0
1001
GENIUS_GENODEF_13
1002
{
1000
HIER
1070
     0
1002
}
1002
{
1000
MANEDIT
1070
     0
1002
}
1002
{
1000
NOSEL
1070
     0
1002
}
1002
{
1000
BEHIND
1070
     0
1002
}
1002
{
1000
OTHER
1070
     0
1002
}
1002
{
1000
REACTOR
1002
}
1001
GENIUS_GENOBJ-N-FIL_13
1002
{
1000
OWNER
1000
GEN
1002
}
  0
ARC
  5
1F22A
  8
KI1
 10
312.13556498167952
 20
663.75574394856187
 30
0.0
 40
0.5
 50
270.0
 51
0.0
1001
GENIUS_GENOBJ-N-FIL_13
1002
{
1000
OWNER
1000
GEN
1002
}
1001
GENIUS_GENODEF_13
1002
{
1000
HIER
1070
     0
1002
}
1002
{
1000
MANEDIT
1070
     0
1002
}
1002
{
1000
NOSEL
1070
     0
1002
}
1002
{
1000
BEHIND
1070
     0
1002
}
1002
{
1000
OTHER
1070
     0
1002
}
1002
{
1000
REACTOR
1002
}
  0
ARC
  5
1F22B
  8
KI1
 10
310.9355649816797
 20
686.30574394856183
 30
0.0
 40
3.0
 50
0.0
 51
90.0
1001
GENIUS_GENOBJ-N-FIL_13
1002
{
1000
OWNER
1000
GEN
1002
}
1001
GENIUS_GENODEF_13
1002
{
1000
HIER
1070
     0
1002
}
1002
{
1000
MANEDIT
1070
     0
1002
}
1002
{
1000
NOSEL
1070
     0
1002
}
1002
{
1000
BEHIND
1070
     0
1002
}
1002
{
1000
OTHER
1070
     0
1002
}
1002
{
1000
REACTOR
1002
}
  0
ARC
  5
1F22C
  8
KI1
 10
310.9355649816797
 20
686.30574394856183
 30
0.0
 40
1.7
 50
0.0
 51
90.0
1001
GENIUS_GENOBJ-N-FIL_13
1002
{
1000
OWNER
1000
GEN
1002
}
1001
GENIUS_GENODEF_13
1002
{
1000
HIER
1070
     0
1002
}
1002
{
1000
MANEDIT
1070
     0
1002
}
1002
{
1000
NOSEL
1070
     0
1002
}
1002
{
1000
BEHIND
1070
     0
1002
}
1002
{
1000
OTHER
1070
     0
1002
}
1002
{
1000
REACTOR
1002
}
  0
ARC
  5
1F22D
  8
KI1
 10
259.93556498351239
 20
644.10574394856064
 30
0.0
 40
0.4999999999999966
 50
270.0
 51
90.0
  0
ARC
  5
1F22E
  8
KI1
 10
246.93556498351231
 20
644.10574394856064
 30
0.0
 40
0.5
 50
90.000000000013031
 51
269.99999999997391
  0
LINE
  5
1F22F
  8
KI1
 10
246.9355649835112
 20
643.60574394856064
 30
0.0
 11
259.93556498351239
 21
643.60574394856064
 31
0.0
  0
LINE
  5
1F230
  8
KI1
 10
246.93556498351151
 20
685.60574394856064
 30
0.0
 11
256.93556498351251
 21
686.10574394856064
 31
0.0
  0
LINE
  5
1F231
  8
KI1
 10
249.88562736656829
 20
683.95074862826345
 30
0.0
 11
257.18550260045703
 21
684.3157423899579
 31
0.0
  0
LINE
  5
1F232
  8
KI1
 10
249.93556498351089
 20
645.10574394856098
 30
0.0
 11
256.43556498351279
 21
645.10574394856098
 31
0.0
  0
LINE
  5
1F233
  8
KI1
 10
248.9355649835116
 20
663.76400151805592
 30
0.0
 11
248.93556498351231
 21
676.84748637906523
 31
0.0
  0
LINE
  5
1F234
  8
KI1
 10
246.93556498351211
 20
674.8057439485608
 30
0.0
 11
246.93556498351251
 21
679.80574394856058
 31
0.0
  0
ARC
  5
1F235
  8
KI1
 10
246.93556498351231
 20
660.3057439485608
 30
0.0
 40
0.5
 50
90.000000000013031
 51
269.99999999997391
  0
LINE
  5
1F236
  8
KI1
 10
248.93556498351089
 20
646.10574394856087
 30
0.0
 11
248.93556498351211
 21
662.84748637906534
 31
0.0
  0
LINE
  5
1F237
  8
KI1
 10
246.9355649835112
 20
644.60574394856064
 30
0.0
 11
246.9355649835114
 21
659.80574394856069
 31
0.0
  0
ARC
  5
1F238
  8
KI1
 10
249.93556498351089
 20
646.10574394856087
 30
0.0
 40
1.0
 50
180.0
 51
270.0
1001
GENIUS_GENODEF_13
1002
{
1000
HIER
1070
     0
1002
}
1002
{
1000
MANEDIT
1070
     0
1002
}
1002
{
1000
NOSEL
1070
     0
1002
}
1002
{
1000
BEHIND
1070
     0
1002
}
1002
{
1000
OTHER
1070
     0
1002
}
1002
{
1000
REACTOR
1002
}
1001
GENIUS_GENOBJ-N-FIL_13
1002
{
1000
OWNER
1000
GEN
1002
}
  0
ARC
  5
1F239
  8
KI1
 10
246.93556498351251
 20
674.3057439485608
 30
0.0
 40
0.5
 50
90.0
 51
269.99999999994787
  0
ARC
  5
1F23A
  8
KI1
 10
249.13556498351241
 20
663.30574394856069
 30
0.0
 40
0.5
 50
113.5781784781926
 51
246.42182152179279
  0
ARC
  5
1F23B
  8
KI1
 10
246.93556498351231
 20
666.3057439485608
 30
0.0
 40
0.5
 50
90.0
 51
270.0
  0
LINE
  5
1F23C
  8
KI1
 10
246.93556498351191
 20
666.8057439485608
 30
0.0
 11
246.93556498351211
 21
673.8057439485608
 31
0.0
  0
LINE
  5
1F23D
  8
KI1
 10
246.9355649835114
 20
660.8057439485608
 30
0.0
 11
246.93556498351191
 21
665.8057439485608
 31
0.0
  0
ARC
  5
1F23E
  8
KI1
 10
246.9355649835116
 20
685.10574394856076
 30
0.0
 40
0.5
 50
90.0
 51
270.00000000000648
  0
ARC
  5
1F23F
  8
KI1
 10
249.93556498351219
 20
682.95199628938565
 30
0.0
 40
1.0
 50
92.862405226112713
 51
180.00000000000651
1001
GENIUS_GENOBJ-N-FIL_13
1002
{
1000
OWNER
1000
GEN
1002
}
1001
GENIUS_GENODEF_13
1002
{
1000
HIER
1070
     0
1002
}
1002
{
1000
MANEDIT
1070
     0
1002
}
1002
{
1000
NOSEL
1070
     0
1002
}
1002
{
1000
BEHIND
1070
     0
1002
}
1002
{
1000
OTHER
1070
     0
1002
}
1002
{
1000
REACTOR
1002
}
  0
ARC
  5
1F240
  8
KI1
 10
246.93556498351251
 20
680.30574394856058
 30
0.0
 40
0.5
 50
90.0
 51
270.0
  0
LINE
  5
1F241
  8
KI1
 10
246.93556498351251
 20
680.80574394856046
 30
0.0
 11
246.93556498351171
 21
684.60574394856076
 31
0.0
  0
ARC
  5
1F242
  8
KI1
 10
249.13556498351269
 20
677.30574394856046
 30
0.0
 40
0.5
 50
113.5781784781781
 51
246.4218215217638
  0
LINE
  5
1F243
  8
KI1
 10
248.9355649835129
 20
677.76400151805615
 30
0.0
 11
248.93556498351219
 21
682.95199628938553
 31
0.0
  0
LINE
  5
1F244
  8
KI1
 10
263.3196270268694
 20
653.94960396656165
 30
0.0
 11
265.1581046579546
 21
653.94960396656165
 31
0.0
  0
LINE
  5
1F245
  8
KI1
 10
263.50224270555248
 20
650.1724216706001
 30
0.0
 11
266.93556498167879
 21
653.60574394672631
 31
0.0
  0
LINE
  5
1F246
  8
KI1
 10
259.07698633975031
 20
649.70696327944245
 30
0.0
 11
259.07698633975031
 21
647.86848564835748
 31
0.0
  0
ARC
  5
1F247
  8
KI1
 10
263.3196270268694
 20
649.70696327944245
 30
0.0
 40
0.4999999999999237
 50
68.578178478202759
 51
201.4218215217972
  0
LINE
  5
1F248
  8
KI1
 10
259.07698633975031
 20
649.70696327944245
 30
0.0
 11
263.3196270268694
 21
653.94960396656165
 31
0.0
  0
LINE
  5
1F249
  8
KI1
 10
258.93556498351228
 20
644.60574394856064
 30
0.0
 11
259.93556498351239
 21
644.60574394856064
 31
0.0
  0
LINE
  5
1F24A
  8
KI1
 10
258.9355649835129
 20
645.60574394856064
 30
0.0
 11
258.93556498351228
 21
644.60574394856064
 31
0.0
  0
LINE
  5
1F24B
  8
KI1
 10
258.9355649835129
 20
645.60574394856064
 30
0.0
 11
262.8541686357118
 21
649.52434760075937
 31
0.0
  0
LINE
  5
1F24C
  8
KI1
 10
257.43556498351302
 20
646.22706429212053
 30
0.0
 11
257.43556498351279
 21
646.10574394856053
 31
0.0
  0
LINE
  5
1F24D
  8
KI1
 10
257.43556498351302
 20
646.22706429212053
 30
0.0
 11
259.07698633975002
 21
647.86848564835748
 31
0.0
  0
ARC
  5
1F24E
  8
KI1
 10
256.43556498351279
 20
646.10574394856087
 30
0.0
 40
1.0
 50
270.0
 51
0.0
1001
GENIUS_GENOBJ-N-FIL_13
1002
{
1000
OWNER
1000
GEN
1002
}
1001
GENIUS_GENODEF_13
1002
{
1000
HIER
1070
     0
1002
}
1002
{
1000
MANEDIT
1070
     0
1002
}
1002
{
1000
NOSEL
1070
     0
1002
}
1002
{
1000
BEHIND
1070
     0
1002
}
1002
{
1000
OTHER
1070
     0
1002
}
1002
{
1000
REACTOR
1002
}
  0
LINE
  5
1F24F
  8
KI1
 10
265.1581046579546
 20
653.94960396656165
 30
0.0
 11
265.81424463811931
 21
654.60574394672619
 31
0.0
  0
LINE
  5
1F250
  8
KI1
 10
265.81424463811931
 20
654.60574394672619
 30
0.0
 11
267.93556498167737
 21
654.60574394672619
 31
0.0
  0
LINE
  5
1F251
  8
KI1
 10
266.93556498167879
 20
653.60574394672631
 30
0.0
 11
267.93556498167737
 21
653.60574394672631
 31
0.0
  0
ARC
  5
1F252
  8
KI1
 10
267.93556498167737
 20
654.10574394672619
 30
0.0
 40
0.4999999999999981
 50
270.0
 51
90.0
  0
LINE
  5
1F253
  8
KI1
 10
260.93556498351262
 20
687.10574394858065
 30
0.0
 11
263.33556498351379
 21
687.10574394858065
 31
0.0
  0
LINE
  5
1F254
  8
KI1
 10
260.91334276129112
 20
685.90574394858049
 30
0.0
 11
263.33556498351379
 21
685.90574394858072
 31
0.0
  0
ARC
  5
1F255
  8
KI1
 10
260.91334276129112
 20
686.90574394858038
 30
0.0
 40
1.0
 50
257.31961650845233
 51
270.00000000000648
1001
GENIUS_GENOBJ-N-FIL_13
1002
{
1000
OWNER
1000
GEN
1002
}
1001
GENIUS_GENODEF_13
1002
{
1000
HIER
1070
     0
1002
}
1002
{
1000
MANEDIT
1070
     0
1002
}
1002
{
1000
NOSEL
1070
     0
1002
}
1002
{
1000
BEHIND
1070
     0
1002
}
1002
{
1000
OTHER
1070
     0
1002
}
1002
{
1000
REACTOR
1002
}
  0
LINE
  5
1F256
  8
KI1
 10
258.13556498351312
 20
686.5057439485679
 30
0.0
 11
258.13556498351312
 21
685.31449472883583
 31
0.0
  0
ARC
  5
1F257
  8
KI1
 10
263.33556498351379
 20
686.50574394858086
 30
0.0
 40
0.599999999999664
 50
270.0
 51
90.0
  0
LINE
  5
1F258
  8
KI1
 10
258.13556498351312
 20
686.5057439485679
 30
0.0
 11
260.6938305661738
 21
685.930134192482
 31
0.0
  0
LINE
  5
1F259
  8
KI1
 10
256.93556498351251
 20
688.00574394856073
 30
0.0
 11
256.93556498351251
 21
686.10574394856064
 31
0.0
  0
LINE
  5
1F25A
  8
KI1
 10
256.93556498351251
 20
688.00574394856073
 30
0.0
 11
260.93556498351262
 21
687.10574394858065
 31
0.0
  0
ARC
  5
1F25B
  8
KI1
 10
257.13556498351312
 20
685.31449472883583
 30
0.0
 40
1.0
 50
272.86240522611268
 51
0.0
1001
GENIUS_GENOBJ-N-FIL_13
1002
{
1000
OWNER
1000
GEN
1002
}
1001
GENIUS_GENODEF_13
1002
{
1000
HIER
1070
     0
1002
}
1002
{
1000
MANEDIT
1070
     0
1002
}
1002
{
1000
NOSEL
1070
     0
1002
}
1002
{
1000
BEHIND
1070
     0
1002
}
1002
{
1000
OTHER
1070
     0
1002
}
1002
{
1000
REACTOR
1002
}
  0
LINE
  5
1F25C
  8
OS
 10
244.81727280561421
 20
643.80574394856171
 30
0.0
 11
246.43556498351231
 21
645.42403612645955
 31
0.0
1001
GENIUS_GENODEF_13
1002
{
1000
HIER
1070
     0
1002
}
1002
{
1000
MANEDIT
1070
     0
1002
}
1002
{
1000
NOSEL
1070
     0
1002
}
1002
{
1000
BEHIND
1070
     0
1002
}
1002
{
1000
OTHER
1070
     0
1002
}
1002
{
1000
REACTOR
1002
}
1001
GENIUS_GENOBJ-N-HTC_13
1002
{
1000
OWNER
1000
GEN
1002
}
1001
GENIUS_GENHATCH_13
1002
{
1000
DATA
1040
45.0
1042
2.5
1000
_U
1070
     0
1011
234.68800088098561
1021
0.0
1031
0.0
1021
668.93297070698532
1031
0.0
1002
}
1002
{
1000
UCS
1010
0.0
1020
0.0
1030
0.0
1010
1.0
1020
0.0
1030
0.0
1010
0.0
1020
1.0
1030
0.0
1002
}
  0
LINE
  5
1F2C5
  8
KI1
 10
268.93557340932392
 20
358.1057439467258
 30
0.0
 11
279.83083459389229
 21
358.1057439467258
 31
0.0
  0
LINE
  5
1F2C6
  8
KI1
 10
291.0402953730304
 20
358.1057439467258
 30
0.0
 11
301.93557340925452
 21
358.1057439467258
 31
0.0
  0
LINE
  5
1F2C7
  8
KI2
 10
291.25848368463301
 20
345.60574394672562
 30
0.0
 11
290.95271541550198
 21
363.12319635316391
 31
0.0
  0
LINE
  5
1F2C8
  8
KI2
 10
279.6126462822898
 20
345.60574394672562
 30
0.0
 11
279.91841455142082
 21
363.12319635316391
 31
0.0
  0
LINE
  5
1F2C9
  8
KI2
 10
276.43556498346192
 20
344.1057439467258
 30
0.0
 11
294.43556498346192
 21
344.1057439467258
 31
0.0
  0
LINE
  5
1F2CA
  8
KI2
 10
295.43556498346157
 20
340.10574394672591
 30
0.0
 11
275.4355649834618
 21
340.10574394672591
 31
0.0
  0
LINE
  5
1F2CB
  8
KI2
 10
279.6126462822898
 20
345.60574394672562
 30
0.0
 11
291.25848368463301
 21
345.60574394672562
 31
0.0
  0
ARC
  5
1F2CC
  8
KI2
 10
276.43556498346089
 20
343.10574394672591
 30
0.0
 40
1.0
 50
89.999999999986969
 51
180.0
  0
LINE
  5
1F2CD
  8
KI2
 10
278.43556498346157
 20
344.1057439467258
 30
0.0
 11
279.6126462822898
 21
345.60574394672562
 31
0.0
  0
LINE
  5
1F2CE
  8
KI2
 10
275.4355649834618
 20
340.10574394672591
 30
0.0
 11
275.4355649834618
 21
343.10574394672591
 31
0.0
  0
LINE
  5
1F2CF
  8
KI2
 10
285.13556498346099
 20
340.10574394672591
 30
0.0
 11
285.13556498346099
 21
344.1057439467258
 31
0.0
  0
LINE
  5
1F2D0
  8
KI2
 10
285.73556498346198
 20
340.10574394672591
 30
0.0
 11
285.73556498346198
 21
344.1057439467258
 31
0.0
  0
ARC
  5
1F2D1
  8
KI2
 10
294.43556498346192
 20
343.10574394672591
 30
0.0
 40
1.0
 50
0.0
 51
90.0
  0
LINE
  5
1F2D2
  8
KI2
 10
291.25848368463301
 20
345.60574394672562
 30
0.0
 11
292.43556498346089
 21
344.1057439467258
 31
0.0
  0
LINE
  5
1F2D3
  8
KI2
 10
295.43556498346157
 20
343.10574394672591
 30
0.0
 11
295.43556498346157
 21
340.10574394672591
 31
0.0
  0
LINE
  5
1F2D4
  8
KI2
 10
280.91826224657768
 20
364.10574394672591
 30
0.0
 11
289.95286772034513
 21
364.10574394672591
 31
0.0
  0
ARC
  5
1F2D5
  8
KI2
 10
280.91826224657768
 20
363.10574394672591
 30
0.0
 40
1.0
 50
90.0
 51
178.99999999999821
  0
ARC
  5
1F2D6
  8
KI2
 10
289.95286772034513
 20
363.10574394672591
 30
0.0
 40
1.0
 50
1.000000000001761
 51
90.0
  0
ARC
  5
1F2D7
  8
KI2
 10
270.43558254682659
 20
358.1057439467258
 30
0.0
 40
1.5
 50
180.0
 51
270.0
  0
ARC
  5
1F2D8
  8
KI2
 10
300.43558254682659
 20
358.1057439467258
 30
0.0
 40
1.5
 50
270.0
 51
0.0
  0
LINE
  5
1F2D9
  8
KI2
 10
270.43558254682659
 20
356.6057439467258
 30
0.0
 11
279.80465199650001
 21
356.6057439467258
 31
0.0
  0
LINE
  5
1F2DA
  8
KI2
 10
291.06647797042268
 20
356.6057439467258
 30
0.0
 11
300.43558254682659
 21
356.6057439467258
 31
0.0
  0
LINE
  5
1F621
  8
TS
 10
696.85061480093668
 20
236.25
 30
0.0
 11
696.85061480093668
 21
218.25
 31
0.0
  0
LINE
  5
1F622
  8
TS
 10
660.85061480093702
 20
218.25
 30
0.0
 11
660.85061480093702
 21
236.25
 31
0.0
  0
LINE
  5
1F623
  8
TS
 10
664.70061480093727
 20
225.90000000000009
 30
0.0
 11
664.70061480093716
 21
228.59999999999991
 31
0.0
  0
LINE
  5
1F624
  8
TS
 10
669.00061480093711
 20
225.90000000000009
 30
0.0
 11
669.00061480093711
 21
228.59999999999991
 31
0.0
  0
LINE
  5
1F625
  8
TS
 10
695.8506148009368
 20
217.25
 30
0.0
 11
661.85061480093702
 21
217.25
 31
0.0
  0
LINE
  5
1F626
  8
TS
 10
676.35061480093668
 20
232.75
 30
0.0
 11
681.35061480093702
 21
232.75
 31
0.0
  0
LINE
  5
1F627
  8
TS
 10
676.35061480093668
 20
234.25
 30
0.0
 11
681.35061480093702
 21
234.25
 31
0.0
  0
ARC
  5
1F628
  8
TS
 10
681.35061480093702
 20
229.75
 30
0.0
 40
3.0
 50
0.0
 51
90.0
  0
ARC
  5
1F629
  8
TS
 10
681.35061480093702
 20
229.75
 30
0.0
 40
4.5
 50
0.0
 51
90.0
  0
LINE
  5
1F62A
  8
TS
 10
684.35061480093702
 20
229.75
 30
0.0
 11
684.35061480093702
 21
224.75
 31
0.0
  0
LINE
  5
1F62B
  8
TS
 10
685.85061480093702
 20
229.75
 30
0.0
 11
685.85061480093702
 21
224.75
 31
0.0
  0
ARC
  5
1F62C
  8
TS
 10
681.35061480093702
 20
224.75
 30
0.0
 40
3.0
 50
270.0
 51
0.0
  0
ARC
  5
1F62D
  8
TS
 10
681.35061480093702
 20
224.75
 30
0.0
 40
4.5
 50
270.0
 51
0.0
  0
LINE
  5
1F62E
  8
TS
 10
681.35061480093702
 20
221.75
 30
0.0
 11
676.35061480093702
 21
221.75
 31
0.0
  0
LINE
  5
1F62F
  8
TS
 10
681.35061480093702
 20
220.25
 30
0.0
 11
676.35061480093702
 21
220.25
 31
0.0
  0
ARC
  5
1F630
  8
TS
 10
676.35061480093702
 20
224.75
 30
0.0
 40
3.0
 50
180.0
 51
270.0
  0
ARC
  5
1F631
  8
TS
 10
676.35061480093702
 20
224.75
 30
0.0
 40
4.5
 50
180.0
 51
270.0
  0
LINE
  5
1F632
  8
TS
 10
673.35061480093702
 20
224.75
 30
0.0
 11
673.3506148009368
 21
229.75
 31
0.0
  0
LINE
  5
1F633
  8
TS
 10
671.85061480093702
 20
224.75
 30
0.0
 11
671.85061480093668
 21
229.75
 31
0.0
  0
ARC
  5
1F634
  8
TS
 10
676.35061480093668
 20
229.75
 30
0.0
 40
3.0
 50
90.0
 51
180.0
  0
ARC
  5
1F635
  8
TS
 10
676.35061480093668
 20
229.75
 30
0.0
 40
4.5
 50
90.0
 51
180.0
  0
ARC
  5
1F636
  8
TS
 10
661.85061480093702
 20
218.25
 30
0.0
 40
1.0
 50
180.0
 51
270.0
  0
ARC
  5
1F637
  8
TS
 10
695.8506148009368
 20
218.25
 30
0.0
 40
1.0
 50
270.0
 51
0.0
  0
LINE
  5
1F638
  8
TS
 10
661.85061480093702
 20
237.25
 30
0.0
 11
695.8506148009368
 21
237.25
 31
0.0
  0
ARC
  5
1F639
  8
TS
 10
661.85061480093702
 20
236.25
 30
0.0
 40
1.0
 50
90.0
 51
180.0
  0
ARC
  5
1F63A
  8
TS
 10
695.8506148009368
 20
236.25
 30
0.0
 40
1.0
 50
0.0
 51
90.0
  0
ARC
  5
1F63B
  8
TS
 10
666.85061480093646
 20
228.59999999999991
 30
0.0
 40
2.1499999999994341
 50
0.0
 51
180.0
  0
ARC
  5
1F63C
  8
TS
 10
666.85061480093646
 20
225.90000000000009
 30
0.0
 40
2.1499999999994341
 50
180.0
 51
0.0
  0
LINE
  5
1F63D
  8
TS
 10
693.00061480093666
 20
225.90000000000009
 30
0.0
 11
693.00061480093677
 21
228.59999999999991
 31
0.0
  0
LINE
  5
1F63E
  8
TS
 10
688.70061480093693
 20
225.90000000000009
 30
0.0
 11
688.70061480093693
 21
228.59999999999991
 31
0.0
  0
ARC
  5
1F63F
  8
TS
 10
690.85061480093736
 20
228.59999999999991
 30
0.0
 40
2.1499999999994341
 50
0.0
 51
180.0
  0
ARC
  5
1F640
  8
TS
 10
690.85061480093736
 20
225.90000000000009
 30
0.0
 40
2.1499999999994341
 50
180.0
 51
0.0
  0
LINE
  5
1F641
  8
TS
 10
889.85061480093805
 20
236.25
 30
0.0
 11
889.85061480093805
 21
218.25
 31
0.0
  0
LINE
  5
1F642
  8
TS
 10
925.85061480093771
 20
218.25
 30
0.0
 11
925.85061480093771
 21
236.25
 31
0.0
  0
LINE
  5
1F643
  8
TS
 10
922.00061480093734
 20
225.90000000000009
 30
0.0
 11
922.00061480093746
 21
228.59999999999991
 31
0.0
  0
LINE
  5
1F644
  8
TS
 10
917.7006148009375
 20
225.90000000000009
 30
0.0
 11
917.7006148009375
 21
228.59999999999991
 31
0.0
  0
LINE
  5
1F645
  8
TS
 10
890.85061480093793
 20
217.25
 30
0.0
 11
924.85061480093771
 21
217.25
 31
0.0
  0
LINE
  5
1F646
  8
TS
 10
910.35061480093805
 20
232.75
 30
0.0
 11
905.35061480093771
 21
232.75
 31
0.0
  0
LINE
  5
1F647
  8
TS
 10
910.35061480093805
 20
234.25
 30
0.0
 11
905.35061480093771
 21
234.25
 31
0.0
  0
ARC
  5
1F648
  8
TS
 10
905.35061480093771
 20
229.75
 30
0.0
 40
3.0
 50
90.0
 51
180.0
  0
ARC
  5
1F649
  8
TS
 10
905.35061480093771
 20
229.75
 30
0.0
 40
4.5
 50
90.0
 51
180.0
  0
LINE
  5
1F64A
  8
TS
 10
902.35061480093759
 20
229.75
 30
0.0
 11
902.35061480093759
 21
224.75
 31
0.0
  0
LINE
  5
1F64B
  8
TS
 10
900.85061480093771
 20
229.75
 30
0.0
 11
900.85061480093771
 21
224.75
 31
0.0
  0
ARC
  5
1F64C
  8
TS
 10
905.35061480093771
 20
224.75
 30
0.0
 40
3.0
 50
180.0
 51
270.0
  0
ARC
  5
1F64D
  8
TS
 10
905.35061480093771
 20
224.75
 30
0.0
 40
4.5
 50
180.0
 51
270.0
  0
LINE
  5
1F64E
  8
TS
 10
905.35061480093771
 20
221.75
 30
0.0
 11
910.35061480093759
 21
221.75
 31
0.0
  0
LINE
  5
1F64F
  8
TS
 10
905.35061480093771
 20
220.25
 30
0.0
 11
910.35061480093759
 21
220.25
 31
0.0
  0
ARC
  5
1F650
  8
TS
 10
910.35061480093759
 20
224.75
 30
0.0
 40
3.0
 50
270.0
 51
0.0
  0
ARC
  5
1F651
  8
TS
 10
910.35061480093759
 20
224.75
 30
0.0
 40
4.5
 50
270.0
 51
0.0
  0
LINE
  5
1F652
  8
TS
 10
913.35061480093771
 20
224.75
 30
0.0
 11
913.35061480093793
 21
229.75
 31
0.0
  0
LINE
  5
1F653
  8
TS
 10
914.85061480093759
 20
224.75
 30
0.0
 11
914.85061480093805
 21
229.75
 31
0.0
  0
ARC
  5
1F654
  8
TS
 10
910.35061480093805
 20
229.75
 30
0.0
 40
3.0
 50
0.0
 51
90.0
  0
ARC
  5
1F655
  8
TS
 10
910.35061480093805
 20
229.75
 30
0.0
 40
4.5
 50
0.0
 51
90.0
  0
ARC
  5
1F656
  8
TS
 10
924.85061480093771
 20
218.25
 30
0.0
 40
1.0
 50
270.0
 51
0.0
  0
ARC
  5
1F657
  8
TS
 10
890.85061480093793
 20
218.25
 30
0.0
 40
1.0
 50
180.0
 51
270.0
  0
LINE
  5
1F658
  8
TS
 10
924.85061480093771
 20
237.25
 30
0.0
 11
890.85061480093793
 21
237.25
 31
0.0
  0
ARC
  5
1F659
  8
TS
 10
924.85061480093771
 20
236.25
 30
0.0
 40
1.0
 50
0.0
 51
90.0
  0
ARC
  5
1F65A
  8
TS
 10
890.85061480093793
 20
236.25
 30
0.0
 40
1.0
 50
90.0
 51
180.0
  0
ARC
  5
1F65B
  8
TS
 10
919.85061480093816
 20
228.59999999999991
 30
0.0
 40
2.1499999999994341
 50
0.0
 51
180.0
  0
ARC
  5
1F65C
  8
TS
 10
919.85061480093816
 20
225.90000000000009
 30
0.0
 40
2.1499999999994341
 50
180.0
 51
0.0
  0
LINE
  5
1F65D
  8
TS
 10
893.70061480093796
 20
225.90000000000009
 30
0.0
 11
893.70061480093796
 21
228.59999999999991
 31
0.0
  0
LINE
  5
1F65E
  8
TS
 10
898.0006148009378
 20
225.90000000000009
 30
0.0
 11
898.0006148009378
 21
228.59999999999991
 31
0.0
  0
ARC
  5
1F65F
  8
TS
 10
895.85061480093725
 20
228.59999999999991
 30
0.0
 40
2.1499999999994341
 50
0.0
 51
180.0
  0
ARC
  5
1F660
  8
TS
 10
895.85061480093725
 20
225.90000000000009
 30
0.0
 40
2.1499999999994341
 50
180.0
 51
0.0
  0
LINE
  5
1F661
  8
TS
 10
779.35061480093725
 20
536.25000000000011
 30
0.0
 11
779.35061480093725
 21
518.25
 31
0.0
  0
LINE
  5
1F662
  8
TS
 10
743.35061480093736
 20
518.25
 30
0.0
 11
743.35061480093736
 21
536.25000000000011
 31
0.0
  0
LINE
  5
1F663
  8
TS
 10
747.20061480093784
 20
525.9000000000002
 30
0.0
 11
747.20061480093761
 21
528.60000000000002
 31
0.0
  0
LINE
  5
1F664
  8
TS
 10
751.50061480093746
 20
525.9000000000002
 30
0.0
 11
751.50061480093746
 21
528.60000000000002
 31
0.0
  0
LINE
  5
1F665
  8
TS
 10
778.35061480093725
 20
517.25000000000011
 30
0.0
 11
744.35061480093736
 21
517.25000000000011
 31
0.0
  0
LINE
  5
1F666
  8
TS
 10
758.85061480093725
 20
532.75000000000011
 30
0.0
 11
763.85061480093736
 21
532.75000000000011
 31
0.0
  0
LINE
  5
1F667
  8
TS
 10
758.85061480093725
 20
534.25000000000011
 30
0.0
 11
763.85061480093736
 21
534.25000000000011
 31
0.0
  0
ARC
  5
1F668
  8
TS
 10
763.85061480093736
 20
529.75000000000011
 30
0.0
 40
3.0
 50
0.0
 51
90.0
  0
ARC
  5
1F669
  8
TS
 10
763.85061480093736
 20
529.75000000000011
 30
0.0
 40
4.5
 50
0.0
 51
90.0
  0
LINE
  5
1F66A
  8
TS
 10
766.85061480093748
 20
529.75000000000011
 30
0.0
 11
766.85061480093748
 21
524.75000000000011
 31
0.0
  0
LINE
  5
1F66B
  8
TS
 10
768.35061480093736
 20
529.75000000000011
 30
0.0
 11
768.35061480093736
 21
524.75000000000011
 31
0.0
  0
ARC
  5
1F66C
  8
TS
 10
763.85061480093736
 20
524.75000000000011
 30
0.0
 40
3.0
 50
270.0
 51
0.0
  0
ARC
  5
1F66D
  8
TS
 10
763.85061480093736
 20
524.75000000000011
 30
0.0
 40
4.5
 50
270.0
 51
0.0
  0
LINE
  5
1F66E
  8
TS
 10
763.85061480093736
 20
521.75000000000011
 30
0.0
 11
758.85061480093748
 21
521.75000000000011
 31
0.0
  0
LINE
  5
1F66F
  8
TS
 10
763.85061480093736
 20
520.25000000000011
 30
0.0
 11
758.85061480093748
 21
520.25000000000011
 31
0.0
  0
ARC
  5
1F670
  8
TS
 10
758.85061480093748
 20
524.75000000000011
 30
0.0
 40
3.0
 50
180.0
 51
270.0
  0
ARC
  5
1F671
  8
TS
 10
758.85061480093748
 20
524.75000000000011
 30
0.0
 40
4.5
 50
180.0
 51
270.0
  0
LINE
  5
1F672
  8
TS
 10
755.85061480093736
 20
524.75000000000011
 30
0.0
 11
755.85061480093725
 21
529.75000000000011
 31
0.0
  0
LINE
  5
1F673
  8
TS
 10
754.35061480093748
 20
524.75000000000011
 30
0.0
 11
754.35061480093725
 21
529.75000000000011
 31
0.0
  0
ARC
  5
1F674
  8
TS
 10
758.85061480093725
 20
529.75000000000011
 30
0.0
 40
3.0
 50
90.0
 51
180.0
  0
ARC
  5
1F675
  8
TS
 10
758.85061480093725
 20
529.75000000000011
 30
0.0
 40
4.5
 50
90.0
 51
180.0
  0
ARC
  5
1F676
  8
TS
 10
744.35061480093736
 20
518.25
 30
0.0
 40
1.0
 50
180.0
 51
270.0
  0
ARC
  5
1F677
  8
TS
 10
778.35061480093725
 20
518.25
 30
0.0
 40
1.0
 50
270.0
 51
0.0
  0
LINE
  5
1F678
  8
TS
 10
744.35061480093736
 20
537.25000000000011
 30
0.0
 11
778.35061480093725
 21
537.25000000000011
 31
0.0
  0
ARC
  5
1F679
  8
TS
 10
744.35061480093736
 20
536.25000000000011
 30
0.0
 40
1.0
 50
90.0
 51
180.0
  0
ARC
  5
1F67A
  8
TS
 10
778.35061480093725
 20
536.25000000000011
 30
0.0
 40
1.0
 50
0.0
 51
90.0
  0
ARC
  5
1F67B
  8
TS
 10
749.35061480093702
 20
528.60000000000002
 30
0.0
 40
2.1499999999994341
 50
0.0
 51
180.0
  0
ARC
  5
1F67C
  8
TS
 10
749.35061480093702
 20
525.9000000000002
 30
0.0
 40
2.1499999999994341
 50
180.0
 51
0.0
  0
LINE
  5
1F67D
  8
TS
 10
775.50061480093711
 20
525.9000000000002
 30
0.0
 11
775.50061480093734
 21
528.60000000000002
 31
0.0
  0
LINE
  5
1F67E
  8
TS
 10
771.20061480093739
 20
525.9000000000002
 30
0.0
 11
771.20061480093739
 21
528.60000000000002
 31
0.0
  0
ARC
  5
1F67F
  8
TS
 10
773.35061480093793
 20
528.60000000000002
 30
0.0
 40
2.1499999999994341
 50
0.0
 51
180.0
  0
ARC
  5
1F680
  8
TS
 10
773.35061480093793
 20
525.9000000000002
 30
0.0
 40
2.1499999999994341
 50
180.0
 51
0.0
  0
LINE
  5
1F972
  8
KI1
 10
268.93556384977711
 20
499.85574394671471
 30
0.0
 11
268.93556498346197
 21
358.1057439467258
 31
0.0
  0
LINE
  5
1F973
  8
KI1
 10
301.93556384977688
 20
499.85574394671471
 30
0.0
 11
301.9355649834618
 21
358.1057439467258
 31
0.0
  0
LINE
  5
1F974
  8
OS
 10
116.4355649843253
 20
499.85574394671471
 30
0.0
 11
116.43556498351271
 21
340.10574394672591
 31
0.0
  0
LINE
  5
1F975
  8
KI1
 10
246.43556498351259
 20
499.85574394671471
 30
0.0
 11
246.43556498351259
 21
340.10574394672591
 31
0.0
  0
LINE
  5
1FAC3
  8
KI2
 10
297.03556498351247
 20
662.60574394670789
 30
0.0
 11
297.03556498351247
 21
658.25574394670798
 31
0.0
  0
LINE
  5
1FAC4
  8
KI2
 10
291.03556498351247
 20
662.60574394670789
 30
0.0
 11
291.03556498351247
 21
656.605743946708
 31
0.0
  0
LINE
  5
1FAC5
  8
KI2
 10
282.43556498351239
 20
652.605743946708
 30
0.0
 11
282.43556498351239
 21
644.605743946708
 31
0.0
  0
LINE
  5
1FAC6
  8
KI2
 10
279.83556498351248
 20
668.105743946708
 30
0.0
 11
279.83556498351248
 21
654.60574394670789
 31
0.0
  0
LINE
  5
1FAC7
  8
KI2
 10
273.83556498351248
 20
670.60574394670789
 30
0.0
 11
273.83556498351248
 21
654.60574394670789
 31
0.0
  0
ARC
  5
1FAC8
  8
KI2
 10
276.83556498351248
 20
658.60574394670789
 30
0.0
 40
5.0
 50
233.13010235416249
 51
306.86989764583751
  0
ARC
  5
1FAC9
  8
KI2
 10
281.43556498351251
 20
653.605743946708
 30
0.0
 40
1.0
 50
180.0
 51
270.0
  0
ARC
  5
1FACA
  8
KI2
 10
278.43556498351239
 20
653.605743946708
 30
0.0
 40
2.0
 50
0.0
 51
45.572995999200003
  0
LINE
  5
1FACB
  8
KI2
 10
281.43556498351251
 20
652.605743946708
 30
0.0
 11
289.43556498351239
 21
652.605743946708
 31
0.0
  0
ARC
  5
1FACC
  8
KI2
 10
294.03556498351247
 20
658.60574394670789
 30
0.0
 40
5.0
 50
233.13010235416249
 51
306.86989764583751
  0
LINE
  5
1FACE
  8
KI2
 10
291.03556498351247
 20
656.605743946708
 30
0.0
 11
291.03556498351247
 21
654.60574394670789
 31
0.0
  0
LINE
  5
1FAD0
  8
KI2
 10
288.43556498351251
 20
652.605743946708
 30
0.0
 11
288.43556498351251
 21
644.605743946708
 31
0.0
  0
LINE
  5
1FAD2
  8
KI2
 10
297.03556498351247
 20
658.25574394670798
 30
0.0
 11
297.03556498351247
 21
654.60574394670789
 31
0.0
  0
LINE
  5
1FAD3
  8
KI2
 10
291.03556498351247
 20
668.105743946708
 30
0.0
 11
279.8355649835126
 21
668.105743946708
 31
0.0
  0
ARC
  5
1FAD4
  8
KI2
 10
276.83556498351248
 20
666.60574394670789
 30
0.0
 40
5.0
 50
53.130102354162503
 51
126.8698976458375
  0
LINE
  5
1FAD5
  8
KI2
 10
279.83556498351248
 20
670.60574394670789
 30
0.0
 11
279.83556498351248
 21
668.105743946708
 31
0.0
  0
ARC
  5
1FAD6
  8
KI2
 10
294.03556498351247
 20
666.60574394670789
 30
0.0
 40
5.0
 50
53.130102354162503
 51
126.8698976458375
  0
LINE
  5
1FAD7
  8
KI2
 10
291.03556498351247
 20
668.605743946708
 30
0.0
 11
291.03556498351247
 21
662.60574394670789
 31
0.0
  0
LINE
  5
1FAD8
  8
KI2
 10
291.03556498351247
 20
670.60574394670789
 30
0.0
 11
291.03556498351247
 21
668.605743946708
 31
0.0
  0
LINE
  5
1FAD9
  8
KI2
 10
297.03556498351247
 20
666.9557439467078
 30
0.0
 11
297.03556498351247
 21
662.60574394670789
 31
0.0
  0
LINE
  5
1FADA
  8
KI2
 10
297.03556498351247
 20
670.60574394670789
 30
0.0
 11
297.03556498351247
 21
666.9557439467078
 31
0.0
  0
ARC
  5
1FADB
  8
KI2
 10
292.43556498351239
 20
653.605743946708
 30
0.0
 40
2.0
 50
134.4270040008
 51
180.0
  0
ARC
  5
1FADC
  8
KI2
 10
289.43556498351239
 20
653.605743946708
 30
0.0
 40
1.0
 50
270.0
 51
0.0
  0
TEXT
  5
1FB0B
  8
SU
 10
478.1877870953565
 20
480.52500000000032
 30
-0.0000000000000001
 40
7.0
  1
床付けストッパー
 41
0.8299999999999999
  0
LINE
  5
1FB0C
  8
SU
 10
535.07517363279885
 20
478.25000000000023
 30
0.0
 11
550.08628063172887
 21
504.24999999999977
 31
0.0
  0
LINE
  5
1FB0D
  8
SU
 10
475.43596272059801
 20
478.25000000000023
 30
-0.0000000000000001
 11
535.07517363279885
 21
478.25000000000023
 31
-0.0000000000000001
  0
ARC
  5
1FB0E
  8
TS
 10
551.10061496273966
 20
516.25000000000034
 30
0.0
 40
2.1000000000000001
 50
90.0
 51
270.0
  0
LINE
  5
1FB0F
  8
TS
 10
546.00061479654846
 20
508.50000000000028
 30
0.0
 11
546.00061479654846
 21
546.00000000000034
 31
0.0
  0
ARC
  5
1FB10
  8
TS
 10
548.00061479654835
 20
508.50000000000028
 30
0.0
 40
2.0
 50
180.0
 51
270.0
1001
GENIUS_GENOBJ-N-FIL_13
1002
{
1000
OWNER
1000
GEN
1002
}
1001
GENIUS_GENODEF_13
1002
{
1000
HIER
1070
     0
1002
}
1002
{
1000
MANEDIT
1070
     0
1002
}
1002
{
1000
NOSEL
1070
     0
1002
}
1002
{
1000
BEHIND
1070
     0
1002
}
1002
{
1000
OTHER
1070
     0
1002
}
1002
{
1000
REACTOR
1002
}
  0
ARC
  5
1FB11
  8
TS
 10
555.10061502437861
 20
538.25000030819501
 30
0.0
 40
2.1000000000000001
 50
270.0
 51
90.000006306520646
  0
ARC
  5
1FB12
  8
TS
 10
551.10061502437861
 20
538.25000000000023
 30
0.0
 40
2.1000000000000001
 50
90.000005886088985
 51
270.0
  0
LINE
  5
1FB13
  8
TS
 10
555.10061502437861
 20
536.15000030819499
 30
0.0
 11
551.10061502437861
 21
536.1500000000002
 31
0.0
  0
LINE
  5
1FB14
  8
TS
 10
555.10061479323235
 20
540.35000030819504
 30
0.0
 11
551.10061480864215
 21
540.35000000000025
 31
0.0
  0
ARC
  5
1FB15
  8
TS
 10
555.10061496273966
 20
516.25000000000034
 30
0.0
 40
2.1000000000000001
 50
270.00000000000648
 51
90.0
  0
LINE
  5
1FB16
  8
TS
 10
555.10061496273966
 20
514.1500000000002
 30
0.0
 11
551.10061496273966
 21
514.1500000000002
 31
0.0
  0
LINE
  5
1FB17
  8
TS
 10
555.10061496273966
 20
518.35000000000025
 30
0.0
 11
551.10061496273966
 21
518.35000000000025
 31
0.0
  0
LINE
  5
1FB18
  8
TS
 10
548.00061479654835
 20
506.50000000000028
 30
0.0
 11
563.40061480093732
 21
506.50000000000011
 31
0.0
  0
LINE
  5
1FB19
  8
TS
 10
560.20061480093727
 20
506.50000000000023
 30
0.0
 11
560.20061480093727
 21
548.00000000000034
 31
0.0
  0
LINE
  5
1FB1A
  8
TS
 10
563.40061480093732
 20
506.50000000000011
 30
0.0
 11
563.40061480093732
 21
548.00000000000034
 31
0.0
  0
LINE
  5
1FB1B
  8
TS
 10
548.00061479654835
 20
548.00000000000034
 30
0.0
 11
563.40061480093732
 21
548.00000000000034
 31
0.0
  0
ARC
  5
1FB1C
  8
TS
 10
548.00061479654835
 20
546.00000000000034
 30
0.0
 40
2.0
 50
90.0
 51
180.0
1001
GENIUS_GENOBJ-N-FIL_13
1002
{
1000
OWNER
1000
GEN
1002
}
1001
GENIUS_GENODEF_13
1002
{
1000
HIER
1070
     0
1002
}
1002
{
1000
MANEDIT
1070
     0
1002
}
1002
{
1000
NOSEL
1070
     0
1002
}
1002
{
1000
BEHIND
1070
     0
1002
}
1002
{
1000
OTHER
1070
     0
1002
}
1002
{
1000
REACTOR
1002
}
  0
LINE
  5
1FB21
  8
SU
 10
550.08628063172887
 20
504.24999999999977
 30
0.0
 11
549.16038617147626
 21
502.01457883270137
 31
0.0
  0
LINE
  5
1FB22
  8
SU
 10
550.08628063172887
 20
504.24999999999977
 30
0.0
 11
548.61296146759742
 21
502.32986127165327
 31
0.0
  0
LINE
  5
1FB23
  8
KI2
 10
564.85061480093725
 20
545.25000000000023
 30
0.0
 11
564.85061480093725
 21
509.25000000000023
 31
0.0
  0
LINE
  5
1FB24
  8
KI2
 10
543.35061480093736
 20
547.75000000000023
 30
0.0
 11
543.35061480093736
 21
506.75000000000023
 31
0.0
  0
ARC
  5
1FB25
  8
KI2
 10
545.85061480093725
 20
506.75000000000023
 30
0.0
 40
2.5
 50
180.0
 51
270.0
1001
GENIUS_GENODEF_13
1002
{
1000
HIER
1070
     0
1002
}
1002
{
1000
MANEDIT
1070
     0
1002
}
1002
{
1000
NOSEL
1070
     0
1002
}
1002
{
1000
BEHIND
1070
     0
1002
}
1002
{
1000
OTHER
1070
     0
1002
}
1002
{
1000
REACTOR
1002
}
1001
GENIUS_GENOBJ-N-FIL_13
1002
{
1000
OWNER
1000
GEN
1002
}
  0
ARC
  5
1FB26
  8
KI2
 10
545.85061480093725
 20
547.75000000000023
 30
0.0
 40
2.5
 50
90.0
 51
180.0
1001
GENIUS_GENODEF_13
1002
{
1000
HIER
1070
     0
1002
}
1002
{
1000
MANEDIT
1070
     0
1002
}
1002
{
1000
NOSEL
1070
     0
1002
}
1002
{
1000
BEHIND
1070
     0
1002
}
1002
{
1000
OTHER
1070
     0
1002
}
1002
{
1000
REACTOR
1002
}
1001
GENIUS_GENOBJ-N-FIL_13
1002
{
1000
OWNER
1000
GEN
1002
}
  0
ARC
  5
1FB27
  8
KI2
 10
568.35061480093736
 20
547.75000000000023
 30
0.0
 40
2.5
 50
0.0
 51
90.0
1001
GENIUS_GENODEF_13
1002
{
1000
HIER
1070
     0
1002
}
1002
{
1000
MANEDIT
1070
     0
1002
}
1002
{
1000
NOSEL
1070
     0
1002
}
1002
{
1000
BEHIND
1070
     0
1002
}
1002
{
1000
OTHER
1070
     0
1002
}
1002
{
1000
REACTOR
1002
}
1001
GENIUS_GENOBJ-N-FIL_13
1002
{
1000
OWNER
1000
GEN
1002
}
  0
ARC
  5
1FB28
  8
KI2
 10
570.35061480093725
 20
547.75000000000023
 30
0.0
 40
0.5
 50
286.26020470830991
 51
0.0
  0
ARC
  5
1FB29
  8
KI2
 10
565.35061480093725
 20
545.25000000000023
 30
0.0
 40
0.5
 50
106.2602047083099
 51
180.0
  0
LINE
  5
1FB2A
  8
KI2
 10
565.21061480093715
 20
508.77000000000021
 30
0.0
 11
570.49061480093735
 21
507.23000000000019
 31
0.0
  0
ARC
  5
1FB2B
  8
KI2
 10
570.35061480093725
 20
506.75000000000023
 30
0.0
 40
0.5
 50
0.0
 51
73.739795291690115
  0
ARC
  5
1FB2C
  8
KI2
 10
565.35061480093725
 20
509.25000000000023
 30
0.0
 40
0.5
 50
180.0
 51
253.73979529169009
  0
LINE
  5
1FB2D
  8
KI2
 10
565.21061480093715
 20
545.73000000000025
 30
0.0
 11
570.49061480093735
 21
547.27000000000021
 31
0.0
  0
LINE
  5
1FB2E
  8
KI2
 10
545.85061480093725
 20
504.25000000000023
 30
0.0
 11
568.35061480093736
 21
504.25000000000023
 31
0.0
  0
ARC
  5
1FB2F
  8
KI2
 10
568.35061480093736
 20
506.75000000000023
 30
0.0
 40
2.5
 50
270.0
 51
0.0
1001
GENIUS_GENOBJ-N-FIL_13
1002
{
1000
OWNER
1000
GEN
1002
}
1001
GENIUS_GENODEF_13
1002
{
1000
HIER
1070
     0
1002
}
1002
{
1000
MANEDIT
1070
     0
1002
}
1002
{
1000
NOSEL
1070
     0
1002
}
1002
{
1000
BEHIND
1070
     0
1002
}
1002
{
1000
OTHER
1070
     0
1002
}
1002
{
1000
REACTOR
1002
}
  0
LINE
  5
1FB30
  8
KI2
 10
545.85061480093725
 20
550.25000000000023
 30
0.0
 11
568.35061480093736
 21
550.25000000000023
 31
0.0
  0
LINE
  5
1FB4B
  8
PH
 10
851.35061480093736
 20
498.75000000000028
 30
0.0
 11
964.85061480093736
 21
498.75000000000028
 31
0.0
  0
LINE
  5
1FB4C
  8
PH
 10
964.85061480093736
 20
498.25000000000028
 30
0.0
 11
966.85061480093736
 21
498.25000000000028
 31
0.0
  0
LINE
  5
1FB4D
  8
PH
 10
964.85061480093736
 20
498.25000000000028
 30
0.0
 11
964.85061480093736
 21
566.25000000000034
 31
0.0
  0
LINE
  5
1FB4E
  8
PH
 10
966.85061480093736
 20
498.25000000000028
 30
0.0
 11
966.85061480093736
 21
566.25000000000034
 31
0.0
  0
LINE
  5
1FB58
  8
PH
 10
545.35061480093725
 20
498.75000000000028
 30
0.0
 11
684.16704874595212
 21
498.75000000000028
 31
0.0
  0
LINE
  5
1FB59
  8
PH
 10
545.35061480093725
 20
498.25000000000028
 30
0.0
 11
545.35061480093725
 21
566.25000000000034
 31
0.0
  0
LINE
  5
1FB5A
  8
PH
 10
543.35061480093736
 20
498.25000000000028
 30
0.0
 11
543.35061480093736
 21
566.25000000000034
 31
0.0
  0
LINE
  5
1FB5B
  8
PH
 10
545.35061480093725
 20
498.25000000000028
 30
0.0
 11
543.35061480093736
 21
498.25000000000028
 31
0.0
  0
LINE
  5
1FB79
  8
PH
 10
945.35061480093736
 20
510.75000000000023
 30
0.0
 11
945.35061480093736
 21
543.75000000000023
 31
0.0
  0
ARC
  5
1FB7A
  8
TS
 10
959.10061463913519
 20
516.25000000000034
 30
0.0
 40
2.1000000000000001
 50
270.0
 51
90.0
  0
LINE
  5
1FB7B
  8
TS
 10
964.20061480532638
 20
508.50000000000028
 30
0.0
 11
964.20061480532638
 21
546.00000000000034
 31
0.0
  0
ARC
  5
1FB7C
  8
TS
 10
962.20061480532638
 20
508.50000000000028
 30
0.0
 40
2.0
 50
270.0
 51
0.000000000000007
1001
GENIUS_GENOBJ-N-FIL_13
1002
{
1000
OWNER
1000
GEN
1002
}
1001
GENIUS_GENODEF_13
1002
{
1000
HIER
1070
     0
1002
}
1002
{
1000
MANEDIT
1070
     0
1002
}
1002
{
1000
NOSEL
1070
     0
1002
}
1002
{
1000
BEHIND
1070
     0
1002
}
1002
{
1000
OTHER
1070
     0
1002
}
1002
{
1000
REACTOR
1002
}
  0
ARC
  5
1FB7D
  8
TS
 10
955.10061457749623
 20
538.25000030819501
 30
0.0
 40
2.1000000000000001
 50
89.99999369347934
 51
270.0
  0
ARC
  5
1FB7E
  8
TS
 10
959.10061457749623
 20
538.25000000000023
 30
0.0
 40
2.1000000000000001
 50
270.0
 51
89.999994113917523
  0
LINE
  5
1FB7F
  8
TS
 10
955.10061457749623
 20
536.15000030819499
 30
0.0
 11
959.10061457749623
 21
536.1500000000002
 31
0.0
  0
LINE
  5
1FB80
  8
TS
 10
955.10061480864249
 20
540.35000030819504
 30
0.0
 11
959.10061479323258
 21
540.35000000000025
 31
0.0
  0
ARC
  5
1FB81
  8
TS
 10
955.10061463913507
 20
516.25000000000034
 30
0.0
 40
2.1000000000000001
 50
90.0
 51
270.0
  0
LINE
  5
1FB82
  8
TS
 10
955.10061463913507
 20
514.1500000000002
 30
0.0
 11
959.10061463913519
 21
514.1500000000002
 31
0.0
  0
LINE
  5
1FB83
  8
TS
 10
955.10061463913507
 20
518.35000000000025
 30
0.0
 11
959.10061463913519
 21
518.35000000000025
 31
0.0
  0
LINE
  5
1FB84
  8
TS
 10
962.20061480532638
 20
506.50000000000028
 30
0.0
 11
946.80061480093764
 21
506.50000000000011
 31
0.0
  0
LINE
  5
1FB85
  8
TS
 10
950.00061480093757
 20
506.50000000000023
 30
0.0
 11
950.00061480093757
 21
548.00000000000034
 31
0.0
  0
LINE
  5
1FB86
  8
TS
 10
946.80061480093764
 20
506.50000000000011
 30
0.0
 11
946.80061480093764
 21
548.00000000000034
 31
0.0
  0
LINE
  5
1FB87
  8
TS
 10
962.20061480532638
 20
548.00000000000034
 30
0.0
 11
946.80061480093764
 21
548.00000000000034
 31
0.0
  0
ARC
  5
1FB88
  8
TS
 10
962.20061480532638
 20
546.00000000000034
 30
0.0
 40
2.0
 50
0.000000000000007
 51
90.0
1001
GENIUS_GENOBJ-N-FIL_13
1002
{
1000
OWNER
1000
GEN
1002
}
1001
GENIUS_GENODEF_13
1002
{
1000
HIER
1070
     0
1002
}
1002
{
1000
MANEDIT
1070
     0
1002
}
1002
{
1000
NOSEL
1070
     0
1002
}
1002
{
1000
BEHIND
1070
     0
1002
}
1002
{
1000
OTHER
1070
     0
1002
}
1002
{
1000
REACTOR
1002
}
  0
LINE
  5
1FB89
  8
KI2
 10
945.35061480093736
 20
545.25000000000023
 30
0.0
 11
945.35061480093736
 21
509.25000000000023
 31
0.0
  0
LINE
  5
1FB8A
  8
KI2
 10
966.85061480093736
 20
547.75000000000023
 30
0.0
 11
966.85061480093736
 21
506.75000000000023
 31
0.0
  0
ARC
  5
1FB8B
  8
KI2
 10
964.35061480093748
 20
506.75000000000023
 30
0.0
 40
2.5
 50
270.0
 51
0.000000000000007
1001
GENIUS_GENODEF_13
1002
{
1000
HIER
1070
     0
1002
}
1002
{
1000
MANEDIT
1070
     0
1002
}
1002
{
1000
NOSEL
1070
     0
1002
}
1002
{
1000
BEHIND
1070
     0
1002
}
1002
{
1000
OTHER
1070
     0
1002
}
1002
{
1000
REACTOR
1002
}
1001
GENIUS_GENOBJ-N-FIL_13
1002
{
1000
OWNER
1000
GEN
1002
}
  0
ARC
  5
1FB8C
  8
KI2
 10
964.35061480093748
 20
547.75000000000023
 30
0.0
 40
2.5
 50
0.000000000000007
 51
90.0
1001
GENIUS_GENODEF_13
1002
{
1000
HIER
1070
     0
1002
}
1002
{
1000
MANEDIT
1070
     0
1002
}
1002
{
1000
NOSEL
1070
     0
1002
}
1002
{
1000
BEHIND
1070
     0
1002
}
1002
{
1000
OTHER
1070
     0
1002
}
1002
{
1000
REACTOR
1002
}
1001
GENIUS_GENOBJ-N-FIL_13
1002
{
1000
OWNER
1000
GEN
1002
}
  0
ARC
  5
1FB8D
  8
KI2
 10
941.85061480093736
 20
547.75000000000023
 30
0.0
 40
2.5
 50
90.0
 51
180.0
1001
GENIUS_GENODEF_13
1002
{
1000
HIER
1070
     0
1002
}
1002
{
1000
MANEDIT
1070
     0
1002
}
1002
{
1000
NOSEL
1070
     0
1002
}
1002
{
1000
BEHIND
1070
     0
1002
}
1002
{
1000
OTHER
1070
     0
1002
}
1002
{
1000
REACTOR
1002
}
1001
GENIUS_GENOBJ-N-FIL_13
1002
{
1000
OWNER
1000
GEN
1002
}
  0
ARC
  5
1FB8E
  8
KI2
 10
939.85061480093736
 20
547.75000000000023
 30
0.0
 40
0.5
 50
180.0
 51
253.73979529168969
  0
ARC
  5
1FB8F
  8
KI2
 10
944.85061480093748
 20
545.25000000000023
 30
0.0
 40
0.5
 50
0.000000000000007
 51
73.739795291689674
  0
LINE
  5
1FB90
  8
KI2
 10
944.99061480093746
 20
508.77000000000021
 30
0.0
 11
939.71061480093738
 21
507.23000000000019
 31
0.0
  0
ARC
  5
1FB91
  8
KI2
 10
939.85061480093736
 20
506.75000000000023
 30
0.0
 40
0.5
 50
106.2602047083103
 51
180.0
  0
ARC
  5
1FB92
  8
KI2
 10
944.85061480093748
 20
509.25000000000023
 30
0.0
 40
0.5
 50
286.26020470831031
 51
0.000000000000007
  0
LINE
  5
1FB93
  8
KI2
 10
944.99061480093746
 20
545.73000000000025
 30
0.0
 11
939.71061480093738
 21
547.27000000000021
 31
0.0
  0
LINE
  5
1FB94
  8
KI2
 10
964.35061480093748
 20
504.25000000000023
 30
0.0
 11
941.85061480093736
 21
504.25000000000023
 31
0.0
  0
ARC
  5
1FB95
  8
KI2
 10
941.85061480093736
 20
506.75000000000023
 30
0.0
 40
2.5
 50
180.0
 51
270.0
1001
GENIUS_GENOBJ-N-FIL_13
1002
{
1000
OWNER
1000
GEN
1002
}
1001
GENIUS_GENODEF_13
1002
{
1000
HIER
1070
     0
1002
}
1002
{
1000
MANEDIT
1070
     0
1002
}
1002
{
1000
NOSEL
1070
     0
1002
}
1002
{
1000
BEHIND
1070
     0
1002
}
1002
{
1000
OTHER
1070
     0
1002
}
1002
{
1000
REACTOR
1002
}
  0
LINE
  5
1FB96
  8
KI2
 10
964.35061480093748
 20
550.25000000000023
 30
0.0
 11
941.85061480093736
 21
550.25000000000023
 31
0.0
  0
LINE
  5
1FC50
  8
PH
 10
543.35061480093736
 20
566.25000000000023
 30
0.0
 11
684.16704874595212
 21
566.25000000000023
 31
0.0
  0
LINE
  5
1FC51
  8
PH
 10
686.167048745952
 20
566.25000000000023
 30
0.0
 11
849.35061480093748
 21
566.25000000000023
 31
0.0
  0
LINE
  5
1FC7F
  8
PH
 10
564.85061480093736
 20
210.75000000000011
 30
0.0
 11
564.85061480093725
 21
243.75000000000011
 31
0.0
  0
ARC
  5
1FC80
  8
TS
 10
551.10061496273966
 20
216.2500000000002
 30
0.0
 40
2.1000000000000001
 50
90.0
 51
270.0
  0
LINE
  5
1FC81
  8
TS
 10
546.00061479654846
 20
208.5000000000002
 30
0.0
 11
546.00061479654846
 21
246.0000000000002
 31
0.0
  0
ARC
  5
1FC82
  8
TS
 10
548.00061479654835
 20
208.5000000000002
 30
0.0
 40
2.0
 50
180.0
 51
270.0
1001
GENIUS_GENOBJ-N-FIL_13
1002
{
1000
OWNER
1000
GEN
1002
}
1001
GENIUS_GENODEF_13
1002
{
1000
HIER
1070
     0
1002
}
1002
{
1000
MANEDIT
1070
     0
1002
}
1002
{
1000
NOSEL
1070
     0
1002
}
1002
{
1000
BEHIND
1070
     0
1002
}
1002
{
1000
OTHER
1070
     0
1002
}
1002
{
1000
REACTOR
1002
}
  0
ARC
  5
1FC83
  8
TS
 10
555.10061502437861
 20
238.2500003081949
 30
0.0
 40
2.1000000000000001
 50
270.0
 51
90.000006306520646
  0
ARC
  5
1FC84
  8
TS
 10
551.10061502437861
 20
238.25000000000011
 30
0.0
 40
2.1000000000000001
 50
90.000005886088985
 51
270.0
  0
LINE
  5
1FC85
  8
TS
 10
555.10061502437861
 20
236.1500003081949
 30
0.0
 11
551.10061502437861
 21
236.15000000000009
 31
0.0
  0
LINE
  5
1FC86
  8
TS
 10
555.10061479323235
 20
240.35000030819489
 30
0.0
 11
551.10061480864215
 21
240.35000000000011
 31
0.0
  0
ARC
  5
1FC87
  8
TS
 10
555.10061496273966
 20
216.2500000000002
 30
0.0
 40
2.1000000000000001
 50
270.00000000000648
 51
90.0
  0
LINE
  5
1FC88
  8
TS
 10
555.10061496273966
 20
214.15000000000009
 30
0.0
 11
551.10061496273966
 21
214.15000000000009
 31
0.0
  0
LINE
  5
1FC89
  8
TS
 10
555.10061496273966
 20
218.35000000000031
 30
0.0
 11
551.10061496273966
 21
218.35000000000031
 31
0.0
  0
LINE
  5
1FC8A
  8
TS
 10
548.00061479654835
 20
206.5000000000002
 30
0.0
 11
563.40061480093732
 21
206.5
 31
0.0
  0
LINE
  5
1FC8B
  8
TS
 10
560.20061480093727
 20
206.50000000000011
 30
0.0
 11
560.20061480093727
 21
248.0000000000002
 31
0.0
  0
LINE
  5
1FC8C
  8
TS
 10
563.40061480093732
 20
206.5
 30
0.0
 11
563.40061480093732
 21
248.0000000000002
 31
0.0
  0
LINE
  5
1FC8D
  8
TS
 10
548.00061479654835
 20
248.0000000000002
 30
0.0
 11
563.40061480093732
 21
248.0000000000002
 31
0.0
  0
ARC
  5
1FC8E
  8
TS
 10
548.00061479654835
 20
246.0000000000002
 30
0.0
 40
2.0
 50
90.0
 51
180.0
1001
GENIUS_GENOBJ-N-FIL_13
1002
{
1000
OWNER
1000
GEN
1002
}
1001
GENIUS_GENODEF_13
1002
{
1000
HIER
1070
     0
1002
}
1002
{
1000
MANEDIT
1070
     0
1002
}
1002
{
1000
NOSEL
1070
     0
1002
}
1002
{
1000
BEHIND
1070
     0
1002
}
1002
{
1000
OTHER
1070
     0
1002
}
1002
{
1000
REACTOR
1002
}
  0
LINE
  5
1FC91
  8
KI2
 10
564.85061480093725
 20
245.25000000000011
 30
0.0
 11
564.85061480093725
 21
209.25000000000011
 31
0.0
  0
LINE
  5
1FC92
  8
KI2
 10
543.35061480093736
 20
247.75000000000011
 30
0.0
 11
543.35061480093736
 21
206.75000000000011
 31
0.0
  0
ARC
  5
1FC93
  8
KI2
 10
545.85061480093725
 20
206.75000000000011
 30
0.0
 40
2.5
 50
180.0
 51
270.0
1001
GENIUS_GENODEF_13
1002
{
1000
HIER
1070
     0
1002
}
1002
{
1000
MANEDIT
1070
     0
1002
}
1002
{
1000
NOSEL
1070
     0
1002
}
1002
{
1000
BEHIND
1070
     0
1002
}
1002
{
1000
OTHER
1070
     0
1002
}
1002
{
1000
REACTOR
1002
}
1001
GENIUS_GENOBJ-N-FIL_13
1002
{
1000
OWNER
1000
GEN
1002
}
  0
ARC
  5
1FC94
  8
KI2
 10
545.85061480093725
 20
247.75000000000011
 30
0.0
 40
2.5
 50
90.0
 51
180.0
1001
GENIUS_GENODEF_13
1002
{
1000
HIER
1070
     0
1002
}
1002
{
1000
MANEDIT
1070
     0
1002
}
1002
{
1000
NOSEL
1070
     0
1002
}
1002
{
1000
BEHIND
1070
     0
1002
}
1002
{
1000
OTHER
1070
     0
1002
}
1002
{
1000
REACTOR
1002
}
1001
GENIUS_GENOBJ-N-FIL_13
1002
{
1000
OWNER
1000
GEN
1002
}
  0
ARC
  5
1FC95
  8
KI2
 10
568.35061480093736
 20
247.75000000000011
 30
0.0
 40
2.5
 50
0.0
 51
90.0
1001
GENIUS_GENODEF_13
1002
{
1000
HIER
1070
     0
1002
}
1002
{
1000
MANEDIT
1070
     0
1002
}
1002
{
1000
NOSEL
1070
     0
1002
}
1002
{
1000
BEHIND
1070
     0
1002
}
1002
{
1000
OTHER
1070
     0
1002
}
1002
{
1000
REACTOR
1002
}
1001
GENIUS_GENOBJ-N-FIL_13
1002
{
1000
OWNER
1000
GEN
1002
}
  0
ARC
  5
1FC96
  8
KI2
 10
570.35061480093725
 20
247.75000000000011
 30
0.0
 40
0.5
 50
286.26020470830991
 51
0.0
  0
ARC
  5
1FC97
  8
KI2
 10
565.35061480093725
 20
245.25000000000011
 30
0.0
 40
0.5
 50
106.2602047083099
 51
180.0
  0
LINE
  5
1FC98
  8
KI2
 10
565.21061480093715
 20
208.7700000000001
 30
0.0
 11
570.49061480093735
 21
207.2300000000001
 31
0.0
  0
ARC
  5
1FC99
  8
KI2
 10
570.35061480093725
 20
206.75000000000011
 30
0.0
 40
0.5
 50
0.0
 51
73.739795291690115
  0
ARC
  5
1FC9A
  8
KI2
 10
565.35061480093725
 20
209.25000000000011
 30
0.0
 40
0.5
 50
180.0
 51
253.73979529169009
  0
LINE
  5
1FC9B
  8
KI2
 10
565.21061480093715
 20
245.7300000000001
 30
0.0
 11
570.49061480093735
 21
247.2700000000001
 31
0.0
  0
LINE
  5
1FC9C
  8
KI2
 10
545.85061480093725
 20
204.25000000000011
 30
0.0
 11
568.35061480093736
 21
204.25000000000011
 31
0.0
  0
ARC
  5
1FC9D
  8
KI2
 10
568.35061480093736
 20
206.75000000000011
 30
0.0
 40
2.5
 50
270.0
 51
0.0
1001
GENIUS_GENOBJ-N-FIL_13
1002
{
1000
OWNER
1000
GEN
1002
}
1001
GENIUS_GENODEF_13
1002
{
1000
HIER
1070
     0
1002
}
1002
{
1000
MANEDIT
1070
     0
1002
}
1002
{
1000
NOSEL
1070
     0
1002
}
1002
{
1000
BEHIND
1070
     0
1002
}
1002
{
1000
OTHER
1070
     0
1002
}
1002
{
1000
REACTOR
1002
}
  0
LINE
  5
1FC9E
  8
KI2
 10
545.85061480093725
 20
250.25000000000011
 30
0.0
 11
568.35061480093736
 21
250.25000000000011
 31
0.0
  0
LINE
  5
1FC9F
  8
PH
 10
545.35061480093725
 20
198.7500000000002
 30
0.0
 11
629.01823500348803
 21
198.7500000000002
 31
0.0
  0
LINE
  5
1FCA0
  8
PH
 10
545.35061480093725
 20
198.2500000000002
 30
0.0
 11
545.35061480093725
 21
266.25000000000023
 31
0.0
  0
LINE
  5
1FCA1
  8
PH
 10
543.35061480093736
 20
198.2500000000002
 30
0.0
 11
543.35061480093736
 21
266.25000000000023
 31
0.0
  0
LINE
  5
1FCA2
  8
PH
 10
545.35061480093725
 20
198.2500000000002
 30
0.0
 11
543.35061480093736
 21
198.2500000000002
 31
0.0
  0
LINE
  5
1FCCD
  8
PH
 10
1041.3506148009369
 20
198.2500000000002
 30
0.0
 11
1043.3506148009369
 21
198.2500000000002
 31
0.0
  0
LINE
  5
1FCCE
  8
PH
 10
1041.3506148009369
 20
198.2500000000002
 30
0.0
 11
1041.3506148009369
 21
266.25000000000023
 31
0.0
  0
LINE
  5
1FCCF
  8
PH
 10
1043.3506148009369
 20
198.2500000000002
 30
0.0
 11
1043.3506148009369
 21
266.25000000000023
 31
0.0
  0
LINE
  5
1FCD0
  8
PH
 10
1021.850614800937
 20
210.75000000000011
 30
0.0
 11
1021.850614800937
 21
243.75000000000011
 31
0.0
  0
ARC
  5
1FCD1
  8
TS
 10
1035.6006146391351
 20
216.2500000000002
 30
0.0
 40
2.1000000000000001
 50
270.0
 51
90.0
  0
LINE
  5
1FCD2
  8
TS
 10
1040.700614805326
 20
208.5000000000002
 30
0.0
 11
1040.700614805326
 21
246.0000000000002
 31
0.0
  0
ARC
  5
1FCD3
  8
TS
 10
1038.700614805326
 20
208.5000000000002
 30
0.0
 40
2.0
 50
270.0
 51
0.0
1001
GENIUS_GENOBJ-N-FIL_13
1002
{
1000
OWNER
1000
GEN
1002
}
1001
GENIUS_GENODEF_13
1002
{
1000
HIER
1070
     0
1002
}
1002
{
1000
MANEDIT
1070
     0
1002
}
1002
{
1000
NOSEL
1070
     0
1002
}
1002
{
1000
BEHIND
1070
     0
1002
}
1002
{
1000
OTHER
1070
     0
1002
}
1002
{
1000
REACTOR
1002
}
  0
ARC
  5
1FCD4
  8
TS
 10
1031.6006145774959
 20
238.2500003081949
 30
0.0
 40
2.1000000000000001
 50
89.99999369347934
 51
270.0
  0
ARC
  5
1FCD5
  8
TS
 10
1035.6006145774959
 20
238.25000000000011
 30
0.0
 40
2.1000000000000001
 50
270.0
 51
89.999994113917523
  0
LINE
  5
1FCD6
  8
TS
 10
1031.6006145774959
 20
236.1500003081949
 30
0.0
 11
1035.6006145774959
 21
236.15000000000009
 31
0.0
  0
LINE
  5
1FCD7
  8
TS
 10
1031.6006148086419
 20
240.35000030819489
 30
0.0
 11
1035.6006147932319
 21
240.35000000000011
 31
0.0
  0
ARC
  5
1FCD8
  8
TS
 10
1031.6006146391351
 20
216.2500000000002
 30
0.0
 40
2.1000000000000001
 50
90.0
 51
270.0
  0
LINE
  5
1FCD9
  8
TS
 10
1031.6006146391351
 20
214.15000000000009
 30
0.0
 11
1035.6006146391351
 21
214.15000000000009
 31
0.0
  0
LINE
  5
1FCDA
  8
TS
 10
1031.6006146391351
 20
218.35000000000031
 30
0.0
 11
1035.6006146391351
 21
218.35000000000031
 31
0.0
  0
LINE
  5
1FCDB
  8
TS
 10
1038.700614805326
 20
206.5000000000002
 30
0.0
 11
1023.300614800937
 21
206.5
 31
0.0
  0
LINE
  5
1FCDC
  8
TS
 10
1026.500614800937
 20
206.50000000000011
 30
0.0
 11
1026.500614800937
 21
248.0000000000002
 31
0.0
  0
LINE
  5
1FCDD
  8
TS
 10
1023.300614800937
 20
206.5
 30
0.0
 11
1023.300614800937
 21
248.0000000000002
 31
0.0
  0
LINE
  5
1FCDE
  8
TS
 10
1038.700614805326
 20
248.0000000000002
 30
0.0
 11
1023.300614800937
 21
248.0000000000002
 31
0.0
  0
ARC
  5
1FCDF
  8
TS
 10
1038.700614805326
 20
246.0000000000002
 30
0.0
 40
2.0
 50
0.0
 51
90.0
1001
GENIUS_GENOBJ-N-FIL_13
1002
{
1000
OWNER
1000
GEN
1002
}
1001
GENIUS_GENODEF_13
1002
{
1000
HIER
1070
     0
1002
}
1002
{
1000
MANEDIT
1070
     0
1002
}
1002
{
1000
NOSEL
1070
     0
1002
}
1002
{
1000
BEHIND
1070
     0
1002
}
1002
{
1000
OTHER
1070
     0
1002
}
1002
{
1000
REACTOR
1002
}
  0
LINE
  5
1FCE0
  8
KI2
 10
1021.850614800937
 20
245.25000000000011
 30
0.0
 11
1021.850614800937
 21
209.25000000000011
 31
0.0
  0
LINE
  5
1FCE1
  8
KI2
 10
1043.3506148009369
 20
247.75000000000011
 30
0.0
 11
1043.3506148009369
 21
206.75000000000011
 31
0.0
  0
ARC
  5
1FCE2
  8
KI2
 10
1040.8506148009369
 20
206.75000000000011
 30
0.0
 40
2.5
 50
270.0
 51
0.0
1001
GENIUS_GENODEF_13
1002
{
1000
HIER
1070
     0
1002
}
1002
{
1000
MANEDIT
1070
     0
1002
}
1002
{
1000
NOSEL
1070
     0
1002
}
1002
{
1000
BEHIND
1070
     0
1002
}
1002
{
1000
OTHER
1070
     0
1002
}
1002
{
1000
REACTOR
1002
}
1001
GENIUS_GENOBJ-N-FIL_13
1002
{
1000
OWNER
1000
GEN
1002
}
  0
ARC
  5
1FCE3
  8
KI2
 10
1040.8506148009369
 20
247.75000000000011
 30
0.0
 40
2.5
 50
0.0
 51
90.0
1001
GENIUS_GENODEF_13
1002
{
1000
HIER
1070
     0
1002
}
1002
{
1000
MANEDIT
1070
     0
1002
}
1002
{
1000
NOSEL
1070
     0
1002
}
1002
{
1000
BEHIND
1070
     0
1002
}
1002
{
1000
OTHER
1070
     0
1002
}
1002
{
1000
REACTOR
1002
}
1001
GENIUS_GENOBJ-N-FIL_13
1002
{
1000
OWNER
1000
GEN
1002
}
  0
ARC
  5
1FCE4
  8
KI2
 10
1018.350614800937
 20
247.75000000000011
 30
0.0
 40
2.5
 50
90.0
 51
180.0
1001
GENIUS_GENODEF_13
1002
{
1000
HIER
1070
     0
1002
}
1002
{
1000
MANEDIT
1070
     0
1002
}
1002
{
1000
NOSEL
1070
     0
1002
}
1002
{
1000
BEHIND
1070
     0
1002
}
1002
{
1000
OTHER
1070
     0
1002
}
1002
{
1000
REACTOR
1002
}
1001
GENIUS_GENOBJ-N-FIL_13
1002
{
1000
OWNER
1000
GEN
1002
}
  0
ARC
  5
1FCE5
  8
KI2
 10
1016.350614800937
 20
247.75000000000011
 30
0.0
 40
0.5
 50
180.0
 51
253.73979529169009
  0
ARC
  5
1FCE6
  8
KI2
 10
1021.350614800937
 20
245.25000000000011
 30
0.0
 40
0.5
 50
0.0
 51
73.739795291690115
  0
LINE
  5
1FCE7
  8
KI2
 10
1021.490614800937
 20
208.7700000000001
 30
0.0
 11
1016.210614800937
 21
207.2300000000001
 31
0.0
  0
ARC
  5
1FCE8
  8
KI2
 10
1016.350614800937
 20
206.75000000000011
 30
0.0
 40
0.5
 50
106.2602047083099
 51
180.0
  0
ARC
  5
1FCE9
  8
KI2
 10
1021.350614800937
 20
209.25000000000011
 30
0.0
 40
0.5
 50
286.26020470830991
 51
0.0
  0
LINE
  5
1FCEA
  8
KI2
 10
1021.490614800937
 20
245.7300000000001
 30
0.0
 11
1016.210614800937
 21
247.2700000000001
 31
0.0
  0
LINE
  5
1FCEB
  8
KI2
 10
1040.8506148009369
 20
204.25000000000011
 30
0.0
 11
1018.350614800937
 21
204.25000000000011
 31
0.0
  0
ARC
  5
1FCEC
  8
KI2
 10
1018.350614800937
 20
206.75000000000011
 30
0.0
 40
2.5
 50
180.0
 51
270.0
1001
GENIUS_GENOBJ-N-FIL_13
1002
{
1000
OWNER
1000
GEN
1002
}
1001
GENIUS_GENODEF_13
1002
{
1000
HIER
1070
     0
1002
}
1002
{
1000
MANEDIT
1070
     0
1002
}
1002
{
1000
NOSEL
1070
     0
1002
}
1002
{
1000
BEHIND
1070
     0
1002
}
1002
{
1000
OTHER
1070
     0
1002
}
1002
{
1000
REACTOR
1002
}
  0
LINE
  5
1FCED
  8
KI2
 10
1040.8506148009369
 20
250.25000000000011
 30
0.0
 11
1018.350614800937
 21
250.25000000000011
 31
0.0
  0
LINE
  5
1FCF6
  8
PH
 10
957.6829945983867
 20
198.7500000000002
 30
0.0
 11
1041.3506148009369
 21
198.7500000000002
 31
0.0
  0
TEXT
  5
1FD20
  8
SU
 10
478.18778709535212
 20
180.5250000000002
 30
-0.0000000000000001
 40
7.0
  1
床付けストッパー
 41
0.8299999999999999
  0
LINE
  5
1FD21
  8
SU
 10
535.07517363279442
 20
178.25000000000011
 30
0.0
 11
550.08628063172443
 21
204.24999999999969
 31
0.0
  0
LINE
  5
1FD22
  8
SU
 10
475.43596272059358
 20
178.25000000000011
 30
-0.0000000000000001
 11
535.07517363279442
 21
178.25000000000011
 31
-0.0000000000000001
  0
LINE
  5
1FD23
  8
SU
 10
550.08628063172443
 20
204.24999999999969
 30
0.0
 11
549.16038617147183
 21
202.01457883270129
 31
0.0
  0
LINE
  5
1FD24
  8
SU
 10
550.08628063172443
 20
204.24999999999969
 30
0.0
 11
548.61296146759287
 21
202.3298612716533
 31
0.0
  0
LINE
  5
1FD5D
  8
PH
 10
631.01823500348803
 20
266.2500000000004
 30
0.0
 11
743.10061480093714
 21
266.2500000000004
 31
0.0
  0
LINE
  5
1FD5E
  8
PH
 10
1043.3506148009369
 20
266.2500000000004
 30
0.0
 11
957.68299459838613
 21
266.2500000000004
 31
0.0
  0
LINE
  5
1FD5F
  8
PH
 10
955.68299459838624
 20
266.2500000000004
 30
0.0
 11
843.60061480093702
 21
266.2500000000004
 31
0.0
  0
LINE
  5
1FF62
  8
SU
 10
553.35061480093725
 20
132.24999999999659
 30
0.0
 11
543.35061480093736
 21
138.24999999999659
 31
0.0
  0
LINE
  5
1FF63
  8
SU
 10
553.35061480093725
 20
144.24999999999659
 30
0.0
 11
543.35061480093736
 21
138.24999999999659
 31
0.0
  0
LINE
  5
1FF64
  8
SU
 10
553.35061480093725
 20
132.24999999999659
 30
0.0
 11
553.35061480093725
 21
144.24999999999659
 31
0.0
  0
LINE
  5
1FF65
  8
SU
 10
543.41834274550445
 20
138.209363233256
 30
0.0
 11
543.41834274550445
 21
138.2906367667369
 31
0.0
  0
LINE
  5
1FF66
  8
SU
 10
543.61834274550426
 20
138.08936323325611
 30
0.0
 11
543.61834274550426
 21
138.41063676673679
 31
0.0
  0
LINE
  5
1FF67
  8
SU
 10
543.81834274550465
 20
137.96936323325599
 30
0.0
 11
543.81834274550465
 21
138.5306367667369
 31
0.0
  0
LINE
  5
1FF68
  8
SU
 10
544.01834274550436
 20
137.8493632332561
 30
0.0
 11
544.01834274550436
 21
138.65063676673711
 31
0.0
  0
LINE
  5
1FF69
  8
SU
 10
544.21834274550474
 20
137.72936323325621
 30
0.0
 11
544.21834274550474
 21
138.77063676673691
 31
0.0
  0
LINE
  5
1FF6A
  8
SU
 10
544.41834274550445
 20
137.60936323325609
 30
0.0
 11
544.41834274550445
 21
138.8906367667368
 31
0.0
  0
LINE
  5
1FF6B
  8
SU
 10
544.61834274550438
 20
137.489363233256
 30
0.0
 11
544.61834274550438
 21
139.01063676673689
 31
0.0
  0
LINE
  5
1FF6C
  8
SU
 10
544.81834274550465
 20
137.36936323325611
 30
0.0
 11
544.81834274550465
 21
139.1306367667371
 31
0.0
  0
LINE
  5
1FF6D
  8
SU
 10
545.01834274550436
 20
137.24936323325619
 30
0.0
 11
545.01834274550436
 21
139.25063676673699
 31
0.0
  0
LINE
  5
1FF6E
  8
SU
 10
545.21834274550474
 20
137.1293632332563
 30
0.0
 11
545.21834274550474
 21
139.37063676673691
 31
0.0
  0
LINE
  5
1FF6F
  8
SU
 10
545.41834274550456
 20
137.0093632332559
 30
0.0
 11
545.41834274550456
 21
139.490636766737
 31
0.0
  0
LINE
  5
1FF70
  8
SU
 10
545.61834274550438
 20
136.88936323325601
 30
0.0
 11
545.61834274550438
 21
139.61063676673709
 31
0.0
  0
LINE
  5
1FF71
  8
SU
 10
545.81834274550465
 20
136.76936323325609
 30
0.0
 11
545.81834274550465
 21
139.73063676673701
 31
0.0
  0
LINE
  5
1FF72
  8
SU
 10
546.01834274550436
 20
136.649363233256
 30
0.0
 11
546.01834274550436
 21
139.8506367667369
 31
0.0
  0
LINE
  5
1FF73
  8
SU
 10
546.21834274550474
 20
136.52936323325611
 30
0.0
 11
546.21834274550474
 21
139.97063676673699
 31
0.0
  0
LINE
  5
1FF74
  8
SU
 10
546.41834274550445
 20
136.40936323325599
 30
0.0
 11
546.41834274550445
 21
140.09063676673691
 31
0.0
  0
LINE
  5
1FF75
  8
SU
 10
546.61834274550426
 20
136.2893632332561
 30
0.0
 11
546.61834274550426
 21
140.210636766737
 31
0.0
  0
LINE
  5
1FF76
  8
SU
 10
546.81834274550465
 20
136.16936323325601
 30
0.0
 11
546.81834274550465
 21
140.33063676673689
 31
0.0
  0
LINE
  5
1FF77
  8
SU
 10
547.01834274550447
 20
136.04936323325609
 30
0.0
 11
547.01834274550447
 21
140.45063676673701
 31
0.0
  0
LINE
  5
1FF78
  8
SU
 10
547.21834274550474
 20
135.929363233256
 30
0.0
 11
547.21834274550474
 21
140.5706367667369
 31
0.0
  0
LINE
  5
1FF79
  8
SU
 10
547.41834274550445
 20
135.80936323325611
 30
0.0
 11
547.41834274550445
 21
140.69063676673699
 31
0.0
  0
LINE
  5
1FF7A
  8
SU
 10
547.61834274550426
 20
135.68936323325619
 30
0.0
 11
547.61834274550426
 21
140.81063676673691
 31
0.0
  0
LINE
  5
1FF7B
  8
SU
 10
547.81834274550465
 20
135.5693632332561
 30
0.0
 11
547.81834274550465
 21
140.930636766737
 31
0.0
  0
LINE
  5
1FF7C
  8
SU
 10
548.01834274550436
 20
135.44936323325601
 30
0.0
 11
548.01834274550436
 21
141.05063676673689
 31
0.0
  0
LINE
  5
1FF7D
  8
SU
 10
548.21834274550474
 20
135.32936323325609
 30
0.0
 11
548.21834274550474
 21
141.170636766737
 31
0.0
  0
LINE
  5
1FF7E
  8
SU
 10
548.41834274550445
 20
135.209363233256
 30
0.0
 11
548.41834274550445
 21
141.2906367667369
 31
0.0
  0
LINE
  5
1FF7F
  8
SU
 10
548.61834274550438
 20
135.08936323325611
 30
0.0
 11
548.61834274550438
 21
141.41063676673679
 31
0.0
  0
LINE
  5
1FF80
  8
SU
 10
548.81834274550465
 20
134.96936323325599
 30
0.0
 11
548.81834274550465
 21
141.5306367667369
 31
0.0
  0
LINE
  5
1FF81
  8
SU
 10
549.01834274550436
 20
134.8493632332561
 30
0.0
 11
549.01834274550436
 21
141.65063676673711
 31
0.0
  0
LINE
  5
1FF82
  8
SU
 10
549.21834274550474
 20
134.72936323325621
 30
0.0
 11
549.21834274550474
 21
141.770636766737
 31
0.0
  0
LINE
  5
1FF83
  8
SU
 10
549.41834274550456
 20
134.60936323325609
 30
0.0
 11
549.41834274550456
 21
141.8906367667368
 31
0.0
  0
LINE
  5
1FF84
  8
SU
 10
549.61834274550438
 20
134.48936323325589
 30
0.0
 11
549.61834274550438
 21
142.01063676673689
 31
0.0
  0
LINE
  5
1FF85
  8
SU
 10
549.81834274550465
 20
134.36936323325611
 30
0.0
 11
549.81834274550465
 21
142.1306367667371
 31
0.0
  0
LINE
  5
1FF86
  8
SU
 10
550.01834274550436
 20
134.24936323325619
 30
0.0
 11
550.01834274550436
 21
142.25063676673699
 31
0.0
  0
LINE
  5
1FF87
  8
SU
 10
550.21834274550474
 20
134.1293632332563
 30
0.0
 11
550.21834274550474
 21
142.37063676673691
 31
0.0
  0
LINE
  5
1FF88
  8
SU
 10
550.41834274550445
 20
134.0093632332559
 30
0.0
 11
550.41834274550445
 21
142.490636766737
 31
0.0
  0
LINE
  5
1FF89
  8
SU
 10
550.61834274550426
 20
133.88936323325601
 30
0.0
 11
550.61834274550426
 21
142.61063676673709
 31
0.0
  0
LINE
  5
1FF8A
  8
SU
 10
550.81834274550465
 20
133.76936323325609
 30
0.0
 11
550.81834274550465
 21
142.73063676673701
 31
0.0
  0
LINE
  5
1FF8B
  8
SU
 10
551.01834274550447
 20
133.649363233256
 30
0.0
 11
551.01834274550447
 21
142.8506367667369
 31
0.0
  0
LINE
  5
1FF8C
  8
SU
 10
551.21834274550474
 20
133.52936323325611
 30
0.0
 11
551.21834274550474
 21
142.97063676673699
 31
0.0
  0
LINE
  5
1FF8D
  8
SU
 10
551.41834274550445
 20
133.40936323325599
 30
0.0
 11
551.41834274550445
 21
143.09063676673691
 31
0.0
  0
LINE
  5
1FF8E
  8
SU
 10
551.61834274550426
 20
133.2893632332561
 30
0.0
 11
551.61834274550426
 21
143.210636766737
 31
0.0
  0
LINE
  5
1FF8F
  8
SU
 10
551.81834274550465
 20
133.16936323325601
 30
0.0
 11
551.81834274550465
 21
143.33063676673689
 31
0.0
  0
LINE
  5
1FF90
  8
SU
 10
552.01834274550436
 20
133.04936323325609
 30
0.0
 11
552.01834274550436
 21
143.45063676673701
 31
0.0
  0
LINE
  5
1FF91
  8
SU
 10
552.21834274550474
 20
132.929363233256
 30
0.0
 11
552.21834274550474
 21
143.5706367667369
 31
0.0
  0
LINE
  5
1FF92
  8
SU
 10
552.41834274550445
 20
132.80936323325611
 30
0.0
 11
552.41834274550445
 21
143.69063676673699
 31
0.0
  0
LINE
  5
1FF93
  8
SU
 10
552.61834274550438
 20
132.68936323325619
 30
0.0
 11
552.61834274550438
 21
143.81063676673691
 31
0.0
  0
LINE
  5
1FF94
  8
SU
 10
552.81834274550465
 20
132.5693632332561
 30
0.0
 11
552.81834274550465
 21
143.930636766737
 31
0.0
  0
LINE
  5
1FF95
  8
SU
 10
553.01834274550436
 20
132.44936323325601
 30
0.0
 11
553.01834274550436
 21
144.05063676673689
 31
0.0
  0
LINE
  5
1FF96
  8
SU
 10
553.21834274550474
 20
132.32936323325609
 30
0.0
 11
553.21834274550474
 21
144.170636766737
 31
0.0
  0
LINE
  5
1FF97
  8
SU
 10
945.35061480093736
 20
508.25000000000028
 30
0.0
 11
945.35061480093145
 21
455.24999999998391
 31
0.0
  0
LINE
  5
1FF98
  8
SU
 10
966.85061480093293
 20
458.24999999998153
 30
0.0
 11
945.35061480093168
 21
458.24999999998391
 31
0.0
  0
LINE
  5
1FF9C
  8
SU
 10
564.85061480093725
 20
208.75
 30
0.0
 11
564.85061480093725
 21
155.2499999999944
 31
0.0
  0
LINE
  5
1FF9D
  8
SU
 10
543.35061480093736
 20
158.2499999999944
 30
0.0
 11
564.85061480093725
 21
158.2499999999944
 31
0.0
  0
LINE
  5
1FFA1
  8
SU
 10
743.85061480093725
 20
509.75000000000011
 30
0.0
 11
743.85061480093725
 21
455.25000000000301
 31
0.0
  0
LINE
  5
1FFA3
  8
SU
 10
743.85061480093725
 20
458.25000000000301
 30
0.0
 11
945.35061480093736
 21
458.25000000000301
 31
0.0
  0
LINE
  5
1FFA7
  8
SU
 10
696.35061480093714
 20
209.74999999998809
 30
0.0
 11
696.35061480093714
 21
175.25000000000071
 31
0.0
  0
LINE
  5
1FFA8
  8
SU
 10
661.35061480093702
 20
178.25000000000071
 30
0.0
 11
696.35061480093714
 21
178.25000000000071
 31
0.0
  0
LINE
  5
1FFAC
  8
SU
 10
661.35061480093691
 20
209.74999999998809
 30
0.0
 11
661.35061480093066
 21
155.2500000000035
 31
0.0
  0
LINE
  5
1FFAD
  8
SU
 10
793.350614800931
 20
158.24999999998849
 30
0.0
 11
661.35061480093088
 21
158.2500000000035
 31
0.0
  0
LINE
  5
1FFB0
  8
SU
 10
890.35061480093793
 20
209.75
 30
0.0
 11
890.35061480093395
 21
175.25000000000071
 31
0.0
  0
LINE
  5
1FFB1
  8
SU
 10
925.35061480093395
 20
178.2499999999967
 30
0.0
 11
890.3506148009343
 21
178.25000000000071
 31
0.0
  0
LINE
  5
1FFB5
  8
SU
 10
778.85061480093759
 20
509.75000000000023
 30
0.0
 11
778.85061480093759
 21
475.25000000000023
 31
0.0
  0
LINE
  5
1FFB6
  8
SU
 10
743.85061480093736
 20
478.25000000000023
 30
0.0
 11
778.85061480093759
 21
478.25000000000023
 31
0.0
  0
LINE
  5
1FFBA
  8
SU
 10
697.35061480093657
 20
243.75
 30
0.0
 11
724.35061480093691
 21
243.75
 31
0.0
  0
LINE
  5
1FFBB
  8
SU
 10
697.35061480093702
 20
266.25
 30
0.0
 11
724.35061480093702
 21
266.25
 31
0.0
  0
LINE
  5
1FFBC
  8
SU
 10
721.3506148009368
 20
243.75
 30
0.0
 11
721.35061480093702
 21
266.25
 31
0.0
  0
LINE
  5
1FFC0
  8
SU
 10
721.35061480093702
 20
210.74999999999969
 30
0.0
 11
721.35061480093702
 21
243.75
 31
0.0
  0
LINE
  5
1FFC2
  8
SU
 10
697.35061480093702
 20
210.7499999999998
 30
0.0
 11
724.35061480093702
 21
210.74999999999969
 31
0.0
  0
LINE
  5
1FFC3
  8
SU
 10
697.35061480093714
 20
198.7500000000004
 30
0.0
 11
724.35061480093702
 21
198.75000000000031
 31
0.0
  0
LINE
  5
1FFC4
  8
SU
 10
721.35061480093702
 20
210.74999999999969
 30
0.0
 11
721.35061480093702
 21
198.75000000000031
 31
0.0
  0
LINE
  5
1FFC8
  8
SU
 10
793.35061480093668
 20
209.74999999998789
 30
0.0
 11
793.35061480093668
 21
155.2500000000035
 31
0.0
  0
LINE
  5
1FFC9
  8
SU
 10
925.35061480093725
 20
209.74999999998809
 30
0.0
 11
925.35061480093725
 21
155.2500000000035
 31
0.0
  0
LINE
  5
1FFCA
  8
SU
 10
793.35061480093668
 20
158.2500000000035
 30
0.0
 11
925.35061480093725
 21
158.2500000000035
 31
0.0
  0
LINE
  5
1FFCE
  8
SU
 10
1021.850614800937
 20
208.25000000000011
 30
0.0
 11
1021.850614800931
 21
155.2500000000019
 31
0.0
  0
LINE
  5
1FFCF
  8
SU
 10
1043.350614800933
 20
158.2499999999994
 30
0.0
 11
1021.850614800931
 21
158.2500000000019
 31
0.0
  0
LINE
  5
1FFD3
  8
SU
 10
1033.3506148009369
 20
132.24999999999659
 30
0.0
 11
1043.3506148009369
 21
138.24999999999659
 31
0.0
  0
LINE
  5
1FFD4
  8
SU
 10
1033.3506148009369
 20
144.24999999999659
 30
0.0
 11
1043.3506148009369
 21
138.24999999999659
 31
0.0
  0
LINE
  5
1FFD5
  8
SU
 10
1033.3506148009369
 20
132.24999999999659
 30
0.0
 11
1033.3506148009369
 21
144.24999999999659
 31
0.0
  0
LINE
  5
1FFD6
  8
SU
 10
1043.2828868563699
 20
138.209363233256
 30
0.0
 11
1043.2828868563699
 21
138.2906367667369
 31
0.0
  0
LINE
  5
1FFD7
  8
SU
 10
1043.0828868563699
 20
138.08936323325611
 30
0.0
 11
1043.0828868563699
 21
138.41063676673679
 31
0.0
  0
LINE
  5
1FFD8
  8
SU
 10
1042.8828868563701
 20
137.96936323325599
 30
0.0
 11
1042.8828868563701
 21
138.5306367667369
 31
0.0
  0
LINE
  5
1FFD9
  8
SU
 10
1042.68288685637
 20
137.8493632332561
 30
0.0
 11
1042.68288685637
 21
138.65063676673711
 31
0.0
  0
LINE
  5
1FFDA
  8
SU
 10
1042.48288685637
 20
137.72936323325621
 30
0.0
 11
1042.48288685637
 21
138.77063676673691
 31
0.0
  0
LINE
  5
1FFDB
  8
SU
 10
1042.2828868563699
 20
137.60936323325609
 30
0.0
 11
1042.2828868563699
 21
138.8906367667368
 31
0.0
  0
LINE
  5
1FFDC
  8
SU
 10
1042.0828868563699
 20
137.489363233256
 30
0.0
 11
1042.0828868563699
 21
139.01063676673689
 31
0.0
  0
LINE
  5
1FFDD
  8
SU
 10
1041.8828868563701
 20
137.36936323325611
 30
0.0
 11
1041.8828868563701
 21
139.1306367667371
 31
0.0
  0
LINE
  5
1FFDE
  8
SU
 10
1041.68288685637
 20
137.24936323325619
 30
0.0
 11
1041.68288685637
 21
139.25063676673699
 31
0.0
  0
LINE
  5
1FFDF
  8
SU
 10
1041.48288685637
 20
137.1293632332563
 30
0.0
 11
1041.48288685637
 21
139.37063676673691
 31
0.0
  0
LINE
  5
1FFE0
  8
SU
 10
1041.2828868563699
 20
137.0093632332559
 30
0.0
 11
1041.2828868563699
 21
139.490636766737
 31
0.0
  0
LINE
  5
1FFE1
  8
SU
 10
1041.0828868563699
 20
136.88936323325601
 30
0.0
 11
1041.0828868563699
 21
139.61063676673709
 31
0.0
  0
LINE
  5
1FFE2
  8
SU
 10
1040.8828868563701
 20
136.76936323325609
 30
0.0
 11
1040.8828868563701
 21
139.73063676673701
 31
0.0
  0
LINE
  5
1FFE3
  8
SU
 10
1040.68288685637
 20
136.649363233256
 30
0.0
 11
1040.68288685637
 21
139.8506367667369
 31
0.0
  0
LINE
  5
1FFE4
  8
SU
 10
1040.48288685637
 20
136.52936323325611
 30
0.0
 11
1040.48288685637
 21
139.97063676673699
 31
0.0
  0
LINE
  5
1FFE5
  8
SU
 10
1040.2828868563699
 20
136.40936323325599
 30
0.0
 11
1040.2828868563699
 21
140.09063676673691
 31
0.0
  0
LINE
  5
1FFE6
  8
SU
 10
1040.0828868563699
 20
136.2893632332561
 30
0.0
 11
1040.0828868563699
 21
140.210636766737
 31
0.0
  0
LINE
  5
1FFE7
  8
SU
 10
1039.8828868563701
 20
136.16936323325601
 30
0.0
 11
1039.8828868563701
 21
140.33063676673689
 31
0.0
  0
LINE
  5
1FFE8
  8
SU
 10
1039.68288685637
 20
136.04936323325609
 30
0.0
 11
1039.68288685637
 21
140.45063676673701
 31
0.0
  0
LINE
  5
1FFE9
  8
SU
 10
1039.48288685637
 20
135.929363233256
 30
0.0
 11
1039.48288685637
 21
140.5706367667369
 31
0.0
  0
LINE
  5
1FFEA
  8
SU
 10
1039.2828868563699
 20
135.80936323325611
 30
0.0
 11
1039.2828868563699
 21
140.69063676673699
 31
0.0
  0
LINE
  5
1FFEB
  8
SU
 10
1039.0828868563699
 20
135.68936323325619
 30
0.0
 11
1039.0828868563699
 21
140.81063676673691
 31
0.0
  0
LINE
  5
1FFEC
  8
SU
 10
1038.8828868563701
 20
135.5693632332561
 30
0.0
 11
1038.8828868563701
 21
140.930636766737
 31
0.0
  0
LINE
  5
1FFED
  8
SU
 10
1038.68288685637
 20
135.44936323325601
 30
0.0
 11
1038.68288685637
 21
141.05063676673689
 31
0.0
  0
LINE
  5
1FFEE
  8
SU
 10
1038.48288685637
 20
135.32936323325609
 30
0.0
 11
1038.48288685637
 21
141.170636766737
 31
0.0
  0
LINE
  5
1FFEF
  8
SU
 10
1038.2828868563699
 20
135.209363233256
 30
0.0
 11
1038.2828868563699
 21
141.2906367667369
 31
0.0
  0
LINE
  5
1FFF0
  8
SU
 10
1038.0828868563699
 20
135.08936323325611
 30
0.0
 11
1038.0828868563699
 21
141.41063676673679
 31
0.0
  0
LINE
  5
1FFF1
  8
SU
 10
1037.8828868563701
 20
134.96936323325599
 30
0.0
 11
1037.8828868563701
 21
141.5306367667369
 31
0.0
  0
LINE
  5
1FFF2
  8
SU
 10
1037.68288685637
 20
134.8493632332561
 30
0.0
 11
1037.68288685637
 21
141.65063676673711
 31
0.0
  0
LINE
  5
1FFF3
  8
SU
 10
1037.48288685637
 20
134.72936323325621
 30
0.0
 11
1037.48288685637
 21
141.770636766737
 31
0.0
  0
LINE
  5
1FFF4
  8
SU
 10
1037.2828868563699
 20
134.60936323325609
 30
0.0
 11
1037.2828868563699
 21
141.8906367667368
 31
0.0
  0
LINE
  5
1FFF5
  8
SU
 10
1037.0828868563699
 20
134.48936323325589
 30
0.0
 11
1037.0828868563699
 21
142.01063676673689
 31
0.0
  0
LINE
  5
1FFF6
  8
SU
 10
1036.8828868563701
 20
134.36936323325611
 30
0.0
 11
1036.8828868563701
 21
142.1306367667371
 31
0.0
  0
LINE
  5
1FFF7
  8
SU
 10
1036.68288685637
 20
134.24936323325619
 30
0.0
 11
1036.68288685637
 21
142.25063676673699
 31
0.0
  0
LINE
  5
1FFF8
  8
SU
 10
1036.48288685637
 20
134.1293632332563
 30
0.0
 11
1036.48288685637
 21
142.37063676673691
 31
0.0
  0
LINE
  5
1FFF9
  8
SU
 10
1036.2828868563699
 20
134.0093632332559
 30
0.0
 11
1036.2828868563699
 21
142.490636766737
 31
0.0
  0
LINE
  5
1FFFA
  8
SU
 10
1036.0828868563699
 20
133.88936323325601
 30
0.0
 11
1036.0828868563699
 21
142.61063676673709
 31
0.0
  0
LINE
  5
1FFFB
  8
SU
 10
1035.8828868563701
 20
133.76936323325609
 30
0.0
 11
1035.8828868563701
 21
142.73063676673701
 31
0.0
  0
LINE
  5
1FFFC
  8
SU
 10
1035.68288685637
 20
133.649363233256
 30
0.0
 11
1035.68288685637
 21
142.8506367667369
 31
0.0
  0
LINE
  5
1FFFD
  8
SU
 10
1035.48288685637
 20
133.52936323325611
 30
0.0
 11
1035.48288685637
 21
142.97063676673699
 31
0.0
  0
LINE
  5
1FFFE
  8
SU
 10
1035.2828868563699
 20
133.40936323325599
 30
0.0
 11
1035.2828868563699
 21
143.09063676673691
 31
0.0
  0
LINE
  5
1FFFF
  8
SU
 10
1035.0828868563699
 20
133.2893632332561
 30
0.0
 11
1035.0828868563699
 21
143.210636766737
 31
0.0
  0
LINE
  5
20000
  8
SU
 10
1034.8828868563701
 20
133.16936323325601
 30
0.0
 11
1034.8828868563701
 21
143.33063676673689
 31
0.0
  0
LINE
  5
20001
  8
SU
 10
1034.68288685637
 20
133.04936323325609
 30
0.0
 11
1034.68288685637
 21
143.45063676673701
 31
0.0
  0
LINE
  5
20002
  8
SU
 10
1034.48288685637
 20
132.929363233256
 30
0.0
 11
1034.48288685637
 21
143.5706367667369
 31
0.0
  0
LINE
  5
20003
  8
SU
 10
1034.2828868563699
 20
132.80936323325611
 30
0.0
 11
1034.2828868563699
 21
143.69063676673699
 31
0.0
  0
LINE
  5
20004
  8
SU
 10
1034.0828868563699
 20
132.68936323325619
 30
0.0
 11
1034.0828868563699
 21
143.81063676673691
 31
0.0
  0
LINE
  5
20005
  8
SU
 10
1033.8828868563701
 20
132.5693632332561
 30
0.0
 11
1033.8828868563701
 21
143.930636766737
 31
0.0
  0
LINE
  5
20006
  8
SU
 10
1033.68288685637
 20
132.44936323325601
 30
0.0
 11
1033.68288685637
 21
144.05063676673689
 31
0.0
  0
LINE
  5
20007
  8
SU
 10
1033.48288685637
 20
132.32936323325609
 30
0.0
 11
1033.48288685637
 21
144.170636766737
 31
0.0
  0
LINE
  5
20008
  8
SU
 10
1043.3506148009369
 20
204.24999999999989
 30
0.0
 11
1043.3506148009369
 21
135.24999999999631
 31
0.0
  0
LINE
  5
20009
  8
SU
 10
543.35061480093736
 20
197.2500000000002
 30
0.0
 11
543.35061480093736
 21
135.24999999999631
 31
0.0
  0
LINE
  5
2000A
  8
SU
 10
1043.3506148009369
 20
138.24999999999631
 30
0.0
 11
543.35061480093736
 21
138.24999999999631
 31
0.0
  0
LINE
  5
2000C
  8
SU
 10
944.35061480093736
 20
543.75000000000023
 30
0.0
 11
909.85061480093748
 21
543.75000000000023
 31
0.0
  0
LINE
  5
2000D
  8
SU
 10
931.85061480093736
 20
566.25000000000023
 30
0.0
 11
909.85061480093748
 21
566.25000000000023
 31
0.0
  0
LINE
  5
2000E
  8
SU
 10
912.85061480093748
 20
543.75000000000023
 30
0.0
 11
912.85061480093748
 21
566.25000000000023
 31
0.0
  0
LINE
  5
20012
  8
SU
 10
912.85061480093748
 20
510.75000000000023
 30
0.0
 11
912.85061480093748
 21
543.75000000000023
 31
0.0
  0
LINE
  5
20014
  8
SU
 10
944.35061480093736
 20
510.75000000000023
 30
0.0
 11
909.85061480093748
 21
510.75000000000023
 31
0.0
  0
LINE
  5
20015
  8
SU
 10
963.85061480093736
 20
498.75000000000028
 30
0.0
 11
909.85061480093748
 21
498.75000000000028
 31
0.0
  0
LINE
  5
20016
  8
SU
 10
912.85061480093748
 20
510.75000000000023
 30
0.0
 11
912.85061480093748
 21
498.75000000000028
 31
0.0
  0
LINE
  5
2001A
  8
SU
 10
956.85061480093736
 20
432.24999999998408
 30
-0.0000000000000001
 11
966.85061480093736
 21
438.2499999999842
 31
-0.0000000000000001
  0
LINE
  5
2001B
  8
SU
 10
956.85061480093736
 20
444.24999999998408
 30
-0.0000000000000001
 11
966.85061480093736
 21
438.2499999999842
 31
-0.0000000000000001
  0
LINE
  5
2001C
  8
SU
 10
956.85061480093736
 20
432.24999999998408
 30
-0.0000000000000001
 11
956.85061480093736
 21
444.24999999998408
 31
-0.0000000000000001
  0
LINE
  5
2001D
  8
SU
 10
966.78288685637017
 20
438.20936323324361
 30
-0.0000000000000001
 11
966.78288685637017
 21
438.2906367667245
 31
-0.0000000000000001
  0
LINE
  5
2001E
  8
SU
 10
966.58288685637046
 20
438.08936323324372
 30
-0.0000000000000001
 11
966.58288685637046
 21
438.41063676672439
 31
-0.0000000000000001
  0
LINE
  5
2001F
  8
SU
 10
966.38288685637008
 20
437.96936323324348
 30
-0.0000000000000001
 11
966.38288685637008
 21
438.53063676672451
 31
-0.0000000000000001
  0
LINE
  5
20020
  8
SU
 10
966.18288685637037
 20
437.84936323324359
 30
-0.0000000000000001
 11
966.18288685637037
 21
438.65063676672457
 31
-0.0000000000000001
  0
LINE
  5
20021
  8
SU
 10
965.9828868563701
 20
437.7293632332437
 30
-0.0000000000000001
 11
965.9828868563701
 21
438.77063676672452
 31
-0.0000000000000001
  0
LINE
  5
20022
  8
SU
 10
965.78288685637028
 20
437.6093632332437
 30
-0.0000000000000001
 11
965.78288685637028
 21
438.89063676672441
 31
-0.0000000000000001
  0
LINE
  5
20023
  8
SU
 10
965.58288685637035
 20
437.48936323324358
 30
-0.0000000000000001
 11
965.58288685637035
 21
439.01063676672459
 31
-0.0000000000000001
  0
LINE
  5
20024
  8
SU
 10
965.38288685637008
 20
437.36936323324369
 30
-0.0000000000000001
 11
965.38288685637008
 21
439.13063676672471
 31
-0.0000000000000001
  0
LINE
  5
20025
  8
SU
 10
965.18288685637037
 20
437.2493632332438
 30
-0.0000000000000001
 11
965.18288685637037
 21
439.2506367667246
 31
-0.0000000000000001
  0
LINE
  5
20026
  8
SU
 10
964.98288685636999
 20
437.12936323324391
 30
-0.0000000000000001
 11
964.98288685636999
 21
439.37063676672437
 31
-0.0000000000000001
  0
LINE
  5
20027
  8
SU
 10
964.78288685637028
 20
437.0093632332435
 30
-0.0000000000000001
 11
964.78288685637028
 21
439.49063676672449
 31
-0.0000000000000001
  0
LINE
  5
20028
  8
SU
 10
964.58288685637035
 20
436.88936323324361
 30
-0.0000000000000001
 11
964.58288685637035
 21
439.61063676672472
 31
-0.0000000000000001
  0
LINE
  5
20029
  8
SU
 10
964.38288685637008
 20
436.76936323324378
 30
-0.0000000000000001
 11
964.38288685637008
 21
439.73063676672461
 31
-0.0000000000000001
  0
LINE
  5
2002A
  8
SU
 10
964.18288685637037
 20
436.64936323324361
 30
-0.0000000000000001
 11
964.18288685637037
 21
439.85063676672451
 31
-0.0000000000000001
  0
LINE
  5
2002B
  8
SU
 10
963.98288685636999
 20
436.52936323324371
 30
-0.0000000000000001
 11
963.98288685636999
 21
439.97063676672462
 31
-0.0000000000000001
  0
LINE
  5
2002C
  8
SU
 10
963.78288685637028
 20
436.4093632332436
 30
-0.0000000000000001
 11
963.78288685637028
 21
440.09063676672451
 31
-0.0000000000000001
  0
LINE
  5
2002D
  8
SU
 10
963.58288685637035
 20
436.28936323324371
 30
-0.0000000000000001
 11
963.58288685637035
 21
440.21063676672458
 31
-0.0000000000000001
  0
LINE
  5
2002E
  8
SU
 10
963.38288685637019
 20
436.16936323324359
 30
-0.0000000000000001
 11
963.38288685637019
 21
440.33063676672452
 31
-0.0000000000000001
  0
LINE
  5
2002F
  8
SU
 10
963.18288685637026
 20
436.0493632332437
 30
-0.0000000000000001
 11
963.18288685637026
 21
440.45063676672459
 31
-0.0000000000000001
  0
LINE
  5
20030
  8
SU
 10
962.98288685636999
 20
435.92936323324358
 30
-0.0000000000000001
 11
962.98288685636999
 21
440.57063676672448
 31
-0.0000000000000001
  0
LINE
  5
20031
  8
SU
 10
962.78288685637028
 20
435.80936323324369
 30
-0.0000000000000001
 11
962.78288685637028
 21
440.69063676672459
 31
-0.0000000000000001
  0
LINE
  5
20032
  8
SU
 10
962.58288685637035
 20
435.6893632332438
 30
-0.0000000000000001
 11
962.58288685637035
 21
440.81063676672449
 31
-0.0000000000000001
  0
LINE
  5
20033
  8
SU
 10
962.38288685637019
 20
435.56936323324368
 30
-0.0000000000000001
 11
962.38288685637019
 21
440.9306367667246
 31
-0.0000000000000001
  0
LINE
  5
20034
  8
SU
 10
962.18288685637026
 20
435.4493632332435
 30
-0.0000000000000001
 11
962.18288685637026
 21
441.05063676672449
 31
-0.0000000000000001
  0
LINE
  5
20035
  8
SU
 10
961.9828868563701
 20
435.32936323324361
 30
-0.0000000000000001
 11
961.9828868563701
 21
441.17063676672461
 31
-0.0000000000000001
  0
LINE
  5
20036
  8
SU
 10
961.78288685637028
 20
435.20936323324361
 30
-0.0000000000000001
 11
961.78288685637028
 21
441.2906367667245
 31
-0.0000000000000001
  0
LINE
  5
20037
  8
SU
 10
961.58288685637046
 20
435.08936323324372
 30
-0.0000000000000001
 11
961.58288685637046
 21
441.41063676672439
 31
-0.0000000000000001
  0
LINE
  5
20038
  8
SU
 10
961.38288685637019
 20
434.9693632332436
 30
-0.0000000000000001
 11
961.38288685637019
 21
441.53063676672463
 31
-0.0000000000000001
  0
LINE
  5
20039
  8
SU
 10
961.18288685637026
 20
434.84936323324371
 30
-0.0000000000000001
 11
961.18288685637026
 21
441.65063676672457
 31
-0.0000000000000001
  0
LINE
  5
2003A
  8
SU
 10
960.9828868563701
 20
434.72936323324382
 30
-0.0000000000000001
 11
960.9828868563701
 21
441.77063676672452
 31
-0.0000000000000001
  0
LINE
  5
2003B
  8
SU
 10
960.78288685637017
 20
434.60936323324358
 30
-0.0000000000000001
 11
960.78288685637017
 21
441.89063676672441
 31
-0.0000000000000001
  0
LINE
  5
2003C
  8
SU
 10
960.58288685637046
 20
434.48936323324358
 30
-0.0000000000000001
 11
960.58288685637046
 21
442.01063676672447
 31
-0.0000000000000001
  0
LINE
  5
2003D
  8
SU
 10
960.38288685637019
 20
434.36936323324369
 30
-0.0000000000000001
 11
960.38288685637019
 21
442.13063676672471
 31
-0.0000000000000001
  0
LINE
  5
2003E
  8
SU
 10
960.18288685637026
 20
434.2493632332438
 30
-0.0000000000000001
 11
960.18288685637026
 21
442.2506367667246
 31
-0.0000000000000001
  0
LINE
  5
2003F
  8
SU
 10
959.9828868563701
 20
434.12936323324391
 30
-0.0000000000000001
 11
959.9828868563701
 21
442.37063676672449
 31
-0.0000000000000001
  0
LINE
  5
20040
  8
SU
 10
959.78288685637017
 20
434.0093632332435
 30
-0.0000000000000001
 11
959.78288685637017
 21
442.49063676672449
 31
-0.0000000000000001
  0
LINE
  5
20041
  8
SU
 10
959.58288685637046
 20
433.88936323324361
 30
-0.0000000000000001
 11
959.58288685637046
 21
442.61063676672472
 31
-0.0000000000000001
  0
LINE
  5
20042
  8
SU
 10
959.38288685637019
 20
433.76936323324372
 30
-0.0000000000000001
 11
959.38288685637019
 21
442.73063676672461
 31
-0.0000000000000001
  0
LINE
  5
20043
  8
SU
 10
959.18288685637037
 20
433.64936323324372
 30
-0.0000000000000001
 11
959.18288685637037
 21
442.85063676672451
 31
-0.0000000000000001
  0
LINE
  5
20044
  8
SU
 10
958.9828868563701
 20
433.52936323324383
 30
-0.0000000000000001
 11
958.9828868563701
 21
442.97063676672462
 31
-0.0000000000000001
  0
LINE
  5
20045
  8
SU
 10
958.78288685637017
 20
433.4093632332436
 30
-0.0000000000000001
 11
958.78288685637017
 21
443.09063676672451
 31
-0.0000000000000001
  0
LINE
  5
20046
  8
SU
 10
958.58288685637046
 20
433.28936323324371
 30
-0.0000000000000001
 11
958.58288685637046
 21
443.21063676672458
 31
-0.0000000000000001
  0
LINE
  5
20047
  8
SU
 10
958.38288685637008
 20
433.16936323324359
 30
-0.0000000000000001
 11
958.38288685637008
 21
443.33063676672452
 31
-0.0000000000000001
  0
LINE
  5
20048
  8
SU
 10
958.18288685637037
 20
433.0493632332437
 30
-0.0000000000000001
 11
958.18288685637037
 21
443.45063676672459
 31
-0.0000000000000001
  0
LINE
  5
20049
  8
SU
 10
957.9828868563701
 20
432.92936323324358
 30
-0.0000000000000001
 11
957.9828868563701
 21
443.57063676672448
 31
-0.0000000000000001
  0
LINE
  5
2004A
  8
SU
 10
957.78288685637017
 20
432.80936323324369
 30
-0.0000000000000001
 11
957.78288685637017
 21
443.69063676672459
 31
-0.0000000000000001
  0
LINE
  5
2004B
  8
SU
 10
957.58288685637035
 20
432.6893632332438
 30
-0.0000000000000001
 11
957.58288685637035
 21
443.81063676672449
 31
-0.0000000000000001
  0
LINE
  5
2004C
  8
SU
 10
957.38288685637008
 20
432.56936323324368
 30
-0.0000000000000001
 11
957.38288685637008
 21
443.93063676672472
 31
-0.0000000000000001
  0
LINE
  5
2004D
  8
SU
 10
957.18288685637037
 20
432.44936323324362
 30
-0.0000000000000001
 11
957.18288685637037
 21
444.05063676672461
 31
-0.0000000000000001
  0
LINE
  5
2004E
  8
SU
 10
956.98288685637021
 20
432.32936323324373
 30
-0.0000000000000001
 11
956.98288685637021
 21
444.17063676672461
 31
-0.0000000000000001
  0
LINE
  5
2004F
  8
SU
 10
564.85061480093725
 20
508.25000000000023
 30
0.0
 11
564.85061480093725
 21
455.24999999998391
 31
0.0
  0
LINE
  5
20050
  8
SU
 10
543.35061480093736
 20
458.24999999998391
 30
0.0
 11
564.85061480093725
 21
458.24999999998391
 31
0.0
  0
LINE
  5
20054
  8
SU
 10
553.35061480093725
 20
432.24999999998408
 30
-0.0000000000000001
 11
543.35061480093736
 21
438.2499999999842
 31
-0.0000000000000001
  0
LINE
  5
20055
  8
SU
 10
553.35061480093725
 20
444.24999999998408
 30
-0.0000000000000001
 11
543.35061480093736
 21
438.2499999999842
 31
-0.0000000000000001
  0
LINE
  5
20056
  8
SU
 10
553.35061480093725
 20
432.24999999998408
 30
-0.0000000000000001
 11
553.35061480093725
 21
444.24999999998408
 31
-0.0000000000000001
  0
LINE
  5
20057
  8
SU
 10
543.41834274550445
 20
438.20936323324361
 30
-0.0000000000000001
 11
543.41834274550445
 21
438.2906367667245
 31
-0.0000000000000001
  0
LINE
  5
20058
  8
SU
 10
543.61834274550426
 20
438.08936323324372
 30
-0.0000000000000001
 11
543.61834274550426
 21
438.41063676672439
 31
-0.0000000000000001
  0
LINE
  5
20059
  8
SU
 10
543.81834274550465
 20
437.96936323324348
 30
-0.0000000000000001
 11
543.81834274550465
 21
438.53063676672451
 31
-0.0000000000000001
  0
LINE
  5
2005A
  8
SU
 10
544.01834274550436
 20
437.84936323324359
 30
-0.0000000000000001
 11
544.01834274550436
 21
438.65063676672457
 31
-0.0000000000000001
  0
LINE
  5
2005B
  8
SU
 10
544.21834274550474
 20
437.7293632332437
 30
-0.0000000000000001
 11
544.21834274550474
 21
438.77063676672452
 31
-0.0000000000000001
  0
LINE
  5
2005C
  8
SU
 10
544.41834274550445
 20
437.6093632332437
 30
-0.0000000000000001
 11
544.41834274550445
 21
438.89063676672441
 31
-0.0000000000000001
  0
LINE
  5
2005D
  8
SU
 10
544.61834274550438
 20
437.48936323324358
 30
-0.0000000000000001
 11
544.61834274550438
 21
439.01063676672459
 31
-0.0000000000000001
  0
LINE
  5
2005E
  8
SU
 10
544.81834274550465
 20
437.36936323324369
 30
-0.0000000000000001
 11
544.81834274550465
 21
439.13063676672471
 31
-0.0000000000000001
  0
LINE
  5
2005F
  8
SU
 10
545.01834274550436
 20
437.2493632332438
 30
-0.0000000000000001
 11
545.01834274550436
 21
439.2506367667246
 31
-0.0000000000000001
  0
LINE
  5
20060
  8
SU
 10
545.21834274550474
 20
437.12936323324391
 30
-0.0000000000000001
 11
545.21834274550474
 21
439.37063676672437
 31
-0.0000000000000001
  0
LINE
  5
20061
  8
SU
 10
545.41834274550456
 20
437.0093632332435
 30
-0.0000000000000001
 11
545.41834274550456
 21
439.49063676672449
 31
-0.0000000000000001
  0
LINE
  5
20062
  8
SU
 10
545.61834274550438
 20
436.88936323324361
 30
-0.0000000000000001
 11
545.61834274550438
 21
439.61063676672472
 31
-0.0000000000000001
  0
LINE
  5
20063
  8
SU
 10
545.81834274550465
 20
436.76936323324378
 30
-0.0000000000000001
 11
545.81834274550465
 21
439.73063676672461
 31
-0.0000000000000001
  0
LINE
  5
20064
  8
SU
 10
546.01834274550436
 20
436.64936323324361
 30
-0.0000000000000001
 11
546.01834274550436
 21
439.85063676672451
 31
-0.0000000000000001
  0
LINE
  5
20065
  8
SU
 10
546.21834274550474
 20
436.52936323324371
 30
-0.0000000000000001
 11
546.21834274550474
 21
439.97063676672462
 31
-0.0000000000000001
  0
LINE
  5
20066
  8
SU
 10
546.41834274550445
 20
436.4093632332436
 30
-0.0000000000000001
 11
546.41834274550445
 21
440.09063676672451
 31
-0.0000000000000001
  0
LINE
  5
20067
  8
SU
 10
546.61834274550426
 20
436.28936323324371
 30
-0.0000000000000001
 11
546.61834274550426
 21
440.21063676672458
 31
-0.0000000000000001
  0
LINE
  5
20068
  8
SU
 10
546.81834274550465
 20
436.16936323324359
 30
-0.0000000000000001
 11
546.81834274550465
 21
440.33063676672452
 31
-0.0000000000000001
  0
LINE
  5
20069
  8
SU
 10
547.01834274550447
 20
436.0493632332437
 30
-0.0000000000000001
 11
547.01834274550447
 21
440.45063676672459
 31
-0.0000000000000001
  0
LINE
  5
2006A
  8
SU
 10
547.21834274550474
 20
435.92936323324358
 30
-0.0000000000000001
 11
547.21834274550474
 21
440.57063676672448
 31
-0.0000000000000001
  0
LINE
  5
2006B
  8
SU
 10
547.41834274550445
 20
435.80936323324369
 30
-0.0000000000000001
 11
547.41834274550445
 21
440.69063676672459
 31
-0.0000000000000001
  0
LINE
  5
2006C
  8
SU
 10
547.61834274550426
 20
435.6893632332438
 30
-0.0000000000000001
 11
547.61834274550426
 21
440.81063676672449
 31
-0.0000000000000001
  0
LINE
  5
2006D
  8
SU
 10
547.81834274550465
 20
435.56936323324368
 30
-0.0000000000000001
 11
547.81834274550465
 21
440.9306367667246
 31
-0.0000000000000001
  0
LINE
  5
2006E
  8
SU
 10
548.01834274550436
 20
435.4493632332435
 30
-0.0000000000000001
 11
548.01834274550436
 21
441.05063676672449
 31
-0.0000000000000001
  0
LINE
  5
2006F
  8
SU
 10
548.21834274550474
 20
435.32936323324361
 30
-0.0000000000000001
 11
548.21834274550474
 21
441.17063676672461
 31
-0.0000000000000001
  0
LINE
  5
20070
  8
SU
 10
548.41834274550445
 20
435.20936323324361
 30
-0.0000000000000001
 11
548.41834274550445
 21
441.2906367667245
 31
-0.0000000000000001
  0
LINE
  5
20071
  8
SU
 10
548.61834274550438
 20
435.08936323324372
 30
-0.0000000000000001
 11
548.61834274550438
 21
441.41063676672439
 31
-0.0000000000000001
  0
LINE
  5
20072
  8
SU
 10
548.81834274550465
 20
434.9693632332436
 30
-0.0000000000000001
 11
548.81834274550465
 21
441.53063676672463
 31
-0.0000000000000001
  0
LINE
  5
20073
  8
SU
 10
549.01834274550436
 20
434.84936323324371
 30
-0.0000000000000001
 11
549.01834274550436
 21
441.65063676672457
 31
-0.0000000000000001
  0
LINE
  5
20074
  8
SU
 10
549.21834274550474
 20
434.72936323324382
 30
-0.0000000000000001
 11
549.21834274550474
 21
441.77063676672452
 31
-0.0000000000000001
  0
LINE
  5
20075
  8
SU
 10
549.41834274550456
 20
434.60936323324358
 30
-0.0000000000000001
 11
549.41834274550456
 21
441.89063676672441
 31
-0.0000000000000001
  0
LINE
  5
20076
  8
SU
 10
549.61834274550438
 20
434.48936323324358
 30
-0.0000000000000001
 11
549.61834274550438
 21
442.01063676672447
 31
-0.0000000000000001
  0
LINE
  5
20077
  8
SU
 10
549.81834274550465
 20
434.36936323324369
 30
-0.0000000000000001
 11
549.81834274550465
 21
442.13063676672471
 31
-0.0000000000000001
  0
LINE
  5
20078
  8
SU
 10
550.01834274550436
 20
434.2493632332438
 30
-0.0000000000000001
 11
550.01834274550436
 21
442.2506367667246
 31
-0.0000000000000001
  0
LINE
  5
20079
  8
SU
 10
550.21834274550474
 20
434.12936323324391
 30
-0.0000000000000001
 11
550.21834274550474
 21
442.37063676672449
 31
-0.0000000000000001
  0
LINE
  5
2007A
  8
SU
 10
550.41834274550445
 20
434.0093632332435
 30
-0.0000000000000001
 11
550.41834274550445
 21
442.49063676672449
 31
-0.0000000000000001
  0
LINE
  5
2007B
  8
SU
 10
550.61834274550426
 20
433.88936323324361
 30
-0.0000000000000001
 11
550.61834274550426
 21
442.61063676672472
 31
-0.0000000000000001
  0
LINE
  5
2007C
  8
SU
 10
550.81834274550465
 20
433.76936323324372
 30
-0.0000000000000001
 11
550.81834274550465
 21
442.73063676672461
 31
-0.0000000000000001
  0
LINE
  5
2007D
  8
SU
 10
551.01834274550447
 20
433.64936323324372
 30
-0.0000000000000001
 11
551.01834274550447
 21
442.85063676672451
 31
-0.0000000000000001
  0
LINE
  5
2007E
  8
SU
 10
551.21834274550474
 20
433.52936323324383
 30
-0.0000000000000001
 11
551.21834274550474
 21
442.97063676672462
 31
-0.0000000000000001
  0
LINE
  5
2007F
  8
SU
 10
551.41834274550445
 20
433.4093632332436
 30
-0.0000000000000001
 11
551.41834274550445
 21
443.09063676672451
 31
-0.0000000000000001
  0
LINE
  5
20080
  8
SU
 10
551.61834274550426
 20
433.28936323324371
 30
-0.0000000000000001
 11
551.61834274550426
 21
443.21063676672458
 31
-0.0000000000000001
  0
LINE
  5
20081
  8
SU
 10
551.81834274550465
 20
433.16936323324359
 30
-0.0000000000000001
 11
551.81834274550465
 21
443.33063676672452
 31
-0.0000000000000001
  0
LINE
  5
20082
  8
SU
 10
552.01834274550436
 20
433.0493632332437
 30
-0.0000000000000001
 11
552.01834274550436
 21
443.45063676672459
 31
-0.0000000000000001
  0
LINE
  5
20083
  8
SU
 10
552.21834274550474
 20
432.92936323324358
 30
-0.0000000000000001
 11
552.21834274550474
 21
443.57063676672448
 31
-0.0000000000000001
  0
LINE
  5
20084
  8
SU
 10
552.41834274550445
 20
432.80936323324369
 30
-0.0000000000000001
 11
552.41834274550445
 21
443.69063676672459
 31
-0.0000000000000001
  0
LINE
  5
20085
  8
SU
 10
552.61834274550438
 20
432.6893632332438
 30
-0.0000000000000001
 11
552.61834274550438
 21
443.81063676672449
 31
-0.0000000000000001
  0
LINE
  5
20086
  8
SU
 10
552.81834274550465
 20
432.56936323324368
 30
-0.0000000000000001
 11
552.81834274550465
 21
443.93063676672472
 31
-0.0000000000000001
  0
LINE
  5
20087
  8
SU
 10
553.01834274550436
 20
432.44936323324362
 30
-0.0000000000000001
 11
553.01834274550436
 21
444.05063676672461
 31
-0.0000000000000001
  0
LINE
  5
20088
  8
SU
 10
553.21834274550474
 20
432.32936323324373
 30
-0.0000000000000001
 11
553.21834274550474
 21
444.17063676672461
 31
-0.0000000000000001
  0
LINE
  5
20089
  8
SU
 10
966.85061480093736
 20
497.25000000000028
 30
0.0
 11
966.85061480093736
 21
435.24999999998403
 31
0.0
  0
LINE
  5
2008A
  8
SU
 10
543.35061480093736
 20
497.25000000000028
 30
0.0
 11
543.35061480093736
 21
435.24999999998403
 31
0.0
  0
LINE
  5
2008B
  8
SU
 10
966.85061480093736
 20
438.24999999998391
 30
0.0
 11
543.35061480093736
 21
438.24999999998391
 31
0.0
  0
LINE
  5
2008D
  8
SU
 10
387.93556498167982
 20
350.1057439467258
 30
0.0
 11
393.93556498167982
 21
340.1057439467258
 31
0.0
  0
LINE
  5
2008E
  8
SU
 10
399.93556498167982
 20
350.1057439467258
 30
0.0
 11
393.93556498167982
 21
340.1057439467258
 31
0.0
  0
LINE
  5
2008F
  8
SU
 10
387.93556498167982
 20
350.1057439467258
 30
0.0
 11
399.93556498167982
 21
350.1057439467258
 31
0.0
  0
LINE
  5
20090
  8
SU
 10
393.89492821493923
 20
340.17347189129299
 30
0.0
 11
393.97620174842012
 21
340.17347189129299
 31
0.0
  0
LINE
  5
20091
  8
SU
 10
393.77492821493928
 20
340.37347189129281
 30
0.0
 11
394.09620174842001
 21
340.37347189129281
 31
0.0
  0
LINE
  5
20092
  8
SU
 10
393.65492821493922
 20
340.57347189129308
 30
0.0
 11
394.21620174842008
 21
340.57347189129308
 31
0.0
  0
LINE
  5
20093
  8
SU
 10
393.53492821493933
 20
340.7734718912929
 30
0.0
 11
394.33620174842031
 21
340.7734718912929
 31
0.0
  0
LINE
  5
20094
  8
SU
 10
393.41492821493938
 20
340.97347189129317
 30
0.0
 11
394.45620174842009
 21
340.97347189129317
 31
0.0
  0
LINE
  5
20095
  8
SU
 10
393.2949282149392
 20
341.17347189129299
 30
0.0
 11
394.57620174841998
 21
341.17347189129299
 31
0.0
  0
LINE
  5
20096
  8
SU
 10
393.17492821493909
 20
341.37347189129281
 30
0.0
 11
394.69620174842021
 21
341.37347189129281
 31
0.0
  0
LINE
  5
20097
  8
SU
 10
393.05492821493931
 20
341.57347189129308
 30
0.0
 11
394.81620174842033
 21
341.57347189129308
 31
0.0
  0
LINE
  5
20098
  8
SU
 10
392.93492821493942
 20
341.7734718912929
 30
0.0
 11
394.93620174842022
 21
341.7734718912929
 31
0.0
  0
LINE
  5
20099
  8
SU
 10
392.81492821493953
 20
341.97347189129317
 30
0.0
 11
395.05620174841999
 21
341.97347189129317
 31
0.0
  0
LINE
  5
2009A
  8
SU
 10
392.69492821493913
 20
342.17347189129299
 30
0.0
 11
395.17620174842023
 21
342.17347189129299
 31
0.0
  0
LINE
  5
2009B
  8
SU
 10
392.57492821493918
 20
342.37347189129281
 30
0.0
 11
395.29620174842029
 21
342.37347189129281
 31
0.0
  0
LINE
  5
2009C
  8
SU
 10
392.4549282149394
 20
342.57347189129308
 30
0.0
 11
395.41620174842018
 21
342.57347189129308
 31
0.0
  0
LINE
  5
2009D
  8
SU
 10
392.33492821493923
 20
342.7734718912929
 30
0.0
 11
395.53620174842013
 21
342.7734718912929
 31
0.0
  0
LINE
  5
2009E
  8
SU
 10
392.21492821493928
 20
342.97347189129317
 30
0.0
 11
395.65620174842019
 21
342.97347189129317
 31
0.0
  0
LINE
  5
2009F
  8
SU
 10
392.09492821493922
 20
343.17347189129299
 30
0.0
 11
395.77620174842008
 21
343.17347189129299
 31
0.0
  0
LINE
  5
200A0
  8
SU
 10
391.97492821493933
 20
343.37347189129281
 30
0.0
 11
395.8962017484202
 21
343.37347189129281
 31
0.0
  0
LINE
  5
200A1
  8
SU
 10
391.85492821493921
 20
343.57347189129308
 30
0.0
 11
396.01620174842009
 21
343.57347189129308
 31
0.0
  0
LINE
  5
200A2
  8
SU
 10
391.73492821493932
 20
343.7734718912929
 30
0.0
 11
396.13620174842021
 21
343.7734718912929
 31
0.0
  0
LINE
  5
200A3
  8
SU
 10
391.6149282149392
 20
343.97347189129317
 30
0.0
 11
396.2562017484201
 21
343.97347189129317
 31
0.0
  0
LINE
  5
200A4
  8
SU
 10
391.49492821493931
 20
344.17347189129299
 30
0.0
 11
396.37620174842021
 21
344.17347189129299
 31
0.0
  0
LINE
  5
200A5
  8
SU
 10
391.37492821493942
 20
344.37347189129281
 30
0.0
 11
396.49620174842011
 21
344.37347189129281
 31
0.0
  0
LINE
  5
200A6
  8
SU
 10
391.2549282149393
 20
344.57347189129308
 30
0.0
 11
396.61620174842022
 21
344.57347189129308
 31
0.0
  0
LINE
  5
200A7
  8
SU
 10
391.13492821493918
 20
344.7734718912929
 30
0.0
 11
396.73620174842011
 21
344.7734718912929
 31
0.0
  0
LINE
  5
200A8
  8
SU
 10
391.01492821493929
 20
344.97347189129317
 30
0.0
 11
396.85620174842018
 21
344.97347189129317
 31
0.0
  0
LINE
  5
200A9
  8
SU
 10
390.89492821493911
 20
345.17347189129299
 30
0.0
 11
396.97620174842012
 21
345.17347189129299
 31
0.0
  0
LINE
  5
200AA
  8
SU
 10
390.77492821493928
 20
345.37347189129281
 30
0.0
 11
397.09620174842001
 21
345.37347189129281
 31
0.0
  0
LINE
  5
200AB
  8
SU
 10
390.65492821493922
 20
345.57347189129308
 30
0.0
 11
397.21620174842008
 21
345.57347189129308
 31
0.0
  0
LINE
  5
200AC
  8
SU
 10
390.53492821493933
 20
345.7734718912929
 30
0.0
 11
397.33620174842031
 21
345.7734718912929
 31
0.0
  0
LINE
  5
200AD
  8
SU
 10
390.41492821493938
 20
345.97347189129317
 30
0.0
 11
397.45620174842009
 21
345.97347189129317
 31
0.0
  0
LINE
  5
200AE
  8
SU
 10
390.29492821493932
 20
346.17347189129299
 30
0.0
 11
397.57620174841998
 21
346.17347189129299
 31
0.0
  0
LINE
  5
200AF
  8
SU
 10
390.1749282149392
 20
346.37347189129281
 30
0.0
 11
397.69620174842009
 21
346.37347189129281
 31
0.0
  0
LINE
  5
200B0
  8
SU
 10
390.05492821493931
 20
346.57347189129308
 30
0.0
 11
397.81620174842033
 21
346.57347189129308
 31
0.0
  0
LINE
  5
200B1
  8
SU
 10
389.93492821493942
 20
346.7734718912929
 30
0.0
 11
397.93620174842022
 21
346.7734718912929
 31
0.0
  0
LINE
  5
200B2
  8
SU
 10
389.81492821493953
 20
346.97347189129317
 30
0.0
 11
398.05620174842011
 21
346.97347189129317
 31
0.0
  0
LINE
  5
200B3
  8
SU
 10
389.69492821493913
 20
347.17347189129299
 30
0.0
 11
398.17620174842023
 21
347.17347189129299
 31
0.0
  0
LINE
  5
200B4
  8
SU
 10
389.57492821493929
 20
347.37347189129281
 30
0.0
 11
398.29620174842029
 21
347.37347189129281
 31
0.0
  0
LINE
  5
200B5
  8
SU
 10
389.4549282149394
 20
347.57347189129308
 30
0.0
 11
398.41620174842018
 21
347.57347189129308
 31
0.0
  0
LINE
  5
200B6
  8
SU
 10
389.33492821493923
 20
347.7734718912929
 30
0.0
 11
398.53620174842013
 21
347.7734718912929
 31
0.0
  0
LINE
  5
200B7
  8
SU
 10
389.21492821493928
 20
347.97347189129317
 30
0.0
 11
398.65620174842019
 21
347.97347189129317
 31
0.0
  0
LINE
  5
200B8
  8
SU
 10
389.09492821493922
 20
348.17347189129299
 30
0.0
 11
398.77620174842008
 21
348.17347189129299
 31
0.0
  0
LINE
  5
200B9
  8
SU
 10
388.97492821493933
 20
348.37347189129281
 30
0.0
 11
398.8962017484202
 21
348.37347189129281
 31
0.0
  0
LINE
  5
200BA
  8
SU
 10
388.85492821493921
 20
348.57347189129308
 30
0.0
 11
399.01620174842009
 21
348.57347189129308
 31
0.0
  0
LINE
  5
200BB
  8
SU
 10
388.73492821493932
 20
348.7734718912929
 30
0.0
 11
399.13620174842021
 21
348.7734718912929
 31
0.0
  0
LINE
  5
200BC
  8
SU
 10
388.6149282149392
 20
348.97347189129317
 30
0.0
 11
399.2562017484201
 21
348.97347189129317
 31
0.0
  0
LINE
  5
200BD
  8
SU
 10
388.49492821493931
 20
349.17347189129299
 30
0.0
 11
399.37620174842021
 21
349.17347189129299
 31
0.0
  0
LINE
  5
200BE
  8
SU
 10
388.37492821493942
 20
349.37347189129281
 30
0.0
 11
399.49620174842011
 21
349.37347189129281
 31
0.0
  0
LINE
  5
200BF
  8
SU
 10
388.2549282149393
 20
349.57347189129308
 30
0.0
 11
399.61620174842022
 21
349.57347189129308
 31
0.0
  0
LINE
  5
200C0
  8
SU
 10
388.13492821493918
 20
349.7734718912929
 30
0.0
 11
399.73620174842011
 21
349.7734718912929
 31
0.0
  0
LINE
  5
200C1
  8
SU
 10
388.01492821493929
 20
349.97347189129317
 30
0.0
 11
399.85620174842018
 21
349.97347189129317
 31
0.0
  0
LINE
  5
200C2
  8
SU
 10
313.9355649816797
 20
690.3057439485608
 30
0.0
 11
313.9355649816797
 21
712.3057439485608
 31
0.0
  0
LINE
  5
200C3
  8
SU
 10
246.43556498351271
 20
690.3057439485608
 30
0.0
 11
246.43556498351271
 21
712.3057439485608
 31
0.0
  0
LINE
  5
200C4
  8
SU
 10
313.9355649816797
 20
709.30574394856069
 30
0.0
 11
246.43556498351271
 21
709.30574394856069
 31
0.0
  0
LINE
  5
200C8
  8
SU
 10
301.93556498351251
 20
643.60574394670334
 30
0.0
 11
301.93556498351251
 21
580.60574394856042
 31
0.0
  0
LINE
  5
200C9
  8
SU
 10
313.93556498167919
 20
639.75574394672697
 30
0.0
 11
313.93556498167919
 21
580.60574394856042
 31
0.0
  0
LINE
  5
200CA
  8
SU
 10
301.93556498351251
 20
583.60574394856042
 30
0.0
 11
313.93556498167919
 21
583.60574394856042
 31
0.0
  0
LINE
  5
200CE
  8
SU
 10
268.93556498351251
 20
583.60574394856064
 30
0.0
 11
301.93556498351251
 21
583.60574394856064
 31
0.0
  0
LINE
  5
200D0
  8
SU
 10
268.93556498351251
 20
643.60574394671255
 30
0.0
 11
268.93556498351251
 21
580.60574394856064
 31
0.0
  0
LINE
  5
200D1
  8
SU
 10
246.43556498351271
 20
632.60574394856064
 30
0.0
 11
246.43556498351271
 21
580.60574394856064
 31
0.0
  0
LINE
  5
200D2
  8
SU
 10
268.93556498351251
 20
583.60574394856064
 30
0.0
 11
246.43556498351271
 21
583.60574394856064
 31
0.0
  0
LINE
  5
200D6
  8
SU
 10
246.43556498351259
 20
339.10574394672591
 30
0.0
 11
246.43556498351259
 21
305.10574394672591
 31
0.0
  0
LINE
  5
200D7
  8
SU
 10
285.4355649834618
 20
339.1057439467258
 30
0.0
 11
285.4355649834618
 21
305.10574394672591
 31
0.0
  0
LINE
  5
200D8
  8
SU
 10
246.43556498351259
 20
308.1057439467258
 30
0.0
 11
285.4355649834618
 21
308.1057439467258
 31
0.0
  0
LINE
  5
200DC
  8
SU
 10
353.93556498167948
 20
358.10574404519338
 30
0.0
 11
353.93556498167948
 21
340.10574394672591
 31
0.0
  0
LINE
  5
200DF
  8
SU
 10
333.9355649816797
 20
644.60574394670334
 30
0.0
 11
333.9355649816797
 21
640.10574394672574
 31
0.0
  0
LINE
  5
200E0
  8
SU
 10
333.9355649816797
 20
640.10574394672574
 30
0.0
 11
333.93556498167959
 21
615.73241061339229
 31
0.0
  0
LINE
  5
200E4
  8
SU
 10
302.9355649835129
 20
644.60574394670334
 30
0.0
 11
356.93556498167948
 21
644.60574394670334
 31
0.0
  0
LINE
  5
200E5
  8
SU
 10
300.43556498351228
 20
652.10574394672597
 30
0.0
 11
356.93556498167948
 21
652.10574394672597
 31
0.0
  0
LINE
  5
200E6
  8
SU
 10
353.93556498167948
 20
644.60574394670334
 30
0.0
 11
353.93556498167948
 21
652.10574394672597
 31
0.0
  0
LINE
  5
200E7
  8
SU
 10
353.93556498167948
 20
652.10574394672597
 30
0.0
 11
353.93556498167948
 21
676.47907728005941
 31
0.0
  0
LINE
  5
200EB
  8
SU
 10
387.93556498167982
 20
679.3057439485608
 30
0.0
 11
393.93556498167982
 21
689.3057439485608
 31
0.0
  0
LINE
  5
200EC
  8
SU
 10
399.93556498167982
 20
679.3057439485608
 30
0.0
 11
393.93556498167982
 21
689.3057439485608
 31
0.0
  0
LINE
  5
200ED
  8
SU
 10
387.93556498167982
 20
679.3057439485608
 30
0.0
 11
399.93556498167982
 21
679.3057439485608
 31
0.0
  0
LINE
  5
200EE
  8
SU
 10
393.89492821493923
 20
689.23801600399361
 30
0.0
 11
393.97620174842012
 21
689.23801600399361
 31
0.0
  0
LINE
  5
200EF
  8
SU
 10
393.77492821493928
 20
689.03801600399379
 30
0.0
 11
394.09620174842001
 21
689.03801600399379
 31
0.0
  0
LINE
  5
200F0
  8
SU
 10
393.65492821493922
 20
688.83801600399352
 30
0.0
 11
394.21620174842008
 21
688.83801600399352
 31
0.0
  0
LINE
  5
200F1
  8
SU
 10
393.53492821493933
 20
688.63801600399358
 30
0.0
 11
394.33620174842031
 21
688.63801600399358
 31
0.0
  0
LINE
  5
200F2
  8
SU
 10
393.41492821493938
 20
688.43801600399343
 30
0.0
 11
394.45620174842009
 21
688.43801600399343
 31
0.0
  0
LINE
  5
200F3
  8
SU
 10
393.2949282149392
 20
688.23801600399361
 30
0.0
 11
394.57620174841998
 21
688.23801600399361
 31
0.0
  0
LINE
  5
200F4
  8
SU
 10
393.17492821493909
 20
688.03801600399379
 30
0.0
 11
394.69620174842021
 21
688.03801600399379
 31
0.0
  0
LINE
  5
200F5
  8
SU
 10
393.05492821493931
 20
687.83801600399352
 30
0.0
 11
394.81620174842033
 21
687.83801600399352
 31
0.0
  0
LINE
  5
200F6
  8
SU
 10
392.93492821493942
 20
687.6380160039937
 30
0.0
 11
394.93620174842022
 21
687.6380160039937
 31
0.0
  0
LINE
  5
200F7
  8
SU
 10
392.81492821493953
 20
687.43801600399343
 30
0.0
 11
395.05620174841999
 21
687.43801600399343
 31
0.0
  0
LINE
  5
200F8
  8
SU
 10
392.69492821493913
 20
687.23801600399361
 30
0.0
 11
395.17620174842023
 21
687.23801600399361
 31
0.0
  0
LINE
  5
200F9
  8
SU
 10
392.57492821493918
 20
687.03801600399368
 30
0.0
 11
395.29620174842029
 21
687.03801600399368
 31
0.0
  0
LINE
  5
200FA
  8
SU
 10
392.4549282149394
 20
686.83801600399352
 30
0.0
 11
395.41620174842018
 21
686.83801600399352
 31
0.0
  0
LINE
  5
200FB
  8
SU
 10
392.33492821493923
 20
686.6380160039937
 30
0.0
 11
395.53620174842013
 21
686.6380160039937
 31
0.0
  0
LINE
  5
200FC
  8
SU
 10
392.21492821493928
 20
686.43801600399343
 30
0.0
 11
395.65620174842019
 21
686.43801600399343
 31
0.0
  0
LINE
  5
200FD
  8
SU
 10
392.09492821493922
 20
686.23801600399349
 30
0.0
 11
395.77620174842008
 21
686.23801600399349
 31
0.0
  0
LINE
  5
200FE
  8
SU
 10
391.97492821493933
 20
686.03801600399368
 30
0.0
 11
395.8962017484202
 21
686.03801600399368
 31
0.0
  0
LINE
  5
200FF
  8
SU
 10
391.85492821493921
 20
685.83801600399352
 30
0.0
 11
396.01620174842009
 21
685.83801600399352
 31
0.0
  0
LINE
  5
20100
  8
SU
 10
391.73492821493932
 20
685.6380160039937
 30
0.0
 11
396.13620174842021
 21
685.6380160039937
 31
0.0
  0
LINE
  5
20101
  8
SU
 10
391.6149282149392
 20
685.43801600399343
 30
0.0
 11
396.2562017484201
 21
685.43801600399343
 31
0.0
  0
LINE
  5
20102
  8
SU
 10
391.49492821493931
 20
685.23801600399361
 30
0.0
 11
396.37620174842021
 21
685.23801600399361
 31
0.0
  0
LINE
  5
20103
  8
SU
 10
391.37492821493942
 20
685.03801600399379
 30
0.0
 11
396.49620174842011
 21
685.03801600399379
 31
0.0
  0
LINE
  5
20104
  8
SU
 10
391.2549282149393
 20
684.83801600399352
 30
0.0
 11
396.61620174842022
 21
684.83801600399352
 31
0.0
  0
LINE
  5
20105
  8
SU
 10
391.13492821493918
 20
684.63801600399358
 30
0.0
 11
396.73620174842011
 21
684.63801600399358
 31
0.0
  0
LINE
  5
20106
  8
SU
 10
391.01492821493929
 20
684.43801600399343
 30
0.0
 11
396.85620174842018
 21
684.43801600399343
 31
0.0
  0
LINE
  5
20107
  8
SU
 10
390.89492821493911
 20
684.23801600399361
 30
0.0
 11
396.97620174842012
 21
684.23801600399361
 31
0.0
  0
LINE
  5
20108
  8
SU
 10
390.77492821493928
 20
684.03801600399379
 30
0.0
 11
397.09620174842001
 21
684.03801600399379
 31
0.0
  0
LINE
  5
20109
  8
SU
 10
390.65492821493922
 20
683.8380160039934
 30
0.0
 11
397.21620174842008
 21
683.8380160039934
 31
0.0
  0
LINE
  5
2010A
  8
SU
 10
390.53492821493933
 20
683.63801600399358
 30
0.0
 11
397.33620174842031
 21
683.63801600399358
 31
0.0
  0
LINE
  5
2010B
  8
SU
 10
390.41492821493938
 20
683.43801600399343
 30
0.0
 11
397.45620174842009
 21
683.43801600399343
 31
0.0
  0
LINE
  5
2010C
  8
SU
 10
390.29492821493932
 20
683.23801600399361
 30
0.0
 11
397.57620174841998
 21
683.23801600399361
 31
0.0
  0
LINE
  5
2010D
  8
SU
 10
390.1749282149392
 20
683.03801600399368
 30
0.0
 11
397.69620174842009
 21
683.03801600399368
 31
0.0
  0
LINE
  5
2010E
  8
SU
 10
390.05492821493931
 20
682.83801600399352
 30
0.0
 11
397.81620174842033
 21
682.83801600399352
 31
0.0
  0
LINE
  5
2010F
  8
SU
 10
389.93492821493942
 20
682.6380160039937
 30
0.0
 11
397.93620174842022
 21
682.6380160039937
 31
0.0
  0
LINE
  5
20110
  8
SU
 10
389.81492821493953
 20
682.43801600399343
 30
0.0
 11
398.05620174842011
 21
682.43801600399343
 31
0.0
  0
LINE
  5
20111
  8
SU
 10
389.69492821493913
 20
682.23801600399349
 30
0.0
 11
398.17620174842023
 21
682.23801600399349
 31
0.0
  0
LINE
  5
20112
  8
SU
 10
389.57492821493929
 20
682.03801600399368
 30
0.0
 11
398.29620174842029
 21
682.03801600399368
 31
0.0
  0
LINE
  5
20113
  8
SU
 10
389.4549282149394
 20
681.83801600399352
 30
0.0
 11
398.41620174842018
 21
681.83801600399352
 31
0.0
  0
LINE
  5
20114
  8
SU
 10
389.33492821493923
 20
681.6380160039937
 30
0.0
 11
398.53620174842013
 21
681.6380160039937
 31
0.0
  0
LINE
  5
20115
  8
SU
 10
389.21492821493928
 20
681.43801600399343
 30
0.0
 11
398.65620174842019
 21
681.43801600399343
 31
0.0
  0
LINE
  5
20116
  8
SU
 10
389.09492821493922
 20
681.23801600399361
 30
0.0
 11
398.77620174842008
 21
681.23801600399361
 31
0.0
  0
LINE
  5
20117
  8
SU
 10
388.97492821493933
 20
681.03801600399379
 30
0.0
 11
398.8962017484202
 21
681.03801600399379
 31
0.0
  0
LINE
  5
20118
  8
SU
 10
388.85492821493921
 20
680.83801600399352
 30
0.0
 11
399.01620174842009
 21
680.83801600399352
 31
0.0
  0
LINE
  5
20119
  8
SU
 10
388.73492821493932
 20
680.63801600399358
 30
0.0
 11
399.13620174842021
 21
680.63801600399358
 31
0.0
  0
LINE
  5
2011A
  8
SU
 10
388.6149282149392
 20
680.43801600399343
 30
0.0
 11
399.2562017484201
 21
680.43801600399343
 31
0.0
  0
LINE
  5
2011B
  8
SU
 10
388.49492821493931
 20
680.23801600399361
 30
0.0
 11
399.37620174842021
 21
680.23801600399361
 31
0.0
  0
LINE
  5
2011C
  8
SU
 10
388.37492821493942
 20
680.03801600399379
 30
0.0
 11
399.49620174842011
 21
680.03801600399379
 31
0.0
  0
LINE
  5
2011D
  8
SU
 10
388.2549282149393
 20
679.8380160039934
 30
0.0
 11
399.61620174842022
 21
679.8380160039934
 31
0.0
  0
LINE
  5
2011E
  8
SU
 10
388.13492821493918
 20
679.63801600399358
 30
0.0
 11
399.73620174842011
 21
679.63801600399358
 31
0.0
  0
LINE
  5
2011F
  8
SU
 10
388.01492821493929
 20
679.43801600399343
 30
0.0
 11
399.85620174842018
 21
679.43801600399343
 31
0.0
  0
LINE
  5
20120
  8
SU
 10
314.2855649816791
 20
640.10574394672574
 30
0.0
 11
376.93556498167948
 21
640.10574394672574
 31
0.0
  0
LINE
  5
20121
  8
SU
 10
373.93556498167948
 20
640.10574394672574
 30
0.0
 11
373.93556498167948
 21
689.3057439485608
 31
0.0
  0
LINE
  5
20125
  8
SU
 10
307.93556498351347
 20
689.3057439485608
 30
0.0
 11
396.9355649816797
 21
689.3057439485608
 31
0.0
  0
LINE
  5
20126
  8
SU
 10
318.93556498351268
 20
340.10574394672591
 30
0.0
 11
396.93556498167948
 21
340.1057439467258
 31
0.0
  0
LINE
  5
20127
  8
SU
 10
393.9355649816797
 20
689.3057439485608
 30
0.0
 11
393.93556498167948
 21
340.1057439467258
 31
0.0
  0
LINE
  5
20129
  8
SU
 10
302.93556498346169
 20
358.1057439467258
 30
0.0
 11
356.93556498167948
 21
358.1057439467258
 31
0.0
  0
LINE
  5
2012A
  8
SU
 10
353.93556498167948
 20
358.1057439467258
 30
0.0
 11
353.93556498167959
 21
644.60574394670334
 31
0.0
  0
LINE
  5
2012D
  8
SU
 10
198.43554751230059
 20
147.28300748772199
 30
0.0
 11
220.43554751230059
 21
147.28300748772199
 31
0.0
  0
LINE
  5
2012E
  8
SU
 10
217.43554751230059
 20
159.28300748772199
 30
0.0
 11
217.43554751230059
 21
147.28300748772199
 31
0.0
  0
LINE
  5
20131
  8
SU
 10
138.9355471621009
 20
159.35523926173059
 30
0.0
 11
138.9355471621009
 21
124.283007487722
 31
0.0
  0
LINE
  5
20132
  8
SU
 10
165.9355478625009
 20
159.38300748177201
 30
0.0
 11
165.9355478625009
 21
124.283007487722
 31
0.0
  0
LINE
  5
20133
  8
SU
 10
138.9355471621009
 20
127.2830074877219
 30
0.0
 11
165.9355478625009
 21
127.2830074877219
 31
0.0
  0
LINE
  5
20137
  8
SU
 10
198.43554751230059
 20
159.28300748772199
 30
0.0
 11
220.43554751230059
 21
159.28300748772199
 31
0.0
  0
LINE
  5
20138
  8
SU
 10
217.43554751230059
 20
174.28300748772079
 30
0.0
 11
217.43554751230059
 21
159.28300748772199
 31
0.0
  0
LINE
  5
2013B
  8
SU
 10
169.93555629398219
 20
174.2830074877206
 30
0.0
 11
220.43554751230059
 21
174.2830074877206
 31
0.0
  0
LINE
  5
2013C
  8
SU
 10
217.43554751230059
 20
174.2830074877206
 30
0.0
 11
217.4355475123007
 21
254.28300748772079
 31
0.0
  0
LINE
  5
2013F
  8
SU
 10
271.4355562017804
 20
158.28300497103771
 30
0.0
 11
271.4355562017804
 21
124.2830070738972
 31
0.0
  0
LINE
  5
20140
  8
SU
 10
299.4355562017804
 20
158.28300497103771
 30
0.0
 11
299.4355562017804
 21
124.2830070738972
 31
0.0
  0
LINE
  5
20141
  8
SU
 10
271.4355562017804
 20
127.2830070738972
 30
0.0
 11
299.4355562017804
 21
127.2830070738972
 31
0.0
  0
LINE
  5
20145
  8
SU
 10
331.4355562017804
 20
159.2830049710368
 30
0.0
 11
353.4355562017804
 21
159.2830049710368
 31
0.0
  0
LINE
  5
20146
  8
SU
 10
350.43555620178051
 20
177.28300707389599
 30
0.0
 11
350.43555620178051
 21
159.2830049710368
 31
0.0
  0
LINE
  5
20149
  8
SU
 10
302.93555620177881
 20
177.28300707389579
 30
0.0
 11
353.4355562017804
 21
177.28300707389579
 31
0.0
  0
LINE
  5
2014A
  8
SU
 10
350.4355562017804
 20
177.28300707389579
 30
0.0
 11
350.4355562017804
 21
254.28300707389599
 31
0.0
  0
TEXT
  5
2014D
  8
SU
 10
946.4172814675992
 20
459.54999999998392
 30
0.0
 40
7.0
  1
21.5
 50
359.99999999999352
 41
0.8299999999999999
  0
TEXT
  5
20150
  8
SU
 10
544.41728146760386
 20
159.54999999999441
 30
0.0
 40
7.0
  1
21.5
 41
0.8299999999999999
  0
TEXT
  5
20153
  8
SU
 10
838.0989481342707
 20
459.55000000000302
 30
0.0
 40
7.0
  1
DW
 41
0.8299999999999999
  0
TEXT
  5
20156
  8
SU
 10
673.31728146760372
 20
179.55000000000069
 30
0.0
 40
7.0
  1
35
 41
0.8299999999999999
  0
TEXT
  5
20159
  8
SU
 10
720.84894813426445
 20
159.54999999999669
 30
0.0
 40
7.0
  1
DW
 50
359.99999999999352
 41
0.8299999999999999
  0
TEXT
  5
2015B
  8
SU
 10
902.31728146760099
 20
179.5499999999993
 30
0.0
 40
7.0
  1
35
 50
359.99999999999352
 41
0.8299999999999999
  0
TEXT
  5
2015E
  8
SU
 10
755.81728146760418
 20
479.55000000000018
 30
0.0
 40
7.0
  1
35
 41
0.8299999999999999
  0
TEXT
  5
20161
  8
SU
 10
720.05061480093696
 20
245.3166666666668
 30
0.0
 40
7.0
  1
22.5
 50
90.0
 41
0.8299999999999999
  0
TEXT
  5
20164
  8
SU
 10
720.05061480093696
 20
221.71666666666661
 30
0.0
 40
7.0
  1
33
 50
90.0
 41
0.8299999999999999
  0
TEXT
  5
20165
  8
SU
 10
720.05061480093696
 20
198.80166666666679
 30
0.0
 40
7.0
  1
12
 50
90.0
 41
0.8299999999999999
  0
TEXT
  5
20168
  8
SU
 10
852.84894813427036
 20
159.55000000000351
 30
0.0
 40
7.0
  1
DW
 41
0.8299999999999999
  0
TEXT
  5
2016B
  8
SU
 10
1022.917281467599
 20
159.55000000000169
 30
0.0
 40
7.0
  1
21.5
 50
359.99999999999352
 41
0.8299999999999999
  0
TEXT
  5
2016E
  8
SU
 10
788.60775765808023
 20
139.54999999999629
 30
0.0
 40
10.0
  1
W
 41
0.8299999999999999
  0
TEXT
  5
2016F
  8
SU
 10
911.5506148009373
 20
545.31666666666695
 30
0.0
 40
7.0
  1
22.5
 50
90.0
 41
0.8299999999999999
  0
TEXT
  5
20172
  8
SU
 10
911.5506148009373
 20
521.71666666666704
 30
0.0
 40
7.0
  1
33
 50
90.0
 41
0.8299999999999999
  0
TEXT
  5
20173
  8
SU
 10
911.5506148009373
 20
498.80166666666707
 30
0.0
 40
7.0
  1
12
 50
90.0
 41
0.8299999999999999
  0
TEXT
  5
20176
  8
SU
 10
544.41728146760386
 20
459.54999999998392
 30
0.0
 40
7.0
  1
21.5
 41
0.8299999999999999
  0
TEXT
  5
20179
  8
SU
 10
750.35775765808023
 20
439.54999999998398
 30
0.0
 40
10.0
  1
W
 41
0.8299999999999999
  0
TEXT
  5
2017A
  8
SU
 10
270.36389831592948
 20
710.60574394856064
 30
0.0
 40
7.0
  1
67.5
 41
0.8299999999999999
  0
TEXT
  5
2017D
  8
SU
 10
301.98723164926253
 20
584.90574394856026
 30
0.0
 40
7.0
  1
12
 41
0.8299999999999999
  0
TEXT
  5
20180
  8
SU
 10
279.9022316501792
 20
584.9057439485606
 30
0.0
 40
7.0
  1
33
 41
0.8299999999999999
  0
TEXT
  5
20181
  8
SU
 10
248.0022316501792
 20
584.90574394856071
 30
0.0
 40
7.0
  1
22.5
 41
0.8299999999999999
  0
TEXT
  5
20184
  8
SU
 10
260.54056498348717
 20
309.40574394672592
 30
0.0
 40
7.0
  1
39
 41
0.8299999999999999
  0
TEXT
  5
20187
  8
SU
 10
352.63556498167952
 20
343.15741066262632
 30
0.0
 40
7.0
  1
18
 50
90.0
 41
0.8299999999999999
  0
TEXT
  5
20189
  8
SU
 10
332.63556498167952
 20
616.20241061339243
 30
0.0
 40
7.0
  1
4.5
 50
90.0
 41
0.8299999999999999
  0
TEXT
  5
2018C
  8
SU
 10
352.63556498167941
 20
662.17574394672613
 30
0.0
 40
7.0
  1
7.5
 50
90.0
 41
0.8299999999999999
  0
TEXT
  5
2018F
  8
SU
 10
372.63556498167941
 20
655.02241061431005
 30
0.0
 40
7.0
  1
49.2
 50
90.0
 41
0.8299999999999999
  0
TEXT
  5
20192
  8
SU
 10
392.63556498167952
 20
510.35812490002428
 30
0.0
 40
10.0
  1
H
 50
90.0
 41
0.8299999999999999
  0
TEXT
  5
20193
  8
SU
 10
352.63556498167952
 20
495.40741061338139
 30
0.0
 40
7.0
  1
DH
 50
90.0
 41
0.8299999999999999
  0
TEXT
  5
20195
  8
SU
 10
216.1355475123006
 20
146.91532064824639
 30
0.0
 40
7.0
  1
12
 50
90.0
 41
0.8299999999999999
  0
TEXT
  5
20197
  8
SU
 10
144.27388084563421
 20
128.58300748772189
 30
0.0
 40
7.0
  1
\U+220527
 41
0.8299999999999999
  0
TEXT
  5
2019A
  8
SU
 10
216.1355475123006
 20
161.6538508399066
 30
0.0
 40
7.0
  1
15
 50
90.0
 41
0.8299999999999999
  0
TEXT
  5
2019C
  8
SU
 10
216.1355475123006
 20
208.33467415438739
 30
0.0
 40
7.0
  1
DH
 50
90.0
 41
0.8299999999999999
  0
TEXT
  5
2019E
  8
SU
 10
279.9022228684471
 20
128.58300707389719
 30
0.0
 40
7.0
  1
28
 41
0.8299999999999999
  0
TEXT
  5
201A1
  8
SU
 10
349.13555620178039
 20
162.33467374056329
 30
0.0
 40
7.0
  1
18
 50
90.0
 41
0.8299999999999999
  0
TEXT
  5
201A3
  8
SU
 10
349.13555620178028
 20
209.83467374056269
 30
0.0
 40
7.0
  1
DH
 50
90.0
 41
0.8299999999999999
  0
ARC
  5
201A6
  8
SU
 10
945.35061480093168
 20
458.24999999998391
 30
0.0
 40
0.6000000000000229
 50
179.99999999999449
 51
359.99999999999449
  0
ARC
  5
201A7
  8
SU
 10
966.85061480093293
 20
458.24999999998153
 30
0.0
 40
0.6000000000000229
 50
179.99999999999449
 51
359.99999999999449
  0
ARC
  5
201A8
  8
SU
 10
966.85061480093293
 20
458.24999999998153
 30
0.0
 40
0.6000000000000229
 50
359.99999999999449
 51
179.99999999999449
  0
ARC
  5
201A9
  8
SU
 10
564.85061480093725
 20
158.2499999999944
 30
0.0
 40
0.6000000000000229
 50
180.0
 51
0.0
  0
ARC
  5
201AA
  8
SU
 10
564.85061480093725
 20
158.2499999999944
 30
0.0
 40
0.6000000000000229
 50
0.0
 51
180.0
  0
ARC
  5
201AB
  8
SU
 10
543.35061480093736
 20
158.2499999999944
 30
0.0
 40
0.6000000000000229
 50
0.0
 51
180.0
  0
ARC
  5
201AC
  8
SU
 10
543.35061480093736
 20
158.2499999999944
 30
0.0
 40
0.6000000000000229
 50
180.0
 51
0.0
  0
ARC
  5
201AE
  8
SU
 10
945.35061480093736
 20
458.25000000000301
 30
0.0
 40
0.6000000000000229
 50
0.0
 51
180.0
  0
ARC
  5
201AF
  8
SU
 10
743.85061480093725
 20
458.25000000000301
 30
0.0
 40
0.6000000000000229
 50
0.0
 51
180.0
  0
ARC
  5
201B0
  8
SU
 10
743.85061480093725
 20
458.25000000000301
 30
0.0
 40
0.6000000000000229
 50
180.0
 51
0.0
  0
ARC
  5
201B1
  8
SU
 10
696.35061480093714
 20
178.25000000000071
 30
0.0
 40
0.6000000000000229
 50
180.0
 51
0.0
  0
ARC
  5
201B2
  8
SU
 10
696.35061480093714
 20
178.25000000000071
 30
0.0
 40
0.6000000000000229
 50
0.0
 51
180.0
  0
ARC
  5
201B3
  8
SU
 10
661.35061480093702
 20
178.25000000000071
 30
0.0
 40
0.6000000000000229
 50
0.0
 51
180.0
  0
ARC
  5
201B4
  8
SU
 10
661.35061480093702
 20
178.25000000000071
 30
0.0
 40
0.6000000000000229
 50
180.0
 51
0.0
  0
ARC
  5
201B5
  8
SU
 10
661.35061480093088
 20
158.2500000000035
 30
0.0
 40
0.6000000000000229
 50
359.99999999999449
 51
179.99999999999449
  0
ARC
  5
201B6
  8
SU
 10
661.35061480093088
 20
158.2500000000035
 30
0.0
 40
0.6000000000000229
 50
179.99999999999449
 51
359.99999999999449
  0
ARC
  5
201B7
  8
SU
 10
890.3506148009343
 20
178.25000000000071
 30
0.0
 40
0.6000000000000229
 50
359.99999999999449
 51
179.99999999999449
  0
ARC
  5
201B8
  8
SU
 10
890.3506148009343
 20
178.25000000000071
 30
0.0
 40
0.6000000000000229
 50
179.99999999999449
 51
359.99999999999449
  0
ARC
  5
201B9
  8
SU
 10
925.35061480093395
 20
178.2499999999967
 30
0.0
 40
0.6000000000000229
 50
179.99999999999449
 51
359.99999999999449
  0
ARC
  5
201BA
  8
SU
 10
925.35061480093395
 20
178.2499999999967
 30
0.0
 40
0.6000000000000229
 50
359.99999999999449
 51
179.99999999999449
  0
ARC
  5
201BB
  8
SU
 10
778.85061480093759
 20
478.25000000000023
 30
0.0
 40
0.6000000000000229
 50
180.0
 51
0.0
  0
ARC
  5
201BC
  8
SU
 10
778.85061480093759
 20
478.25000000000023
 30
0.0
 40
0.6000000000000229
 50
0.0
 51
180.0
  0
ARC
  5
201BD
  8
SU
 10
743.85061480093736
 20
478.25000000000023
 30
0.0
 40
0.6000000000000229
 50
0.0
 51
180.0
  0
ARC
  5
201BE
  8
SU
 10
743.85061480093736
 20
478.25000000000023
 30
0.0
 40
0.6000000000000229
 50
180.0
 51
0.0
  0
ARC
  5
201BF
  8
SU
 10
721.35061480093702
 20
266.25
 30
0.0
 40
0.6000000000000229
 50
270.0
 51
90.0
  0
ARC
  5
201C0
  8
SU
 10
721.35061480093702
 20
266.25
 30
0.0
 40
0.6000000000000229
 50
90.0
 51
270.0
  0
ARC
  5
201C1
  8
SU
 10
721.3506148009368
 20
243.75
 30
0.0
 40
0.5999999999999944
 50
90.0
 51
270.0
  0
ARC
  5
201C2
  8
SU
 10
721.3506148009368
 20
243.75
 30
0.0
 40
0.5999999999999944
 50
270.0
 51
90.0
  0
ARC
  5
201C3
  8
SU
 10
721.35061480093702
 20
198.75000000000031
 30
0.0
 40
0.5999999999999944
 50
90.0
 51
270.0
  0
ARC
  5
201C4
  8
SU
 10
721.35061480093702
 20
198.75000000000031
 30
0.0
 40
0.5999999999999944
 50
270.0
 51
90.0
  0
ARC
  5
201C5
  8
SU
 10
721.35061480093702
 20
210.74999999999969
 30
0.0
 40
0.5999999999999944
 50
270.0
 51
90.0
  0
ARC
  5
201C6
  8
SU
 10
721.35061480093702
 20
210.74999999999969
 30
0.0
 40
0.5999999999999944
 50
90.0
 51
270.0
  0
ARC
  5
201C7
  8
SU
 10
925.35061480093725
 20
158.2500000000035
 30
0.0
 40
0.6000000000000229
 50
180.0
 51
0.0
  0
ARC
  5
201C8
  8
SU
 10
925.35061480093725
 20
158.2500000000035
 30
0.0
 40
0.6000000000000229
 50
0.0
 51
180.0
  0
ARC
  5
201C9
  8
SU
 10
793.35061480093668
 20
158.2500000000035
 30
0.0
 40
0.6000000000000229
 50
0.0
 51
180.0
  0
ARC
  5
201CA
  8
SU
 10
793.35061480093668
 20
158.2500000000035
 30
0.0
 40
0.6000000000000229
 50
180.0
 51
0.0
  0
ARC
  5
201CB
  8
SU
 10
1021.850614800931
 20
158.2500000000019
 30
0.0
 40
0.6000000000000229
 50
359.99999999999449
 51
179.99999999999449
  0
ARC
  5
201CC
  8
SU
 10
1021.850614800931
 20
158.2500000000019
 30
0.0
 40
0.6000000000000229
 50
179.99999999999449
 51
359.99999999999449
  0
ARC
  5
201CD
  8
SU
 10
1043.350614800933
 20
158.2499999999994
 30
0.0
 40
0.5999999999999091
 50
179.99999999999449
 51
359.99999999999449
  0
ARC
  5
201CE
  8
SU
 10
1043.350614800933
 20
158.2499999999994
 30
0.0
 40
0.5999999999999091
 50
359.99999999999449
 51
179.99999999999449
  0
ARC
  5
201CF
  8
SU
 10
912.85061480093748
 20
566.25000000000023
 30
0.0
 40
0.6000000000000229
 50
270.0
 51
90.0
  0
ARC
  5
201D0
  8
SU
 10
912.85061480093748
 20
566.25000000000023
 30
0.0
 40
0.6000000000000229
 50
90.0
 51
270.0
  0
ARC
  5
201D1
  8
SU
 10
912.85061480093748
 20
543.75000000000023
 30
0.0
 40
0.6000000000000229
 50
90.0
 51
270.0
  0
ARC
  5
201D2
  8
SU
 10
912.85061480093748
 20
543.75000000000023
 30
0.0
 40
0.6000000000000229
 50
270.0
 51
90.0
  0
ARC
  5
201D3
  8
SU
 10
912.85061480093748
 20
498.75000000000028
 30
0.0
 40
0.6000000000000229
 50
90.0
 51
270.0
  0
ARC
  5
201D4
  8
SU
 10
912.85061480093748
 20
498.75000000000028
 30
0.0
 40
0.6000000000000229
 50
270.0
 51
90.0
  0
ARC
  5
201D5
  8
SU
 10
912.85061480093748
 20
510.75000000000023
 30
0.0
 40
0.6000000000000229
 50
270.0
 51
90.0
  0
ARC
  5
201D6
  8
SU
 10
912.85061480093748
 20
510.75000000000023
 30
0.0
 40
0.6000000000000229
 50
90.0
 51
270.0
  0
ARC
  5
201D7
  8
SU
 10
564.85061480093725
 20
458.24999999998391
 30
0.0
 40
0.6000000000000229
 50
180.0
 51
0.0
  0
ARC
  5
201D8
  8
SU
 10
564.85061480093725
 20
458.24999999998391
 30
0.0
 40
0.6000000000000229
 50
0.0
 51
180.0
  0
ARC
  5
201D9
  8
SU
 10
543.35061480093736
 20
458.24999999998391
 30
0.0
 40
0.6000000000000229
 50
0.0
 51
180.0
  0
ARC
  5
201DA
  8
SU
 10
543.35061480093736
 20
458.24999999998391
 30
0.0
 40
0.6000000000000229
 50
180.0
 51
0.0
  0
ARC
  5
201DB
  8
SU
 10
246.43556498351271
 20
709.30574394856069
 30
0.0
 40
0.5999999999999944
 50
0.0
 51
180.0
  0
ARC
  5
201DC
  8
SU
 10
246.43556498351271
 20
709.30574394856069
 30
0.0
 40
0.5999999999999944
 50
180.0
 51
0.0
  0
ARC
  5
201DD
  8
SU
 10
313.9355649816797
 20
709.30574394856069
 30
0.0
 40
0.6000000000000229
 50
180.0
 51
0.0
  0
ARC
  5
201DE
  8
SU
 10
313.9355649816797
 20
709.30574394856069
 30
0.0
 40
0.6000000000000229
 50
0.0
 51
180.0
  0
ARC
  5
201DF
  8
SU
 10
313.93556498167919
 20
583.60574394856042
 30
0.0
 40
0.6000000000000229
 50
180.0
 51
0.0
  0
ARC
  5
201E0
  8
SU
 10
313.93556498167919
 20
583.60574394856042
 30
0.0
 40
0.6000000000000229
 50
0.0
 51
180.0
  0
ARC
  5
201E1
  8
SU
 10
301.93556498351251
 20
583.60574394856042
 30
0.0
 40
0.6000000000000229
 50
0.0
 51
180.0
  0
ARC
  5
201E2
  8
SU
 10
301.93556498351251
 20
583.60574394856042
 30
0.0
 40
0.6000000000000229
 50
180.0
 51
0.0
  0
ARC
  5
201E3
  8
SU
 10
246.43556498351271
 20
583.60574394856064
 30
0.0
 40
0.5999999999999944
 50
0.0
 51
180.0
  0
ARC
  5
201E4
  8
SU
 10
246.43556498351271
 20
583.60574394856064
 30
0.0
 40
0.5999999999999944
 50
180.0
 51
0.0
  0
ARC
  5
201E5
  8
SU
 10
268.93556498351251
 20
583.60574394856064
 30
0.0
 40
0.6000000000000229
 50
180.0
 51
0.0
  0
ARC
  5
201E6
  8
SU
 10
268.93556498351251
 20
583.60574394856064
 30
0.0
 40
0.6000000000000229
 50
0.0
 51
180.0
  0
ARC
  5
201E7
  8
SU
 10
285.4355649834618
 20
308.1057439467258
 30
0.0
 40
0.6000000000000229
 50
180.0
 51
0.0
  0
ARC
  5
201E8
  8
SU
 10
285.4355649834618
 20
308.1057439467258
 30
0.0
 40
0.6000000000000229
 50
0.0
 51
180.0
  0
ARC
  5
201E9
  8
SU
 10
246.43556498351259
 20
308.1057439467258
 30
0.0
 40
0.5999999999999944
 50
0.0
 51
180.0
  0
ARC
  5
201EA
  8
SU
 10
246.43556498351259
 20
308.1057439467258
 30
0.0
 40
0.5999999999999944
 50
180.0
 51
0.0
  0
ARC
  5
201EB
  8
SU
 10
353.93556498167948
 20
340.10574394672591
 30
0.0
 40
0.6000000000000229
 50
90.0
 51
270.0
  0
ARC
  5
201EC
  8
SU
 10
353.93556498167948
 20
340.10574394672591
 30
0.0
 40
0.6000000000000229
 50
270.0
 51
90.0
  0
ARC
  5
201ED
  8
SU
 10
333.9355649816797
 20
640.10574394672574
 30
0.0
 40
0.6000000000000229
 50
90.0
 51
270.0
  0
ARC
  5
201EE
  8
SU
 10
333.9355649816797
 20
640.10574394672574
 30
0.0
 40
0.6000000000000229
 50
270.0
 51
90.0
  0
ARC
  5
201EF
  8
SU
 10
333.9355649816797
 20
644.60574394670334
 30
0.0
 40
0.6000000000000229
 50
270.0
 51
90.0
  0
ARC
  5
201F0
  8
SU
 10
333.9355649816797
 20
644.60574394670334
 30
0.0
 40
0.6000000000000229
 50
90.0
 51
270.0
  0
ARC
  5
201F1
  8
SU
 10
353.93556498167948
 20
652.10574394672597
 30
0.0
 40
0.6000000000000229
 50
270.0
 51
90.0
  0
ARC
  5
201F2
  8
SU
 10
353.93556498167948
 20
652.10574394672597
 30
0.0
 40
0.6000000000000229
 50
90.0
 51
270.0
  0
ARC
  5
201F3
  8
SU
 10
353.93556498167948
 20
644.60574394670334
 30
0.0
 40
0.6000000000000229
 50
90.0
 51
270.0
  0
ARC
  5
201F4
  8
SU
 10
353.93556498167948
 20
644.60574394670334
 30
0.0
 40
0.6000000000000229
 50
270.0
 51
90.0
  0
ARC
  5
201F5
  8
SU
 10
373.93556498167948
 20
689.3057439485608
 30
0.0
 40
0.6000000000000229
 50
270.0
 51
90.0
  0
ARC
  5
201F6
  8
SU
 10
373.93556498167948
 20
689.3057439485608
 30
0.0
 40
0.6000000000000229
 50
90.0
 51
270.0
  0
ARC
  5
201F7
  8
SU
 10
373.93556498167948
 20
640.10574394672574
 30
0.0
 40
0.6000000000000229
 50
90.0
 51
270.0
  0
ARC
  5
201F8
  8
SU
 10
373.93556498167948
 20
640.10574394672574
 30
0.0
 40
0.6000000000000229
 50
270.0
 51
90.0
  0
ARC
  5
201F9
  8
SU
 10
353.93556498167948
 20
358.1057439467258
 30
0.0
 40
0.6000000000000229
 50
90.0
 51
270.0
  0
ARC
  5
201FA
  8
SU
 10
353.93556498167948
 20
358.1057439467258
 30
0.0
 40
0.6000000000000229
 50
270.0
 51
90.0
  0
ARC
  5
201FB
  8
SU
 10
217.43554751230059
 20
147.28300748772199
 30
0.0
 40
0.5999999999999944
 50
90.0
 51
270.0
  0
ARC
  5
201FC
  8
SU
 10
217.43554751230059
 20
147.28300748772199
 30
0.0
 40
0.5999999999999944
 50
270.0
 51
90.0
  0
ARC
  5
201FD
  8
SU
 10
165.9355478625009
 20
127.2830074877219
 30
0.0
 40
0.5999999999999944
 50
180.0
 51
0.0
  0
ARC
  5
201FE
  8
SU
 10
165.9355478625009
 20
127.2830074877219
 30
0.0
 40
0.5999999999999944
 50
0.0
 51
180.0
  0
ARC
  5
201FF
  8
SU
 10
138.9355471621009
 20
127.2830074877219
 30
0.0
 40
0.5999999999999944
 50
0.0
 51
180.0
  0
ARC
  5
20200
  8
SU
 10
138.9355471621009
 20
127.2830074877219
 30
0.0
 40
0.5999999999999944
 50
180.0
 51
0.0
  0
ARC
  5
20201
  8
SU
 10
217.43554751230059
 20
159.28300748772199
 30
0.0
 40
0.5999999999999944
 50
90.0
 51
270.0
  0
ARC
  5
20202
  8
SU
 10
217.43554751230059
 20
159.28300748772199
 30
0.0
 40
0.5999999999999944
 50
270.0
 51
90.0
  0
ARC
  5
20203
  8
SU
 10
217.43554751230059
 20
174.2830074877206
 30
0.0
 40
0.5999999999999944
 50
90.0
 51
270.0
  0
ARC
  5
20204
  8
SU
 10
217.43554751230059
 20
174.2830074877206
 30
0.0
 40
0.5999999999999944
 50
270.0
 51
90.0
  0
ARC
  5
20205
  8
SU
 10
299.4355562017804
 20
127.2830070738972
 30
0.0
 40
0.6000000000000229
 50
180.0
 51
0.0
  0
ARC
  5
20206
  8
SU
 10
299.4355562017804
 20
127.2830070738972
 30
0.0
 40
0.6000000000000229
 50
0.0
 51
180.0
  0
ARC
  5
20207
  8
SU
 10
271.4355562017804
 20
127.2830070738972
 30
0.0
 40
0.6000000000000229
 50
0.0
 51
180.0
  0
ARC
  5
20208
  8
SU
 10
271.4355562017804
 20
127.2830070738972
 30
0.0
 40
0.6000000000000229
 50
180.0
 51
0.0
  0
ARC
  5
20209
  8
SU
 10
350.43555620178051
 20
159.2830049710368
 30
0.0
 40
0.5999999999999944
 50
90.0
 51
270.0
  0
ARC
  5
2020A
  8
SU
 10
350.43555620178051
 20
159.2830049710368
 30
0.0
 40
0.5999999999999944
 50
270.0
 51
90.0
  0
ARC
  5
2020B
  8
SU
 10
350.4355562017804
 20
177.28300707389579
 30
0.0
 40
0.5999999999999944
 50
90.0
 51
270.0
  0
ARC
  5
2020C
  8
SU
 10
350.4355562017804
 20
177.28300707389579
 30
0.0
 40
0.5999999999999944
 50
270.0
 51
90.0
  0
ENDSEC
  0
EOF
