  0
SECTION
  2
HEADER
  9
$ACADVER
  1
AC1009
  9
$INSBASE
 10
0.0
 20
0.0
 30
0.0
  9
$EXTMIN
 10
19.300000000000001
 20
16.25
 30
0.0
  9
$EXTMAX
 10
1165.5
 20
830.74999999999989
 30
0.0
  9
$LIMMIN
 10
0.0
 20
0.0
  9
$LIMMAX
 10
1189.0
 20
841.0
  9
$ORTHOMODE
 70
     1
  9
$REGENMODE
 70
     1
  9
$FILLMODE
 70
     1
  9
$QTEXTMODE
 70
     0
  9
$MIRRTEXT
 70
     0
  9
$DRAGMODE
 70
     2
  9
$LTSCALE
 40
1.0
  9
$OSMODE
 70
  3071
  9
$ATTMODE
 70
     1
  9
$TEXTSIZE
 40
12.5
  9
$TRACEWID
 40
1.0
  9
$TEXTSTYLE
  7
STANDARD
  9
$CLAYER
  8
0
  9
$CELTYPE
  6
BYLAYER
  9
$CECOLOR
 62
   256
  9
$DIMSCALE
 40
1.0
  9
$DIMASZ
 40
7.0
  9
$DIMEXO
 40
1.0
  9
$DIMDLI
 40
7.0
  9
$DIMRND
 40
0.0
  9
$DIMDLE
 40
0.0
  9
$DIMEXE
 40
3.0
  9
$DIMTP
 40
0.1
  9
$DIMTM
 40
0.1
  9
$DIMTXT
 40
7.0
  9
$DIMCEN
 40
0.0
  9
$DIMTSZ
 40
0.0
  9
$DIMTOL
 70
     0
  9
$DIMLIM
 70
     0
  9
$DIMTIH
 70
     0
  9
$DIMTOH
 70
     0
  9
$DIMSE1
 70
     0
  9
$DIMSE2
 70
     0
  9
$DIMTAD
 70
     1
  9
$DIMZIN
 70
     8
  9
$DIMBLK
  1
DOTSMALL
  9
$DIMASO
 70
     1
  9
$DIMSHO
 70
     1
  9
$DIMPOST
  1

  9
$DIMAPOST
  1
"
  9
$DIMALT
 70
     0
  9
$DIMALTD
 70
     2
  9
$DIMALTF
 40
0.0393701
  9
$DIMLFAC
 40
1.0
  9
$DIMTOFL
 70
     1
  9
$DIMTVP
 40
0.0
  9
$DIMTIX
 70
     0
  9
$DIMSOXD
 70
     0
  9
$DIMSAH
 70
     0
  9
$DIMBLK1
  1

  9
$DIMBLK2
  1

  9
$DIMSTYLE
  2
SANKYO
  9
$DIMCLRD
 70
   256
  9
$DIMCLRE
 70
   256
  9
$DIMCLRT
 70
   256
  9
$DIMTFAC
 40
0.71
  9
$DIMGAP
 40
1.3
  9
$LUNITS
 70
     2
  9
$LUPREC
 70
     4
  9
$SKETCHINC
 40
1.0
  9
$FILLETRAD
 40
0.4
  9
$AUNITS
 70
     0
  9
$AUPREC
 70
     0
  9
$MENU
  1
.
  9
$ELEVATION
 40
0.0
  9
$PELEVATION
 40
0.0
  9
$THICKNESS
 40
0.0
  9
$LIMCHECK
 70
     0
  9
$BLIPMODE
 70
     0
  9
$CHAMFERA
 40
10.0
  9
$CHAMFERB
 40
10.0
  9
$SKPOLY
 70
     0
  9
$TDCREATE
 40
2455110.561913426
  9
$TDUPDATE
 40
2459033.566053391
  9
$TDINDWG
 40
2.1152611111000001
  9
$TDUSRTIMER
 40
2.1150654630000001
  9
$USRTIMER
 70
     1
  9
$ANGBASE
 50
0.0
  9
$ANGDIR
 70
     0
  9
$PDMODE
 70
     0
  9
$PDSIZE
 40
0.0
  9
$PLINEWID
 40
0.0
  9
$COORDS
 70
     2
  9
$SPLFRAME
 70
     0
  9
$SPLINETYPE
 70
     6
  9
$SPLINESEGS
 70
     8
  9
$ATTDIA
 70
     1
  9
$ATTREQ
 70
     1
  9
$HANDLING
 70
     1
  9
$HANDSEED
  5
1F70C
  9
$SURFTAB1
 70
     6
  9
$SURFTAB2
 70
     6
  9
$SURFTYPE
 70
     6
  9
$SURFU
 70
     6
  9
$SURFV
 70
     6
  9
$UCSNAME
  2

  9
$UCSORG
 10
0.0
 20
0.0
 30
0.0
  9
$UCSXDIR
 10
1.0
 20
0.0
 30
0.0
  9
$UCSYDIR
 10
0.0
 20
1.0
 30
0.0
  9
$PUCSNAME
  2

  9
$PUCSORG
 10
0.0
 20
0.0
 30
0.0
  9
$PUCSXDIR
 10
1.0
 20
0.0
 30
0.0
  9
$PUCSYDIR
 10
0.0
 20
1.0
 30
0.0
  9
$USERI1
 70
     0
  9
$USERI2
 70
     0
  9
$USERI3
 70
     0
  9
$USERI4
 70
     0
  9
$USERI5
 70
     0
  9
$USERR1
 40
0.0
  9
$USERR2
 40
0.0
  9
$USERR3
 40
0.0
  9
$USERR4
 40
0.0
  9
$USERR5
 40
0.0
  9
$WORLDVIEW
 70
     1
  9
$SHADEDGE
 70
     3
  9
$SHADEDIF
 70
    70
  9
$TILEMODE
 70
     1
  9
$MAXACTVP
 70
    48
  9
$PLIMCHECK
 70
     0
  9
$PEXTMIN
 10
1.0000000000000000E+020
 20
1.0000000000000000E+020
 30
1.0000000000000000E+020
  9
$PEXTMAX
 10
-1.0000000000000000E+020
 20
-1.0000000000000000E+020
 30
-1.0000000000000000E+020
  9
$PLIMMIN
 10
0.0
 20
0.0
  9
$PLIMMAX
 10
420.0
 20
297.0
  9
$UNITMODE
 70
     0
  9
$VISRETAIN
 70
     1
  9
$PLINEGEN
 70
     0
  9
$PSLTSCALE
 70
     1
  0
ENDSEC
  0
SECTION
  2
TABLES
  0
TABLE
  2
VPORT
 70
     1
  0
VPORT
  2
*ACTIVE
 70
     0
 10
0.0
 20
0.0
 11
1.0
 21
1.0
 12
592.41359224346638
 22
423.48359113394218
 13
0.0
 23
0.0
 14
2.5
 24
2.5
 15
10.0
 25
10.0
 16
0.0
 26
0.0
 36
1.0
 17
0.0
 27
0.0
 37
0.0
 40
820.92390940123255
 41
2.050913838120104
 42
50.0
 43
0.0
 44
0.0
 50
0.0
 51
0.0
 71
     0
 72
   100
 73
     1
 74
     1
 75
     0
 76
     0
 77
     0
 78
     0
  0
ENDTAB
  0
TABLE
  2
LTYPE
 70
    28
  0
LTYPE
  2
CONTINUOUS
 70
     0
  3
Solid line
 72
    65
 73
     0
 40
0.0
  0
LTYPE
  2
CENTER
 70
     0
  3
Center ____ _ ____ _ ____ _ ____ _ ____ _ ____
 72
    65
 73
     4
 40
50.799999999999997
 49
31.75
 49
-6.3499999999999988
 49
6.3499999999999988
 49
-6.3499999999999988
  0
LTYPE
  2
CENTER2
 70
     0
  3
Center (.5x) ___ _ ___ _ ___ _ ___ _ ___ _ ___
 72
    65
 73
     4
 40
28.574999999999999
 49
19.050000000000001
 49
-3.1749999999999989
 49
3.1749999999999989
 49
-3.1749999999999989
  0
LTYPE
  2
PHANTOM
 70
     0
  3
Phantom ______  __  __  ______  __  __  ______
 72
    65
 73
     6
 40
63.5
 49
31.75
 49
-6.3499999999999988
 49
6.3499999999999988
 49
-6.3499999999999988
 49
6.3499999999999988
 49
-6.3499999999999988
  0
LTYPE
  2
PHANTOM2
 70
     0
  3
Phantom (.5x) ___ _ _ ___ _ _ ___ _ _ ___ _ _
 72
    65
 73
     6
 40
31.75
 49
15.875
 49
-3.1749999999999989
 49
3.1749999999999989
 49
-3.1749999999999989
 49
3.1749999999999989
 49
-3.1749999999999989
  0
LTYPE
  2
DASHED
 70
     0
  3
Dashed __ __ __ __ __ __ __ __ __ __ __ __ __ _
 72
    65
 73
     2
 40
19.050000000000001
 49
12.699999999999999
 49
-6.3499999999999988
  0
LTYPE
  2
DASHED2
 70
     0
  3
Dashed (.5x) _ _ _ _ _ _ _ _ _ _ _ _ _ _ _ _ _
 72
    65
 73
     2
 40
9.5249999999999986
 49
6.3499999999999988
 49
-3.1749999999999989
  0
LTYPE
  2
ZIGZAG
 70
     0
  3
Zig zag /\/\/\/\/\/\/\/\/\/\/\/\/\/\/\/\/\/\/\/
 72
    65
 73
     4
 40
20.32254
 49
0.00254
 49
-5.0800000000000001
 49
-10.16
 49
-5.0800000000000001
  0
LTYPE
  2
AM_ISO02W050
 70
     0
  3
__ __ __ __ __ __ __ __ __ __ __ __ __ __ __
 72
    65
 73
     2
 40
7.5
 49
6.0
 49
-1.5
  0
LTYPE
  2
AMCONSTR
 70
     0
  3
_______________________
 72
    65
 73
     2
 40
9999.0
 49
9999.0
 49
0.0
  0
LTYPE
  2
AMZIGZAG
 70
     0
  3
/\/-/\/-/\/-/\/-/\/-/\/
 72
    65
 73
     2
 40
11.0001
 49
0.0001
 49
-11.0
  0
LTYPE
  2
ACJISTGB
 70
     0
  3
__ . . __ . .
 72
    65
 73
     6
 40
9.0
 49
4.0
 49
-1.0
 49
1.0
 49
-1.0
 49
1.0
 49
-1.0
  0
LTYPE
  2
ACJISTGL
 70
     0
  3
_ _ _ _ _
 72
    65
 73
     2
 40
3.0
 49
2.0
 49
-1.0
  0
LTYPE
  2
ACISOWELD
 70
     0
  3
_ _ _ _ _
 72
    65
 73
     2
 40
2.0
 49
2.0
 49
-1.0
  0
LTYPE
  2
ACISOTGB
 70
     0
  3
__ . . __ . .
 72
    65
 73
     6
 40
9.0
 49
4.0
 49
-1.0
 49
1.0
 49
-1.0
 49
1.0
 49
-1.0
  0
LTYPE
  2
ACISOTGL
 70
     0
  3
_ _ _ _ _
 72
    65
 73
     2
 40
3.0
 49
2.0
 49
-1.0
  0
LTYPE
  2
HIDDEN
 70
     0
  3
Hidden __ __ __ __ __ __ __ __ __ __ __ __ __ _
 72
    65
 73
     2
 40
9.5249999999999986
 49
6.3499999999999988
 49
-3.1749999999999989
  0
LTYPE
  2
AM_ISO08W050
 70
     0
  3
____ . ____ . ____ . ____ . ____ . ____ . ____
 72
    65
 73
     4
 40
18.0
 49
12.0
 49
-1.5
 49
3.0
 49
-1.5
  0
LTYPE
  2
AM_ISO09W050
 70
     0
  3
_____ . . _____ . . _____ . . ____ .. ____
 72
    65
 73
     6
 40
22.5
 49
12.0
 49
-1.5
 49
3.0
 49
-1.5
 49
3.0
 49
-1.5
  0
LTYPE
  2
AM_ISO08W050X2
 70
     0
  3
__ . __ . __ . __ . __ . __
 72
    65
 73
     4
 40
9.0
 49
6.0
 49
-0.75
 49
1.5
 49
-0.75
  0
LTYPE
  2
AM_ISO02W050X2
 70
     0
  3
 _ _ _ _ _ _ _ _ _ _ _ _
 72
    65
 73
     2
 40
3.75
 49
3.0
 49
-0.75
  0
LTYPE
  2
DDM
 70
     0
  3
中点線
 72
    65
 73
     2
 40
3.0
 49
2.0
 49
-1.0
  0
LTYPE
  2
DD1
 70
     0
  3
一点鎖線
 72
    65
 73
     4
 40
11.1
 49
7.5
 49
-1.1999999999999991
 49
1.1999999999999991
 49
-1.1999999999999991
  0
LTYPE
  2
DD2
 70
     0
  3
二点鎖線
 72
    65
 73
     6
 40
12.0
 49
6.0
 49
-1.1999999999999991
 49
1.1999999999999991
 49
-1.1999999999999991
 49
1.1999999999999991
 49
-1.1999999999999991
  0
LTYPE
  2
CENTER1
 70
     0
  3
----- - ----- - ----- - ----- - 
 72
    65
 73
     4
 40
10.0
 49
6.25
 49
-1.25
 49
1.25
 49
-1.25
  0
LTYPE
  2
HIDDEN2
 70
     0
  3
Hidden (.5x) _ _ _ _ _ _ _ _ _ _ _ _ _ _ _ _ _
 72
    65
 73
     2
 40
0.1875
 49
0.125
 49
-0.0625
  0
LTYPE
  2
ACANSTGB
 70
     0
  3
__ . . __ . .
 72
    65
 73
     6
 40
0.35433070866
 49
0.15748031496
 49
-0.03937007874
 49
0.03937007874
 49
-0.03937007874
 49
0.03937007874
 49
-0.03937007874
  0
LTYPE
  2
ACANSTGL
 70
     0
  3
_ _ _ _ _
 72
    65
 73
     2
 40
0.11811023622
 49
0.07874015748
 49
-0.03937007874
  0
ENDTAB
  0
TABLE
  2
LAYER
 70
    11
  0
LAYER
  2
0
 70
     0
 62
     7
  6
CONTINUOUS
  0
LAYER
  2
KI1
 70
     0
 62
     7
  6
CONTINUOUS
  0
LAYER
  2
SU
 70
     0
 62
     3
  6
CONTINUOUS
  0
LAYER
  2
MJ
 70
     0
 62
     2
  6
CONTINUOUS
  0
LAYER
  2
OS
 70
     0
 62
     2
  6
CONTINUOUS
  0
LAYER
  2
KI2
 70
     0
 62
     4
  6
CONTINUOUS
  0
LAYER
  2
PH
 70
     0
 62
     6
  6
PHANTOM2
  0
LAYER
  2
WK
 70
     4
 62
     7
  6
CONTINUOUS
  0
LAYER
  2
DEFPOINTS
 70
     1
 62
     7
  6
CONTINUOUS
  0
LAYER
  2
TS
 70
     0
 62
     6
  6
DASHED2
  0
LAYER
  2
CL
 70
     0
 62
     4
  6
CENTER2
  0
ENDTAB
  0
TABLE
  2
STYLE
 70
     4
  0
STYLE
  2
STANDARD
 70
     0
 40
0.0
 41
0.8299999999999999
 50
0.0
 71
     0
 42
12.5
  3
romans.shx
  4
extfont.shx
  0
STYLE
  2

 70
     1
 40
0.0
 41
1.0
 50
0.0
 71
     0
 42
2.5
  3
ltypeshp.shx
  4

  0
STYLE
  2
ACISOGDT
 70
     0
 40
0.0
 41
1.0
 50
0.0
 71
     0
 42
2.5
  3
amgdt.shx
  4

  0
STYLE
  2
ACANSGDT
 70
     0
 40
0.0
 41
1.0
 50
0.0
 71
     0
 42
12.5
  3
amgdt.shx
  4

  0
ENDTAB
  0
TABLE
  2
VIEW
 70
     6
  0
VIEW
  2
AM_VIEW1
 70
     0
 40
297.5
 10
-194.33547008547001
 20
148.25
 41
457.32905982905982
 11
0.0
 21
0.0
 31
1.0
 12
0.0
 22
0.0
 32
0.0
 42
50.0
 43
0.0
 44
0.0
 50
0.0
 71
     0
  0
VIEW
  2
AM_VIEW2
 70
     0
 40
297.5
 10
189.33547008547001
 20
148.25
 41
457.32905982905982
 11
0.0
 21
0.0
 31
1.0
 12
0.0
 22
0.0
 32
0.0
 42
50.0
 43
0.0
 44
0.0
 50
0.0
 71
     0
  0
VIEW
  2
AM_VIEW3
 70
     0
 40
297.5
 10
-194.33547008547001
 20
-149.25
 41
457.32905982905982
 11
0.0
 21
0.0
 31
1.0
 12
0.0
 22
0.0
 32
0.0
 42
50.0
 43
0.0
 44
0.0
 50
0.0
 71
     0
  0
VIEW
  2
AM_VIEW4
 70
     0
 40
297.5
 10
189.33547008547001
 20
-149.25
 41
457.32905982905982
 11
0.0
 21
0.0
 31
1.0
 12
0.0
 22
0.0
 32
0.0
 42
50.0
 43
0.0
 44
0.0
 50
0.0
 71
     0
  0
VIEW
  2
AM_VIEW5
 70
     0
 40
297.5
 10
-2.5
 20
-0.5
 41
457.32905982905982
 11
0.0
 21
0.0
 31
1.0
 12
0.0
 22
0.0
 32
0.0
 42
50.0
 43
0.0
 44
0.0
 50
0.0
 71
     0
  0
VIEW
  2
AM_VIEW6
 70
     0
 40
594.99405000000002
 10
-2.5
 20
-0.5
 41
914.6489730769232
 11
0.0
 21
0.0
 31
1.0
 12
0.0
 22
0.0
 32
0.0
 42
50.0
 43
0.0
 44
0.0
 50
0.0
 71
     0
  0
ENDTAB
  0
TABLE
  2
UCS
 70
     0
  0
ENDTAB
  0
TABLE
  2
APPID
 70
    48
  0
APPID
  2
ACAD
 70
     0
  0
APPID
  2
MCAD_NO_VIS
 70
     0
  0
APPID
  2
ACAD_TEMP_GRAPHIC
 70
     0
  0
APPID
  2
ACATTRIBSERVICES
 70
     0
  0
APPID
  2
GENIUS_GENDIMSH_14
 70
     0
  0
APPID
  2
GENIUS_GENODEF_13
 70
     0
  0
APPID
  2
GENIUS_GENOENT_13
 70
     0
  0
APPID
  2
GENIUS_GENOBJ-N-TIT_13
 70
     0
  0
APPID
  2
GENIUS_GENOLIS_13
 70
     0
  0
APPID
  2
GENIUS_GENTITLE_13
 70
     0
  0
APPID
  2
GENIUS_GENOREF_13
 70
     0
  0
APPID
  2
GENIUS_GENSCREG_15
 70
     0
  0
APPID
  2
GENIUS_GENOBJ-N-SDF_13
 70
     0
  0
APPID
  2
GENIUS_GENOBJ-N-REV_13
 70
     0
  0
APPID
  2
GENIUS_GENOBJ-N-RSSYM_13
 70
     0
  0
APPID
  2
GENIUS_GENSYMENT_13
 70
     0
  0
APPID
  2
GENIUS_GENSCSYM_13
 70
     0
  0
APPID
  2
GENIUS_GENOBJ-N-CEN_13
 70
     0
  0
APPID
  2
GENIUS_GENOBJ-N-FIL_13
 70
     0
  0
APPID
  2
GENIUS_GENBH_13
 70
     0
  0
APPID
  2
GENIUS_GENOBJ-NBEHI-BHF_13
 70
     0
  0
APPID
  2
GENIUS_GENFIL_13
 70
     0
  0
APPID
  2
GENIUS_GENOBJ-N-CHA_13
 70
     0
  0
APPID
  2
GENIUS_GENOBJ-NBEHI-BHB_13
 70
     0
  0
APPID
  2
GENIUS_GENOBJ-N-CRS_13
 70
     0
  0
APPID
  2
GENIUS_GENDTOL_13
 70
     0
  0
APPID
  2
AD_DRAW
 70
     0
  0
APPID
  2
DESIGNERASSEMBLIES
 70
     0
  0
APPID
  2
ACADM_DIM_EDIT
 70
     0
  0
APPID
  2
AMDT_DM_ADJ
 70
     0
  0
APPID
  2
ACAD_PSEXT
 70
     0
  0
APPID
  2
ACAECLAYERSTANDARD
 70
     0
  0
APPID
  2
DCO15
 70
     0
  0
APPID
  2
GENIUS_GENOBJ-N-HTC_13
 70
     0
  0
APPID
  2
GENIUS_GENHATCH_13
 70
     0
  0
APPID
  2
ACAD_NAV_VCDISPLAY
 70
     0
  0
APPID
  2
ACAD_DSTYLE_DIMARC_LENGTH_
 70
     0
  0
APPID
  2
GENIUS_GENREC_14
 70
     0
  0
APPID
  2
GENIUS_GENOBJ-N-REC_13
 70
     0
  0
APPID
  2
GENIUS_GENCEN_19
 70
     0
  0
APPID
  2
ACAD_DSTYLE_DIMBREAK
 70
     0
  0
APPID
  2
ACAD_DSTYLE_DIMJAG
 70
     0
  0
APPID
  2
ACAD_DSTYLE_DIMINSPECT
 70
     0
  0
APPID
  2
ACAD_EXEMPT_FROM_CAD_STANDARDS
 70
     0
  0
APPID
  2
ACADANNOTATIVE
 70
     0
  0
APPID
  2
ACADANNOMONITORALERTICONDI
 70
     0
  0
APPID
  2
CONTENTBLOCKICON
 70
     0
  0
APPID
  2
ACAD_MLEADERVER
 70
     0
  0
ENDTAB
  0
TABLE
  2
DIMSTYLE
 70
    18
  0
DIMSTYLE
  2
SANKYO
 70
     0
  3

  4
"
  5
DOTSMALL
  6

  7

 40
1.0
 41
7.0
 42
1.0
 43
7.0
 44
3.0
 45
0.0
 46
0.0
 47
0.1
 48
0.1
140
7.0
141
0.0
142
0.0
143
0.0393701
144
1.0
145
0.0
146
0.71
147
1.3
 71
     0
 72
     0
 73
     0
 74
     0
 75
     0
 76
     0
 77
     1
 78
     8
170
     0
171
     2
172
     1
173
     0
174
     0
175
     0
176
   256
177
   256
178
   256
  0
DIMSTYLE
  2
AM_ISO
 70
     0
  3

  4
"
  5

  6

  7

 40
1.0
 41
1.6000000000000001
 42
1.0
 43
7.0
 44
1.0
 45
0.0
 46
0.0
 47
0.1
 48
0.1
140
2.5
141
0.0
142
0.0
143
0.0393701
144
1.0
145
0.0
146
0.71
147
0.625
 71
     0
 72
     0
 73
     0
 74
     0
 75
     0
 76
     0
 77
     1
 78
     8
170
     0
171
     2
172
     1
173
     0
174
     0
175
     0
176
   256
177
   256
178
   256
  0
DIMSTYLE
  2
AM_ISO$3
 70
     0
  3

  4
"
  5

  6

  7

 40
1.0
 41
1.6000000000000001
 42
1.0
 43
7.0
 44
1.0
 45
0.0
 46
0.0
 47
0.1
 48
0.1
140
2.5
141
0.0
142
0.0
143
0.0393701
144
1.0
145
0.0
146
0.71
147
0.625
 71
     0
 72
     0
 73
     0
 74
     0
 75
     0
 76
     0
 77
     1
 78
     8
170
     0
171
     2
172
     1
173
     0
174
     0
175
     0
176
   256
177
   256
178
   256
  0
DIMSTYLE
  2
AM_ISO$4
 70
     0
  3

  4
"
  5

  6

  7

 40
1.0
 41
1.6000000000000001
 42
1.0
 43
7.0
 44
1.0
 45
0.0
 46
0.0
 47
0.1
 48
0.1
140
2.5
141
0.0
142
0.0
143
0.0393701
144
1.0
145
0.0
146
0.71
147
0.625
 71
     0
 72
     0
 73
     0
 74
     0
 75
     0
 76
     0
 77
     1
 78
     8
170
     0
171
     2
172
     1
173
     0
174
     0
175
     0
176
   256
177
   256
178
   256
  0
DIMSTYLE
  2
AM_ISO$6
 70
     0
  3

  4
"
  5

  6

  7

 40
1.0
 41
1.6000000000000001
 42
1.0
 43
7.0
 44
1.0
 45
0.0
 46
0.0
 47
0.1
 48
0.1
140
2.5
141
0.0
142
0.0
143
0.0393701
144
1.0
145
0.0
146
0.71
147
0.625
 71
     0
 72
     0
 73
     0
 74
     0
 75
     0
 76
     0
 77
     0
 78
     8
170
     0
171
     2
172
     1
173
     0
174
     0
175
     0
176
   256
177
   256
178
   256
  0
DIMSTYLE
  2
AM_ISO$7
 70
     0
  3

  4
"
  5

  6

  7

 40
1.0
 41
1.6000000000000001
 42
1.0
 43
7.0
 44
1.0
 45
0.0
 46
0.0
 47
0.1
 48
0.1
140
2.5
141
0.0
142
0.0
143
0.0393701
144
1.0
145
0.0
146
0.71
147
0.625
 71
     0
 72
     0
 73
     0
 74
     0
 75
     0
 76
     0
 77
     1
 78
     8
170
     0
171
     2
172
     1
173
     0
174
     0
175
     0
176
   256
177
   256
178
   256
  0
DIMSTYLE
  2
AM_ISO$SF
 70
     0
  3

  4
"
  5

  6

  7

 40
1.0
 41
2.5
 42
1.0
 43
10.0
 44
1.0
 45
0.0
 46
0.0
 47
0.1
 48
0.1
140
3.5
141
0.0
142
0.0
143
0.0393701
144
1.0
145
0.0
146
0.71
147
1.5
 71
     0
 72
     0
 73
     0
 74
     0
 75
     1
 76
     1
 77
     1
 78
     8
170
     0
171
     2
172
     1
173
     0
174
     0
175
     0
176
   256
177
   256
178
     2
  0
DIMSTYLE
  2
AM_ISO$SH
 70
     0
  3

  4
"
  5

  6
GENAXEH
  7

 40
1.0
 41
2.5
 42
1.0
 43
10.0
 44
1.0
 45
0.0
 46
0.0
 47
0.1
 48
0.1
140
3.5
141
0.0
142
0.0
143
0.0393701
144
2.0
145
0.0
146
0.71
147
1.5
 71
     0
 72
     0
 73
     0
 74
     0
 75
     1
 76
     1
 77
     1
 78
     8
170
     0
171
     2
172
     1
173
     1
174
     0
175
     0
176
   256
177
   256
178
     2
  0
DIMSTYLE
  2
AM_ISO$2
 70
     0
  3

  4
"
  5

  6

  7

 40
1.0
 41
1.6000000000000001
 42
1.0
 43
7.0
 44
1.0
 45
0.0
 46
0.0
 47
0.1
 48
0.1
140
2.5
141
0.0
142
0.0
143
0.0393701
144
1.0
145
0.0
146
0.71
147
0.625
 71
     0
 72
     0
 73
     0
 74
     0
 75
     0
 76
     0
 77
     1
 78
     8
170
     0
171
     2
172
     1
173
     0
174
     0
175
     0
176
   256
177
   256
178
   256
  0
DIMSTYLE
  2
AM_ISO$0
 70
     0
  3

  4
"
  5

  6

  7

 40
1.0
 41
1.6000000000000001
 42
1.0
 43
7.0
 44
1.0
 45
0.0
 46
0.0
 47
0.1
 48
0.1
140
2.5
141
0.0
142
0.0
143
0.0393701
144
1.0
145
0.0
146
0.71
147
0.625
 71
     0
 72
     0
 73
     0
 74
     0
 75
     0
 76
     0
 77
     1
 78
     8
170
     0
171
     2
172
     1
173
     0
174
     0
175
     0
176
   256
177
   256
178
   256
  0
DIMSTYLE
  2
STANDARD
 70
     0
  3

  4

  5

  6

  7

 40
1.0
 41
0.18
 42
0.0625
 43
0.38
 44
0.18
 45
0.0
 46
0.0
 47
0.0
 48
0.0
140
0.18
141
0.09
142
0.0
143
25.399999999999999
144
1.0
145
0.0
146
1.0
147
0.09
 71
     0
 72
     0
 73
     1
 74
     1
 75
     0
 76
     0
 77
     0
 78
     0
170
     0
171
     2
172
     0
173
     0
174
     0
175
     0
176
     0
177
     0
178
     0
  0
DIMSTYLE
  2
SANKYO$0
 70
     0
  3

  4
"
  5
DOTSMALL
  6

  7

 40
1.0
 41
7.0
 42
1.0
 43
7.0
 44
3.0
 45
0.0
 46
0.0
 47
0.1
 48
0.1
140
7.0
141
0.0
142
0.0
143
0.0393701
144
1.0
145
0.0
146
0.71
147
1.3
 71
     0
 72
     0
 73
     0
 74
     0
 75
     0
 76
     0
 77
     1
 78
     8
170
     0
171
     2
172
     1
173
     0
174
     0
175
     0
176
   256
177
   256
178
   256
  0
DIMSTYLE
  2
AM_ANSI
 70
     0
  3

  4
mm
  5

  6

  7

 40
1.0
 41
0.12
 42
0.05
 43
0.5
 44
0.1
 45
0.0
 46
0.0
 47
0.1
 48
0.1
140
0.12
141
0.0
142
0.0
143
25.399999999999999
144
1.0
145
0.0
146
0.71
147
0.06
 71
     0
 72
     0
 73
     1
 74
     1
 75
     0
 76
     0
 77
     0
 78
     7
170
     0
171
     2
172
     0
173
     0
174
     0
175
     0
176
   256
177
   256
178
     2
  0
DIMSTYLE
  2
AM_ANSI$3
 70
     0
  3

  4
mm
  5

  6

  7

 40
1.0
 41
0.12
 42
0.05
 43
0.5
 44
0.1
 45
0.0
 46
0.0
 47
0.1
 48
0.1
140
0.12
141
0.0
142
0.0
143
25.399999999999999
144
1.0
145
0.0
146
0.71
147
0.06
 71
     0
 72
     0
 73
     1
 74
     1
 75
     0
 76
     0
 77
     0
 78
     7
170
     0
171
     2
172
     0
173
     0
174
     0
175
     0
176
   256
177
   256
178
     2
  0
DIMSTYLE
  2
AM_ANSI$4
 70
     0
  3

  4
mm
  5

  6

  7

 40
1.0
 41
0.12
 42
0.05
 43
0.5
 44
0.1
 45
0.0
 46
0.0
 47
0.1
 48
0.1
140
0.12
141
0.0
142
0.0
143
25.399999999999999
144
1.0
145
0.0
146
0.71
147
0.06
 71
     0
 72
     0
 73
     1
 74
     1
 75
     0
 76
     0
 77
     0
 78
     7
170
     0
171
     2
172
     0
173
     0
174
     0
175
     0
176
   256
177
   256
178
     2
  0
DIMSTYLE
  2
AM_ANSI$7
 70
     0
  3

  4
mm
  5

  6

  7

 40
1.0
 41
0.12
 42
0.05
 43
0.5
 44
0.1
 45
0.0
 46
0.0
 47
0.1
 48
0.1
140
0.12
141
0.0
142
0.0
143
25.399999999999999
144
1.0
145
0.0
146
0.71
147
0.06
 71
     0
 72
     0
 73
     1
 74
     1
 75
     0
 76
     0
 77
     0
 78
     7
170
     0
171
     2
172
     0
173
     0
174
     0
175
     0
176
   256
177
   256
178
     2
  0
DIMSTYLE
  2
AM_ANSI$SF
 70
     0
  3

  4
mm
  5

  6

  7

 40
1.0
 41
0.12
 42
0.05
 43
0.5
 44
0.1
 45
0.0
 46
0.0
 47
0.1
 48
0.1
140
0.12
141
0.0
142
0.0
143
25.399999999999999
144
1.0
145
0.0
146
0.71
147
0.06
 71
     0
 72
     0
 73
     1
 74
     1
 75
     1
 76
     1
 77
     0
 78
     7
170
     0
171
     2
172
     0
173
     0
174
     0
175
     0
176
   256
177
   256
178
     2
  0
DIMSTYLE
  2
AM_ANSI$SH
 70
     0
  3

  4
mm
  5

  6
GENAXEH
  7

 40
1.0
 41
0.12
 42
0.05
 43
0.5
 44
0.1
 45
0.0
 46
0.0
 47
0.1
 48
0.1
140
0.12
141
0.0
142
0.0
143
25.399999999999999
144
1.0
145
0.0
146
0.71
147
0.06
 71
     0
 72
     0
 73
     1
 74
     1
 75
     1
 76
     1
 77
     0
 78
     7
170
     0
171
     2
172
     0
173
     1
174
     0
175
     0
176
   256
177
   256
178
     2
  0
ENDTAB
  0
ENDSEC
  0
SECTION
  2
BLOCKS
  0
BLOCK
  8
0
  2
$MODEL_SPACE
 70
     0
 10
0.0
 20
0.0
 30
0.0
  3
$MODEL_SPACE
  1

  0
ENDBLK
  5
1A
  8
0
  0
BLOCK
 67
     1
  8
0
  2
$PAPER_SPACE
 70
     0
 10
0.0
 20
0.0
 30
0.0
  3
$PAPER_SPACE
  1

  0
ENDBLK
  5
17
 67
     1
  8
0
  0
BLOCK
  8
0
  2
GENAXEH
 70
     0
 10
0.0
 20
0.0
 30
0.0
  3
GENAXEH
  1

  0
LINE
  5
102
  8
0
 10
-1.0
 20
0.0
 30
0.0
 11
1.0
 21
0.0
 31
0.0
  0
ENDBLK
  5
104
  8
0
  0
BLOCK
  8
0
  2
_OPEN
 70
     0
 10
0.0
 20
0.0
 30
0.0
  3
_OPEN
  1

  0
LINE
  5
30B
  8
0
  6
BYBLOCK
 62
     0
 10
-1.0
 20
0.1666666666666666
 30
0.0
 11
0.0
 21
0.0
 31
0.0
  0
LINE
  5
30C
  8
0
  6
BYBLOCK
 62
     0
 10
-1.0
 20
-0.1666666666666666
 30
0.0
 11
0.0
 21
0.0
 31
0.0
  0
LINE
  5
30D
  8
0
  6
BYBLOCK
 62
     0
 10
0.0
 20
0.0
 30
0.0
 11
-1.0
 21
0.0
 31
0.0
  0
ENDBLK
  5
30F
  8
0
  0
BLOCK
  8
0
  2
_DOTSMALL
 70
     0
 10
0.0
 20
0.0
 30
0.0
  3
_DOTSMALL
  1

  0
POLYLINE
  5
A331
  8
0
  6
BYBLOCK
 62
     0
 66
     1
 10
0.0
 20
0.0
 30
0.0
 70
     1
 40
0.5
 41
0.5
  0
VERTEX
  5
1F6F2
  8
0
  6
BYBLOCK
 62
     0
 10
-0.0625
 20
0.0
 30
0.0
 42
1.0
  0
VERTEX
  5
1F6F3
  8
0
  6
BYBLOCK
 62
     0
 10
0.0625
 20
0.0
 30
0.0
 42
1.0
  0
SEQEND
  5
1F6F4
  8
0
  6
BYBLOCK
 62
     0
  0
ENDBLK
  5
A333
  8
0
  0
ENDSEC
  0
SECTION
  2
ENTITIES
  0
LINE
  5
9B1A
  8
WK
 10
23.5
 20
16.25
 30
0.0
 11
1165.5
 21
16.25
 31
0.0
  0
LINE
  5
9B1C
  8
WK
 10
23.5
 20
824.75
 30
0.0
 11
23.5
 21
16.25
 31
0.0
  0
TEXT
  5
9BE2
  8
WK
 10
22.5
 20
16.25
 30
0.0
 40
3.2000000000000002
  1
A0
 50
90.0
 41
0.8299999999999999
  0
LINE
  5
9C31
  8
WK
 10
1085.5
 20
34.25
 30
0.0
 11
1085.5
 21
16.25
 31
0.0
  0
LINE
  5
9C32
  8
WK
 10
890.49999999999989
 20
34.25
 30
0.0
 11
890.49999999999989
 21
16.25
 31
0.0
  0
LINE
  5
9C34
  8
WK
 10
1045.5
 20
34.25
 30
0.0
 11
1045.5
 21
16.25
 31
0.0
  0
LINE
  5
9C35
  8
WK
 10
1065.5
 20
34.25
 30
0.0
 11
1065.5
 21
16.25
 31
0.0
  0
LINE
  5
9C37
  8
WK
 10
1005.5
 20
34.25
 30
0.0
 11
1005.5
 21
16.25
 31
0.0
  0
LINE
  5
9C38
  8
WK
 10
985.5
 20
34.25
 30
0.0
 11
985.5
 21
16.25
 31
0.0
  0
LINE
  5
9C3A
  8
WK
 10
890.49999999999989
 20
34.25
 30
0.0
 11
1165.5
 21
34.25
 31
0.0
  0
LINE
  5
9C3B
  8
WK
 10
899.5
 20
26.25
 30
0.0
 11
972.49999999999989
 21
26.25
 31
0.0
  0
LINE
  5
9C3E
  8
WK
 10
1005.5
 20
22.25
 30
0.0
 11
1045.5
 21
22.25
 31
0.0
  0
LINE
  5
9C3F
  8
WK
 10
1005.5
 20
28.25
 30
0.0
 11
1045.5
 21
28.25
 31
0.0
  0
LINE
  5
9C46
  8
WK
 10
1151.8094750193111
 20
25.25
 30
0.0
 11
1163.8094750193111
 21
25.25
 31
0.0
  0
CIRCLE
  5
9C47
  8
WK
 10
1157.8094750193111
 20
25.25
 30
0.0
 40
6.0
  0
TEXT
  5
9C56
  8
WK
 10
992.52780952380954
 20
20.649999643948512
 30
0.0
 40
3.2000000000000002
  1
1:1
 41
0.8299999999999999
 72
     4
 11
995.5
 21
22.249999643948509
 31
0.0
  0
TEXT
  5
9C57
  8
WK
 10
1087.8031333333331
 20
30.150000000000009
 30
0.0
 40
3.2000000000000002
  1
図番
 41
0.8299999999999999
  0
TEXT
  5
9C58
  8
WK
 10
1067.9290000000001
 20
30.150000000000009
 30
0.0
 40
3.2000000000000002
  1
検図
 41
0.8299999999999999
  0
TEXT
  5
9C59
  8
WK
 10
1047.9290000000001
 20
30.150000000000009
 30
0.0
 40
3.2000000000000002
  1
作図
 41
0.8299999999999999
  0
TEXT
  5
9C5A
  8
WK
 10
1006.5535725057121
 20
29.149999999999999
 30
0.0
 40
3.2000000000000002
  1
作成
 41
0.8299999999999999
  0
TEXT
  5
9C5B
  8
WK
 10
1006.5535725057121
 20
23.149999999999999
 30
0.0
 40
3.2000000000000002
  1
制定
 41
0.8299999999999999
  0
TEXT
  5
9C5C
  8
WK
 10
1006.5535725057121
 20
17.149999999999999
 30
0.0
 40
3.2000000000000002
  1
廃止
 41
0.8299999999999999
  0
TEXT
  5
9C5D
  8
WK
 10
986.42899999999997
 20
30.149999999999999
 30
0.0
 40
3.2000000000000002
  1
尺度
 41
0.8299999999999999
  0
TEXT
  5
9C5E
  8
WK
 10
973.49999999999989
 20
18.25
 30
0.0
 40
4.0
  1
基準図
 41
0.8
  0
TEXT
  5
9C77
  8
WK
 10
892.30313333333345
 20
30.150000000000009
 30
0.0
 40
3.2000000000000002
  1
図名
 41
0.8299999999999999
  0
LINE
  5
9E0D
  8
WK
 10
23.5
 20
824.75
 30
0.0
 11
1165.5
 21
824.75
 31
0.0
  0
LINE
  5
9E18
  8
WK
 10
1165.5
 20
824.75
 30
0.0
 11
1165.5
 21
16.25
 31
0.0
  0
TEXT
  5
12887
  8
WK
 10
1130.0726417273511
 20
826.75
 30
0.0
 40
4.0
  1
大栄建材株式会社
 41
0.9
 72
     2
 11
1163.672641727351
 21
826.75
 31
0.0
  0
TEXT
  5
13021
  8
MJ
 10
1005.5
 20
42.25
 30
0.0
 40
7.0
  1
cl14a001
 41
0.8299999999999999
  0
TEXT
  5
13022
  8
MJ
 10
1005.5
 20
69.25
 30
0.0
 40
7.0
  1
クレーヴァ25・35
 41
0.8299999999999999
  0
TEXT
  5
13023
  8
MJ
 10
1005.5
 20
60.25
 30
0.0
 40
7.0
  1
FIX
 41
0.8299999999999999
  0
TEXT
  5
13024
  8
MJ
 10
1005.5
 20
78.25
 30
0.0
 40
7.0
  1
スーパースクリーン　クレーヴァ
 41
0.8299999999999999
  0
TEXT
  5
13025
  8
MJ
 10
1005.5
 20
51.25
 30
0.0
 40
7.0
  1
たて横断面
 41
0.8299999999999999
  0
LINE
  5
1EDC2
  8
OS
 10
189.85796638006411
 20
639.03023868044374
 30
0.0
 11
279.85796638006411
 21
639.03023868044284
 31
0.0
  0
LINE
  5
1EDC6
  8
OS
 10
189.85796638006411
 20
228.5302386804446
 30
0.0
 11
279.85796638006411
 21
228.5302386804446
 31
0.0
  0
LINE
  5
1EDC7
  8
OS
 10
189.85796638006411
 20
230.5302386804446
 30
0.0
 11
279.85796638006411
 21
230.5302386804446
 31
0.0
  0
LINE
  5
1EDC8
  8
OS
 10
189.85796638006411
 20
234.5302386804446
 30
0.0
 11
279.85796638006411
 21
234.5302386804446
 31
0.0
  0
LINE
  5
1EDC9
  8
OS
 10
189.85796638006411
 20
238.5302386804446
 30
0.0
 11
279.85796638006411
 21
238.5302386804446
 31
0.0
  0
LINE
  5
1EDCA
  8
OS
 10
189.85796638006411
 20
232.5302386804442
 30
0.0
 11
279.85796638006411
 21
232.5302386804442
 31
0.0
  0
LINE
  5
1EDCB
  8
OS
 10
189.85796638006411
 20
236.5302386804446
 30
0.0
 11
279.85796638006411
 21
236.5302386804446
 31
0.0
  0
LINE
  5
1EDCC
  8
OS
 10
189.85796638006411
 20
240.5302386804446
 30
0.0
 11
279.85796638006411
 21
240.5302386804446
 31
0.0
  0
LINE
  5
1EDD1
  8
KI1
 10
218.357966380064
 20
601.53023858197537
 30
0.0
 11
218.3579692019693
 21
422.0302386804438
 31
0.0
  0
LINE
  5
1EDD2
  8
KI1
 10
218.35796924555081
 20
420.0302386804438
 30
0.0
 11
218.3579720674561
 21
240.5302386804446
 31
0.0
  0
LINE
  5
1EDD3
  8
KI1
 10
251.3579663800642
 20
601.53023916022676
 30
0.0
 11
251.35796920196941
 21
422.0302386804438
 31
0.0
  0
LINE
  5
1EDD4
  8
KI1
 10
251.35796924555089
 20
420.0302386804438
 30
0.0
 11
251.35797206745599
 21
240.5302386804446
 31
0.0
  0
LINE
  5
1EE71
  8
KI1
 10
218.357966380064
 20
601.53023868044295
 30
0.0
 11
251.3579663800642
 21
601.53023868044295
 31
0.0
  0
LINE
  5
1EEAB
  8
KI2
 10
228.85796638022251
 20
240.5302386804446
 30
0.0
 11
228.85796638022251
 21
253.43023868044469
 31
0.0
  0
LINE
  5
1EEAC
  8
KI2
 10
240.85796638022251
 20
240.5302386804446
 30
0.0
 11
240.85796638022251
 21
253.43023868044469
 31
0.0
  0
LINE
  5
1EEAD
  8
KI2
 10
228.85796638022251
 20
240.5302386804446
 30
0.0
 11
240.85796638022251
 21
240.5302386804446
 31
0.0
  0
LINE
  5
1EEAE
  8
KI2
 10
228.85796638022251
 20
240.5302386804446
 30
0.0
 11
240.85796638022251
 21
253.43023868044469
 31
0.0
  0
LINE
  5
1EEAF
  8
KI2
 10
228.85796638022251
 20
253.43023868044469
 30
0.0
 11
240.85796638022251
 21
253.43023868044469
 31
0.0
  0
LINE
  5
1EEB0
  8
KI1
 10
207.05796638022261
 20
595.13023868044274
 30
0.0
 11
207.05796638022261
 21
637.53023868044329
 31
0.0
  0
LINE
  5
1EEB1
  8
KI1
 10
205.85796638022359
 20
638.53023868044329
 30
0.0
 11
205.85796638022359
 21
595.13023868044274
 31
0.0
  0
ARC
  5
1EEB2
  8
KI1
 10
206.4579663802231
 20
595.13023868044274
 30
0.0
 40
0.5999999999995019
 50
180.0
 51
0.0
  0
LINE
  5
1EEB3
  8
KI1
 10
214.61622394971931
 20
637.53023868044329
 30
0.0
 11
219.65796638022371
 21
637.53023868044329
 31
0.0
  0
LINE
  5
1EEB4
  8
KI1
 10
220.35796638022251
 20
639.03023868044329
 30
0.0
 11
206.3579663802237
 21
639.03023868044329
 31
0.0
  0
LINE
  5
1EEB5
  8
KI1
 10
207.05796638022261
 20
637.53023868044329
 30
0.0
 11
213.6997088107282
 21
637.53023868044329
 31
0.0
  0
ARC
  5
1EEB6
  8
KI1
 10
206.3579663802237
 20
638.53023868044329
 30
0.0
 40
0.5
 50
90.0
 51
180.0
  0
ARC
  5
1EEB7
  8
KI1
 10
214.1579663802238
 20
637.33023868044302
 30
0.0
 40
0.5
 50
23.578178478207558
 51
156.4218215217924
  0
LINE
  5
1EEB9
  8
KI1
 10
219.65796638022371
 20
637.53023868044329
 30
0.0
 11
219.65796638022371
 21
631.6302386804432
 31
0.0
  0
ARC
  5
1EEBA
  8
KI1
 10
220.25796638022371
 20
631.6302386804432
 30
0.0
 40
0.6
 50
179.99999999998701
 51
0.0
  0
ARC
  5
1EEBB
  8
KI1
 10
220.35796638022251
 20
638.53023868044329
 30
0.0
 40
0.5
 50
0.0
 51
90.0
  0
LINE
  5
1EEBC
  8
KI1
 10
262.6579663802226
 20
595.13023868044274
 30
0.0
 11
262.6579663802226
 21
637.53023868044329
 31
0.0
  0
LINE
  5
1EEBD
  8
KI1
 10
263.8579663802214
 20
638.53023868044329
 30
0.0
 11
263.8579663802214
 21
595.13023868044274
 31
0.0
  0
ARC
  5
1EEBE
  8
KI1
 10
263.257966380222
 20
595.13023868044274
 30
0.0
 40
0.5999999999995019
 50
180.0
 51
0.0
  0
LINE
  5
1EEBF
  8
KI1
 10
255.0997088107261
 20
637.53023868044329
 30
0.0
 11
250.0579663802215
 21
637.53023868044329
 31
0.0
  0
LINE
  5
1EEC0
  8
KI1
 10
249.35796638022251
 20
639.03023868044329
 30
0.0
 11
263.35796638022151
 21
639.03023868044329
 31
0.0
  0
LINE
  5
1EEC1
  8
KI1
 10
262.6579663802226
 20
637.53023868044329
 30
0.0
 11
256.01622394971707
 21
637.53023868044329
 31
0.0
  0
ARC
  5
1EEC2
  8
KI1
 10
263.35796638022151
 20
638.53023868044329
 30
0.0
 40
0.5
 50
0.0
 51
90.0
  0
ARC
  5
1EEC3
  8
KI1
 10
255.5579663802215
 20
637.33023868044302
 30
0.0
 40
0.5
 50
23.578178478207558
 51
156.4218215217924
  0
LINE
  5
1EEC5
  8
KI1
 10
250.0579663802215
 20
637.53023868044329
 30
0.0
 11
250.0579663802215
 21
631.6302386804432
 31
0.0
  0
ARC
  5
1EEC6
  8
KI1
 10
249.45796638022171
 20
631.6302386804432
 30
0.0
 40
0.6
 50
180.0
 51
0.0000000000130276
  0
ARC
  5
1EEC7
  8
KI1
 10
249.35796638022251
 20
638.53023868044329
 30
0.0
 40
0.5
 50
90.0
 51
180.0
  0
LINE
  5
1EEC8
  8
KI2
 10
238.1079663800879
 20
601.53023868044329
 30
0.0
 11
238.1079663800879
 21
614.23023868044334
 31
0.0
  0
LINE
  5
1EEC9
  8
KI2
 10
231.6079663800875
 20
601.53023868044329
 30
0.0
 11
231.6079663800875
 21
614.23023868044334
 31
0.0
  0
LINE
  5
1EECA
  8
KI2
 10
240.25796638008811
 20
622.23023868044311
 30
0.0
 11
229.45796638008821
 21
622.23023868044311
 31
0.0
  0
LINE
  5
1EECB
  8
KI2
 10
242.3579663800879
 20
616.53023868044329
 30
0.0
 11
227.35796638008739
 21
616.53023868044329
 31
0.0
  0
LINE
  5
1EECC
  8
KI2
 10
227.35796638008739
 20
614.23023868044334
 30
0.0
 11
242.3579663800879
 21
614.23023868044334
 31
0.0
  0
LINE
  5
1EECD
  8
KI2
 10
227.35796638008739
 20
616.53023868044329
 30
0.0
 11
227.35796638008739
 21
614.23023868044334
 31
0.0
  0
LINE
  5
1EECE
  8
KI2
 10
229.45796638008821
 20
622.23023868044334
 30
0.0
 11
229.45796638008841
 21
616.53023868044329
 31
0.0
  0
LINE
  5
1EECF
  8
KI2
 10
242.3579663800879
 20
614.23023868044334
 30
0.0
 11
242.3579663800879
 21
616.53023868044329
 31
0.0
  0
LINE
  5
1EED0
  8
KI2
 10
240.25796638008811
 20
616.53023868044329
 30
0.0
 11
240.25796638008811
 21
622.23023868044334
 31
0.0
  0
LINE
  5
1EED1
  8
KI1
 10
228.75796638022251
 20
636.53023868044227
 30
0.0
 11
223.85796638022231
 21
636.53023868044227
 31
0.0
  0
LINE
  5
1EED2
  8
KI1
 10
231.35796638022219
 20
638.03023868044227
 30
0.0
 11
221.85796638022271
 21
638.03023868044227
 31
0.0
  0
LINE
  5
1EED3
  8
KI1
 10
220.857966380222
 20
617.03023868044227
 30
0.0
 11
220.857966380222
 21
638.53023868044329
 31
0.0
  0
LINE
  5
1EED4
  8
KI1
 10
222.35796638022231
 20
635.03023868044238
 30
0.0
 11
222.35796638022231
 21
620.00864969449503
 31
0.0
  0
ARC
  5
1EED5
  8
KI1
 10
221.35796638022231
 20
638.53023868044329
 30
0.0
 40
0.4999999999999716
 50
0.0
 51
180.0
  0
LINE
  5
1EED6
  8
KI1
 10
221.85796638022271
 20
638.53023868044329
 30
0.0
 11
221.85796638022271
 21
638.03023868044227
 31
0.0
  0
ARC
  5
1EED7
  8
KI1
 10
223.85796638022231
 20
635.03023868044238
 30
0.0
 40
1.5
 50
90.0
 51
180.0
  0
LINE
  5
1EED8
  8
KI1
 10
247.35796638022251
 20
620.00864969449594
 30
0.0
 11
247.35796638022251
 21
635.03023868044238
 31
0.0
  0
LINE
  5
1EED9
  8
KI1
 10
248.85796638022251
 20
617.03023868044227
 30
0.0
 11
248.85796638022251
 21
638.53023868044329
 31
0.0
  0
LINE
  5
1EEDA
  8
KI1
 10
238.6579663802224
 20
636.53023868044227
 30
0.0
 11
235.15796638022289
 21
636.53023868044227
 31
0.0
  0
ARC
  5
1EEDB
  8
KI1
 10
237.85796638022211
 20
638.53023868044329
 30
0.0
 40
0.4999999999999716
 50
0.0
 51
180.0
  0
LINE
  5
1EEDC
  8
KI1
 10
237.35796638022211
 20
638.03023868044227
 30
0.0
 11
232.35796638022271
 21
638.03023868044227
 31
0.0
  0
LINE
  5
1EEDD
  8
KI1
 10
234.55796638022261
 20
636.53023868044227
 30
0.0
 11
234.85796638022211
 21
636.83023868044336
 31
0.0
  0
LINE
  5
1EEDE
  8
KI1
 10
234.85796638022211
 20
636.83023868044336
 30
0.0
 11
235.15796638022289
 21
636.53023868044227
 31
0.0
  0
ARC
  5
1EEDF
  8
KI1
 10
228.75796638022251
 20
635.53023868044306
 30
0.0
 40
1.0000000000000271
 50
0.0
 51
90.0
  0
ARC
  5
1EEE0
  8
KI1
 10
231.85796638022211
 20
638.53023868044329
 30
0.0
 40
0.4999999999999716
 50
0.0
 51
180.0
  0
ARC
  5
1EEE1
  8
KI1
 10
231.05796638022261
 20
636.23023868044288
 30
0.0
 40
0.2999999999997271
 50
90.0
 51
180.0
  0
LINE
  5
1EEE2
  8
KI1
 10
231.35796638022219
 20
638.53023868044329
 30
0.0
 11
231.35796638022219
 21
638.03023868044227
 31
0.0
  0
LINE
  5
1EEE3
  8
KI1
 10
232.35796638022271
 20
638.53023868044329
 30
0.0
 11
232.35796638022271
 21
638.03023868044227
 31
0.0
  0
LINE
  5
1EEE4
  8
KI1
 10
234.55796638022261
 20
636.53023868044227
 30
0.0
 11
231.05796638022261
 21
636.53023868044227
 31
0.0
  0
LINE
  5
1EEE5
  8
KI1
 10
229.75796638022251
 20
634.53023868044329
 30
0.0
 11
230.7579663802228
 21
634.53023868044329
 31
0.0
  0
LINE
  5
1EEE6
  8
KI1
 10
230.7579663802228
 20
634.53023868044329
 30
0.0
 11
230.7579663802228
 21
636.23023868044288
 31
0.0
  0
LINE
  5
1EEE7
  8
KI1
 10
229.75796638022251
 20
635.53023868044306
 30
0.0
 11
229.75796638022251
 21
634.53023868044329
 31
0.0
  0
LINE
  5
1EEE8
  8
KI1
 10
237.35796638022211
 20
638.03023868044227
 30
0.0
 11
237.35796638022211
 21
638.53023868044329
 31
0.0
  0
ARC
  5
1EEE9
  8
KI1
 10
248.35796638022211
 20
638.53023868044329
 30
0.0
 40
0.4999999999999716
 50
0.0
 51
180.0
  0
LINE
  5
1EEEA
  8
KI1
 10
247.85796638022239
 20
638.53023868044329
 30
0.0
 11
247.85796638022239
 21
638.03023868044227
 31
0.0
  0
ARC
  5
1EEEB
  8
KI1
 10
240.95796638022219
 20
635.53023868044306
 30
0.0
 40
0.9999999999999431
 50
90.0
 51
180.0
  0
LINE
  5
1EEEC
  8
KI1
 10
245.85796638022279
 20
636.53023868044227
 30
0.0
 11
240.95796638022219
 21
636.53023868044227
 31
0.0
  0
LINE
  5
1EEED
  8
KI1
 10
238.9579663802227
 20
634.53023868044329
 30
0.0
 11
239.9579663802225
 21
634.53023868044329
 31
0.0
  0
LINE
  5
1EEEE
  8
KI1
 10
238.9579663802227
 20
636.23023868044288
 30
0.0
 11
238.9579663802227
 21
634.53023868044329
 31
0.0
  0
ARC
  5
1EEEF
  8
KI1
 10
245.85796638022279
 20
635.03023868044238
 30
0.0
 40
1.5
 50
0.0
 51
90.0
  0
LINE
  5
1EEF0
  8
KI1
 10
239.9579663802225
 20
634.53023868044329
 30
0.0
 11
239.9579663802225
 21
635.53023868044306
 31
0.0
  0
LINE
  5
1EEF1
  8
KI1
 10
238.35796638022271
 20
638.03023868044227
 30
0.0
 11
238.35796638022271
 21
638.53023868044329
 31
0.0
  0
ARC
  5
1EEF2
  8
KI1
 10
238.6579663802224
 20
636.23023868044288
 30
0.0
 40
0.2999999999998976
 50
0.0
 51
90.0
  0
LINE
  5
1EEF3
  8
KI1
 10
247.85796638022239
 20
638.03023868044227
 30
0.0
 11
238.35796638022271
 21
638.03023868044227
 31
0.0
  0
LINE
  5
1EEF4
  8
KI1
 10
228.35796638022151
 20
616.53023868044329
 30
0.0
 11
221.35796638022211
 21
616.53023868044329
 31
0.0
  0
ARC
  5
1EEF5
  8
KI1
 10
226.25796638022271
 20
623.03023868044238
 30
0.0
 40
4.9999999999993401
 50
220.00775391347599
 51
301.8907918018524
  0
ARC
  5
1EEF6
  8
KI1
 10
222.6579663802224
 20
620.00864969449503
 30
0.0
 40
0.3000000000001109
 50
180.0
 51
220.007753913459
  0
ARC
  5
1EEF7
  8
KI1
 10
221.35796638022211
 20
617.03023868044227
 30
0.0
 40
0.4999999999998014
 50
180.0
 51
270.0
  0
ARC
  5
1EEF8
  8
KI1
 10
229.05796638022261
 20
618.53023868044238
 30
0.0
 40
0.3000000000000681
 50
0.0
 51
121.8907918017524
  0
LINE
  5
1EEF9
  8
KI1
 10
229.35796638022251
 20
617.53023868044329
 30
0.0
 11
229.35796638022251
 21
618.53023868044238
 31
0.0
  0
ARC
  5
1EEFA
  8
KI1
 10
228.35796638022211
 20
617.53023868044329
 30
0.0
 40
0.9999999999998575
 50
270.0
 51
0.0
  0
ARC
  5
1EEFB
  8
KI1
 10
243.4579663802227
 20
623.03023868044238
 30
0.0
 40
4.9999999999993587
 50
238.1092081981476
 51
319.99224608652401
  0
ARC
  5
1EEFC
  8
KI1
 10
248.35796638022211
 20
617.03023868044227
 30
0.0
 40
0.4999999999998014
 50
270.0
 51
0.0
  0
LINE
  5
1EEFD
  8
KI1
 10
241.35796638022279
 20
616.53023868044329
 30
0.0
 11
248.35796638022211
 21
616.53023868044329
 31
0.0
  0
ARC
  5
1EEFE
  8
KI1
 10
240.6579663802224
 20
618.53023868044238
 30
0.0
 40
0.3000000000006474
 50
58.109208198419992
 51
180.0
  0
LINE
  5
1EEFF
  8
KI1
 10
240.35796638022219
 20
617.53023868044329
 30
0.0
 11
240.35796638022219
 21
618.53023868044238
 31
0.0
  0
ARC
  5
1EF00
  8
KI1
 10
241.35796638022279
 20
617.53023868044329
 30
0.0
 40
0.9999999999999856
 50
180.0
 51
270.0
  0
ARC
  5
1EF01
  8
KI1
 10
247.05796638022261
 20
620.00864969449503
 30
0.0
 40
0.3000000000001109
 50
319.99224608654089
 51
0.0
  0
LINE
  5
1EF03
  8
OS
 10
978.33832563970873
 20
403.49498536911022
 30
0.0
 11
978.33832563970873
 21
253.49498536911071
 31
0.0
  0
LINE
  5
1EFD0
  8
OS
 10
578.33832563970873
 20
403.49498536911022
 30
0.0
 11
578.33832563970873
 21
253.49498536911071
 31
0.0
  0
LINE
  5
1F2F1
  8
0
 10
578.33832563970873
 20
344.99498536911028
 30
0.0
 11
777.33832563970873
 21
344.99498536911028
 31
0.0
  0
LINE
  5
1F2F2
  8
0
 10
978.33832563970873
 20
311.99498536911068
 30
0.0
 11
779.33832563970873
 21
311.99498536911068
 31
0.0
  0
LINE
  5
1F2F5
  8
0
 10
777.33832563970873
 20
311.99498536911068
 30
0.0
 11
578.33832563970873
 21
311.99498536911068
 31
0.0
  0
LINE
  5
1F2F6
  8
0
 10
779.33832563970873
 20
344.99498536911028
 30
0.0
 11
978.33832563970873
 21
344.99498536911028
 31
0.0
  0
LINE
  5
1F586
  8
SU
 10
968.33832563970873
 20
287.99498536911051
 30
0.0
 11
978.33832563970873
 21
281.99498536911051
 31
0.0
  0
LINE
  5
1F587
  8
SU
 10
968.33832563970873
 20
275.99498536911051
 30
0.0
 11
978.33832563970873
 21
281.99498536911051
 31
0.0
  0
LINE
  5
1F588
  8
SU
 10
968.33832563970873
 20
287.99498536911051
 30
0.0
 11
968.33832563970873
 21
275.99498536911051
 31
0.0
  0
LINE
  5
1F589
  8
SU
 10
978.27059769514153
 20
282.0356221358511
 30
0.0
 11
978.27059769514153
 21
281.9543486023702
 31
0.0
  0
LINE
  5
1F58A
  8
SU
 10
978.0705976951416
 20
282.15562213585099
 30
0.0
 11
978.0705976951416
 21
281.83434860237031
 31
0.0
  0
LINE
  5
1F58B
  8
SU
 10
977.87059769514144
 20
282.27562213585111
 30
0.0
 11
977.87059769514144
 21
281.71434860237008
 31
0.0
  0
LINE
  5
1F58C
  8
SU
 10
977.67059769514174
 20
282.395622135851
 30
0.0
 11
977.67059769514174
 21
281.59434860237002
 31
0.0
  0
LINE
  5
1F58D
  8
SU
 10
977.47059769514135
 20
282.51562213585089
 30
0.0
 11
977.47059769514135
 21
281.47434860237013
 31
0.0
  0
LINE
  5
1F58E
  8
SU
 10
977.27059769514153
 20
282.63562213585101
 30
0.0
 11
977.27059769514153
 21
281.35434860237018
 31
0.0
  0
LINE
  5
1F58F
  8
SU
 10
977.07059769514171
 20
282.75562213585113
 30
0.0
 11
977.07059769514171
 21
281.23434860237012
 31
0.0
  0
LINE
  5
1F590
  8
SU
 10
976.87059769514144
 20
282.87562213585102
 30
0.0
 11
976.87059769514144
 21
281.11434860237
 31
0.0
  0
LINE
  5
1F591
  8
SU
 10
976.67059769514151
 20
282.99562213585091
 30
0.0
 11
976.67059769514151
 21
280.99434860237011
 31
0.0
  0
LINE
  5
1F592
  8
SU
 10
976.47059769514135
 20
283.1156221358508
 30
0.0
 11
976.47059769514135
 21
280.87434860237022
 31
0.0
  0
LINE
  5
1F593
  8
SU
 10
976.27059769514165
 20
283.23562213585109
 30
0.0
 11
976.27059769514165
 21
280.7543486023701
 31
0.0
  0
LINE
  5
1F594
  8
SU
 10
976.07059769514171
 20
283.35562213585098
 30
0.0
 11
976.07059769514171
 21
280.63434860236998
 31
0.0
  0
LINE
  5
1F595
  8
SU
 10
975.87059769514144
 20
283.47562213585093
 30
0.0
 11
975.87059769514144
 21
280.51434860237009
 31
0.0
  0
LINE
  5
1F596
  8
SU
 10
975.67059769514151
 20
283.5956221358511
 30
0.0
 11
975.67059769514151
 21
280.3943486023702
 31
0.0
  0
LINE
  5
1F597
  8
SU
 10
975.47059769514135
 20
283.71562213585099
 30
0.0
 11
975.47059769514135
 21
280.27434860237008
 31
0.0
  0
LINE
  5
1F598
  8
SU
 10
975.27059769514165
 20
283.83562213585111
 30
0.0
 11
975.27059769514165
 21
280.15434860237019
 31
0.0
  0
LINE
  5
1F599
  8
SU
 10
975.07059769514171
 20
283.955622135851
 30
0.0
 11
975.07059769514171
 21
280.03434860237007
 31
0.0
  0
LINE
  5
1F59A
  8
SU
 10
974.87059769514156
 20
284.07562213585101
 30
0.0
 11
974.87059769514156
 21
279.91434860237018
 31
0.0
  0
LINE
  5
1F59B
  8
SU
 10
974.67059769514162
 20
284.1956221358509
 30
0.0
 11
974.67059769514162
 21
279.79434860237012
 31
0.0
  0
LINE
  5
1F59C
  8
SU
 10
974.47059769514135
 20
284.31562213585107
 30
0.0
 11
974.47059769514135
 21
279.67434860237017
 31
0.0
  0
LINE
  5
1F59D
  8
SU
 10
974.27059769514142
 20
284.43562213585091
 30
0.0
 11
974.27059769514142
 21
279.55434860237011
 31
0.0
  0
LINE
  5
1F59E
  8
SU
 10
974.07059769514171
 20
284.5556221358508
 30
0.0
 11
974.07059769514171
 21
279.43434860237022
 31
0.0
  0
LINE
  5
1F59F
  8
SU
 10
973.87059769514156
 20
284.67562213585097
 30
0.0
 11
973.87059769514156
 21
279.31434860236999
 31
0.0
  0
LINE
  5
1F5A0
  8
SU
 10
973.67059769514162
 20
284.79562213585109
 30
0.0
 11
973.67059769514162
 21
279.19434860237021
 31
0.0
  0
LINE
  5
1F5A1
  8
SU
 10
973.47059769514135
 20
284.91562213585098
 30
0.0
 11
973.47059769514135
 21
279.07434860236998
 31
0.0
  0
LINE
  5
1F5A2
  8
SU
 10
973.27059769514153
 20
285.0356221358511
 30
0.0
 11
973.27059769514153
 21
278.95434860237009
 31
0.0
  0
LINE
  5
1F5A3
  8
SU
 10
973.07059769514171
 20
285.15562213585099
 30
0.0
 11
973.07059769514171
 21
278.8343486023702
 31
0.0
  0
LINE
  5
1F5A4
  8
SU
 10
972.87059769514156
 20
285.27562213585111
 30
0.0
 11
972.87059769514156
 21
278.71434860237008
 31
0.0
  0
LINE
  5
1F5A5
  8
SU
 10
972.67059769514162
 20
285.395622135851
 30
0.0
 11
972.67059769514162
 21
278.59434860237002
 31
0.0
  0
LINE
  5
1F5A6
  8
SU
 10
972.47059769514135
 20
285.51562213585089
 30
0.0
 11
972.47059769514135
 21
278.47434860237013
 31
0.0
  0
LINE
  5
1F5A7
  8
SU
 10
972.27059769514153
 20
285.63562213585101
 30
0.0
 11
972.27059769514153
 21
278.35434860237018
 31
0.0
  0
LINE
  5
1F5A8
  8
SU
 10
972.07059769514183
 20
285.75562213585113
 30
0.0
 11
972.07059769514183
 21
278.23434860237012
 31
0.0
  0
LINE
  5
1F5A9
  8
SU
 10
971.87059769514133
 20
285.87562213585102
 30
0.0
 11
971.87059769514133
 21
278.11434860237
 31
0.0
  0
LINE
  5
1F5AA
  8
SU
 10
971.67059769514162
 20
285.99562213585091
 30
0.0
 11
971.67059769514162
 21
277.99434860237011
 31
0.0
  0
LINE
  5
1F5AB
  8
SU
 10
971.47059769514135
 20
286.1156221358508
 30
0.0
 11
971.47059769514135
 21
277.87434860237022
 31
0.0
  0
LINE
  5
1F5AC
  8
SU
 10
971.27059769514153
 20
286.2356221358512
 30
0.0
 11
971.27059769514153
 21
277.7543486023701
 31
0.0
  0
LINE
  5
1F5AD
  8
SU
 10
971.0705976951416
 20
286.35562213585109
 30
0.0
 11
971.0705976951416
 21
277.63434860236998
 31
0.0
  0
LINE
  5
1F5AE
  8
SU
 10
970.87059769514144
 20
286.47562213585093
 30
0.0
 11
970.87059769514144
 21
277.51434860237009
 31
0.0
  0
LINE
  5
1F5AF
  8
SU
 10
970.67059769514174
 20
286.59562213585099
 30
0.0
 11
970.67059769514174
 21
277.3943486023702
 31
0.0
  0
LINE
  5
1F5B0
  8
SU
 10
970.47059769514135
 20
286.71562213585088
 30
0.0
 11
970.47059769514135
 21
277.27434860237008
 31
0.0
  0
LINE
  5
1F5B1
  8
SU
 10
970.27059769514153
 20
286.835622135851
 30
0.0
 11
970.27059769514153
 21
277.15434860237019
 31
0.0
  0
LINE
  5
1F5B2
  8
SU
 10
970.0705976951416
 20
286.95562213585089
 30
0.0
 11
970.0705976951416
 21
277.03434860237007
 31
0.0
  0
LINE
  5
1F5B3
  8
SU
 10
969.87059769514144
 20
287.07562213585112
 30
0.0
 11
969.87059769514144
 21
276.91434860237018
 31
0.0
  0
LINE
  5
1F5B4
  8
SU
 10
969.67059769514174
 20
287.19562213585101
 30
0.0
 11
969.67059769514174
 21
276.79434860237012
 31
0.0
  0
LINE
  5
1F5B5
  8
SU
 10
969.47059769514135
 20
287.31562213585107
 30
0.0
 11
969.47059769514135
 21
276.67434860237017
 31
0.0
  0
LINE
  5
1F5B6
  8
SU
 10
969.27059769514153
 20
287.43562213585102
 30
0.0
 11
969.27059769514153
 21
276.55434860237
 31
0.0
  0
LINE
  5
1F5B7
  8
SU
 10
969.07059769514171
 20
287.5556221358508
 30
0.0
 11
969.07059769514171
 21
276.43434860237011
 31
0.0
  0
LINE
  5
1F5B8
  8
SU
 10
968.87059769514144
 20
287.67562213585097
 30
0.0
 11
968.87059769514144
 21
276.31434860236999
 31
0.0
  0
LINE
  5
1F5B9
  8
SU
 10
968.67059769514151
 20
287.79562213585109
 30
0.0
 11
968.67059769514151
 21
276.19434860237021
 31
0.0
  0
LINE
  5
1F5BA
  8
SU
 10
968.47059769514135
 20
287.91562213585098
 30
0.0
 11
968.47059769514135
 21
276.07434860237009
 31
0.0
  0
LINE
  5
1F5BB
  8
SU
 10
588.33832563970873
 20
275.99498536911102
 30
0.0
 11
578.33832563970873
 21
281.99498536911102
 31
0.0
  0
LINE
  5
1F5BC
  8
SU
 10
588.33832563970873
 20
287.99498536911102
 30
0.0
 11
578.33832563970873
 21
281.99498536911102
 31
0.0
  0
LINE
  5
1F5BD
  8
SU
 10
588.33832563970873
 20
275.99498536911102
 30
0.0
 11
588.33832563970873
 21
287.99498536911102
 31
0.0
  0
LINE
  5
1F5BE
  8
SU
 10
578.40605358427592
 20
281.95434860237037
 30
0.0
 11
578.40605358427592
 21
282.03562213585133
 31
0.0
  0
LINE
  5
1F5BF
  8
SU
 10
578.60605358427574
 20
281.83434860237048
 30
0.0
 11
578.60605358427574
 21
282.15562213585122
 31
0.0
  0
LINE
  5
1F5C0
  8
SU
 10
578.80605358427601
 20
281.71434860237042
 30
0.0
 11
578.80605358427601
 21
282.27562213585128
 31
0.0
  0
LINE
  5
1F5C1
  8
SU
 10
579.00605358427583
 20
281.59434860237047
 30
0.0
 11
579.00605358427583
 21
282.3956221358514
 31
0.0
  0
LINE
  5
1F5C2
  8
SU
 10
579.20605358427611
 20
281.47434860237058
 30
0.0
 11
579.20605358427611
 21
282.51562213585129
 31
0.0
  0
LINE
  5
1F5C3
  8
SU
 10
579.40605358427592
 20
281.35434860237041
 30
0.0
 11
579.40605358427592
 21
282.63562213585118
 31
0.0
  0
LINE
  5
1F5C4
  8
SU
 10
579.60605358427574
 20
281.23434860237029
 30
0.0
 11
579.60605358427574
 21
282.75562213585141
 31
0.0
  0
LINE
  5
1F5C5
  8
SU
 10
579.8060535842759
 20
281.11434860237051
 30
0.0
 11
579.8060535842759
 21
282.87562213585147
 31
0.0
  0
LINE
  5
1F5C6
  8
SU
 10
580.00605358427583
 20
280.99434860237062
 30
0.0
 11
580.00605358427583
 21
282.99562213585142
 31
0.0
  0
LINE
  5
1F5C7
  8
SU
 10
580.20605358427611
 20
280.87434860237067
 30
0.0
 11
580.20605358427611
 21
283.1156221358512
 31
0.0
  0
LINE
  5
1F5C8
  8
SU
 10
580.40605358427592
 20
280.75434860237033
 30
0.0
 11
580.40605358427592
 21
283.23562213585137
 31
0.0
  0
LINE
  5
1F5C9
  8
SU
 10
580.60605358427574
 20
280.63434860237038
 30
0.0
 11
580.60605358427574
 21
283.35562213585149
 31
0.0
  0
LINE
  5
1F5CA
  8
SU
 10
580.80605358427601
 20
280.51434860237049
 30
0.0
 11
580.80605358427601
 21
283.47562213585138
 31
0.0
  0
LINE
  5
1F5CB
  8
SU
 10
581.00605358427583
 20
280.39434860237043
 30
0.0
 11
581.00605358427583
 21
283.59562213585127
 31
0.0
  0
LINE
  5
1F5CC
  8
SU
 10
581.20605358427611
 20
280.27434860237048
 30
0.0
 11
581.20605358427611
 21
283.71562213585139
 31
0.0
  0
LINE
  5
1F5CD
  8
SU
 10
581.40605358427592
 20
280.15434860237042
 30
0.0
 11
581.40605358427592
 21
283.83562213585128
 31
0.0
  0
LINE
  5
1F5CE
  8
SU
 10
581.60605358427574
 20
280.03434860237059
 30
0.0
 11
581.60605358427574
 21
283.9556221358514
 31
0.0
  0
LINE
  5
1F5CF
  8
SU
 10
581.80605358427601
 20
279.91434860237041
 30
0.0
 11
581.80605358427601
 21
284.07562213585129
 31
0.0
  0
LINE
  5
1F5D0
  8
SU
 10
582.00605358427583
 20
279.79434860237052
 30
0.0
 11
582.00605358427583
 21
284.19562213585141
 31
0.0
  0
LINE
  5
1F5D1
  8
SU
 10
582.20605358427599
 20
279.6743486023704
 30
0.0
 11
582.20605358427599
 21
284.3156221358513
 31
0.0
  0
LINE
  5
1F5D2
  8
SU
 10
582.40605358427592
 20
279.55434860237051
 30
0.0
 11
582.40605358427592
 21
284.43562213585142
 31
0.0
  0
LINE
  5
1F5D3
  8
SU
 10
582.60605358427574
 20
279.43434860237062
 30
0.0
 11
582.60605358427574
 21
284.55562213585131
 31
0.0
  0
LINE
  5
1F5D4
  8
SU
 10
582.80605358427601
 20
279.3143486023705
 30
0.0
 11
582.80605358427601
 21
284.67562213585143
 31
0.0
  0
LINE
  5
1F5D5
  8
SU
 10
583.00605358427583
 20
279.19434860237038
 30
0.0
 11
583.00605358427583
 21
284.79562213585132
 31
0.0
  0
LINE
  5
1F5D6
  8
SU
 10
583.20605358427611
 20
279.07434860237049
 30
0.0
 11
583.20605358427611
 21
284.91562213585138
 31
0.0
  0
LINE
  5
1F5D7
  8
SU
 10
583.40605358427592
 20
278.95434860237037
 30
0.0
 11
583.40605358427592
 21
285.03562213585133
 31
0.0
  0
LINE
  5
1F5D8
  8
SU
 10
583.60605358427574
 20
278.83434860237048
 30
0.0
 11
583.60605358427574
 21
285.15562213585122
 31
0.0
  0
LINE
  5
1F5D9
  8
SU
 10
583.8060535842759
 20
278.71434860237042
 30
0.0
 11
583.8060535842759
 21
285.27562213585139
 31
0.0
  0
LINE
  5
1F5DA
  8
SU
 10
584.00605358427583
 20
278.59434860237047
 30
0.0
 11
584.00605358427583
 21
285.39562213585151
 31
0.0
  0
LINE
  5
1F5DB
  8
SU
 10
584.20605358427611
 20
278.47434860237058
 30
0.0
 11
584.20605358427611
 21
285.51562213585129
 31
0.0
  0
LINE
  5
1F5DC
  8
SU
 10
584.40605358427592
 20
278.35434860237052
 30
0.0
 11
584.40605358427592
 21
285.63562213585118
 31
0.0
  0
LINE
  5
1F5DD
  8
SU
 10
584.60605358427574
 20
278.23434860237029
 30
0.0
 11
584.60605358427574
 21
285.75562213585141
 31
0.0
  0
LINE
  5
1F5DE
  8
SU
 10
584.80605358427601
 20
278.1143486023704
 30
0.0
 11
584.80605358427601
 21
285.87562213585147
 31
0.0
  0
LINE
  5
1F5DF
  8
SU
 10
585.00605358427583
 20
277.99434860237062
 30
0.0
 11
585.00605358427583
 21
285.99562213585142
 31
0.0
  0
LINE
  5
1F5E0
  8
SU
 10
585.20605358427611
 20
277.87434860237067
 30
0.0
 11
585.20605358427611
 21
286.11562213585131
 31
0.0
  0
LINE
  5
1F5E1
  8
SU
 10
585.40605358427592
 20
277.75434860237033
 30
0.0
 11
585.40605358427592
 21
286.23562213585137
 31
0.0
  0
LINE
  5
1F5E2
  8
SU
 10
585.60605358427574
 20
277.63434860237049
 30
0.0
 11
585.60605358427574
 21
286.35562213585149
 31
0.0
  0
LINE
  5
1F5E3
  8
SU
 10
585.80605358427601
 20
277.5143486023706
 30
0.0
 11
585.80605358427601
 21
286.47562213585138
 31
0.0
  0
LINE
  5
1F5E4
  8
SU
 10
586.00605358427583
 20
277.39434860237043
 30
0.0
 11
586.00605358427583
 21
286.59562213585122
 31
0.0
  0
LINE
  5
1F5E5
  8
SU
 10
586.20605358427599
 20
277.27434860237048
 30
0.0
 11
586.20605358427599
 21
286.71562213585139
 31
0.0
  0
LINE
  5
1F5E6
  8
SU
 10
586.40605358427592
 20
277.15434860237042
 30
0.0
 11
586.40605358427592
 21
286.83562213585128
 31
0.0
  0
LINE
  5
1F5E7
  8
SU
 10
586.60605358427574
 20
277.03434860237053
 30
0.0
 11
586.60605358427574
 21
286.9556221358514
 31
0.0
  0
LINE
  5
1F5E8
  8
SU
 10
586.80605358427601
 20
276.91434860237041
 30
0.0
 11
586.80605358427601
 21
287.07562213585129
 31
0.0
  0
LINE
  5
1F5E9
  8
SU
 10
587.00605358427583
 20
276.79434860237052
 30
0.0
 11
587.00605358427583
 21
287.19562213585141
 31
0.0
  0
LINE
  5
1F5EA
  8
SU
 10
587.20605358427611
 20
276.6743486023704
 30
0.0
 11
587.20605358427611
 21
287.3156221358513
 31
0.0
  0
LINE
  5
1F5EB
  8
SU
 10
587.40605358427592
 20
276.55434860237051
 30
0.0
 11
587.40605358427592
 21
287.43562213585142
 31
0.0
  0
LINE
  5
1F5EC
  8
SU
 10
587.60605358427574
 20
276.43434860237062
 30
0.0
 11
587.60605358427574
 21
287.55562213585131
 31
0.0
  0
LINE
  5
1F5ED
  8
SU
 10
587.80605358427601
 20
276.3143486023705
 30
0.0
 11
587.80605358427601
 21
287.67562213585143
 31
0.0
  0
LINE
  5
1F5EE
  8
SU
 10
588.00605358427583
 20
276.19434860237038
 30
0.0
 11
588.00605358427583
 21
287.79562213585132
 31
0.0
  0
LINE
  5
1F5EF
  8
SU
 10
588.20605358427611
 20
276.07434860237049
 30
0.0
 11
588.20605358427611
 21
287.91562213585138
 31
0.0
  0
LINE
  5
1F5F0
  8
SU
 10
978.33832563970873
 20
310.99498536911068
 30
0.0
 11
978.33832563970873
 21
278.99498536911079
 31
0.0
  0
LINE
  5
1F5F1
  8
SU
 10
578.33832563970873
 20
310.99498536911068
 30
0.0
 11
578.33832563970873
 21
278.99498536911079
 31
0.0
  0
LINE
  5
1F5F2
  8
SU
 10
978.33832563970873
 20
281.99498536911068
 30
0.0
 11
578.33832563970873
 21
281.99498536911068
 31
0.0
  0
LINE
  5
1F5F4
  8
SU
 10
218.357966380064
 20
600.53023868044295
 30
0.0
 11
218.357966380064
 21
578.53023916022676
 31
0.0
  0
LINE
  5
1F5F5
  8
SU
 10
251.3579663800642
 20
600.53023916022676
 30
0.0
 11
251.3579663800642
 21
578.53023916022676
 31
0.0
  0
LINE
  5
1F5F6
  8
SU
 10
218.357966380064
 20
581.53023916022676
 30
0.0
 11
251.3579663800642
 21
581.53023916022676
 31
0.0
  0
LINE
  5
1F5FA
  8
SU
 10
252.35796638006289
 20
601.53023868044295
 30
0.0
 11
302.85796638006423
 21
601.53023868044295
 31
0.0
  0
LINE
  5
1F5FB
  8
SU
 10
299.85796638006423
 20
601.53023868044295
 30
0.0
 11
299.85796638006423
 21
616.53023858197355
 31
0.0
  0
LINE
  5
1F5FE
  8
SU
 10
325.85796638006389
 20
250.53023868044471
 30
0.0
 11
319.85796638006389
 21
240.5302386804446
 31
0.0
  0
LINE
  5
1F5FF
  8
SU
 10
313.85796638006389
 20
250.53023868044471
 30
0.0
 11
319.85796638006389
 21
240.5302386804446
 31
0.0
  0
LINE
  5
1F600
  8
SU
 10
325.85796638006389
 20
250.53023868044471
 30
0.0
 11
313.85796638006389
 21
250.53023868044471
 31
0.0
  0
LINE
  5
1F601
  8
SU
 10
319.89860314680459
 20
240.59796662501179
 30
0.0
 11
319.81732961332358
 21
240.59796662501179
 31
0.0
  0
LINE
  5
1F602
  8
SU
 10
320.01860314680442
 20
240.7979666250117
 30
0.0
 11
319.69732961332369
 21
240.7979666250117
 31
0.0
  0
LINE
  5
1F603
  8
SU
 10
320.13860314680448
 20
240.99796662501191
 30
0.0
 11
319.57732961332363
 21
240.99796662501191
 31
0.0
  0
LINE
  5
1F604
  8
SU
 10
320.25860314680438
 20
241.19796662501179
 30
0.0
 11
319.4573296133234
 21
241.19796662501179
 31
0.0
  0
LINE
  5
1F605
  8
SU
 10
320.37860314680432
 20
241.397966625012
 30
0.0
 11
319.3373296133235
 21
241.397966625012
 31
0.0
  0
LINE
  5
1F606
  8
SU
 10
320.49860314680438
 20
241.59796662501191
 30
0.0
 11
319.21732961332373
 21
241.59796662501191
 31
0.0
  0
LINE
  5
1F607
  8
SU
 10
320.61860314680462
 20
241.7979666250117
 30
0.0
 11
319.09732961332361
 21
241.7979666250117
 31
0.0
  0
LINE
  5
1F608
  8
SU
 10
320.73860314680451
 20
241.997966625012
 30
0.0
 11
318.97732961332349
 21
241.997966625012
 31
0.0
  0
LINE
  5
1F609
  8
SU
 10
320.8586031468044
 20
242.19796662501179
 30
0.0
 11
318.8573296133236
 21
242.19796662501179
 31
0.0
  0
LINE
  5
1F60A
  8
SU
 10
320.97860314680418
 20
242.397966625012
 30
0.0
 11
318.73732961332371
 21
242.397966625012
 31
0.0
  0
LINE
  5
1F60B
  8
SU
 10
321.09860314680458
 20
242.59796662501179
 30
0.0
 11
318.61732961332348
 21
242.59796662501179
 31
0.0
  0
LINE
  5
1F60C
  8
SU
 10
321.21860314680453
 20
242.79796662501161
 30
0.0
 11
318.49732961332342
 21
242.79796662501161
 31
0.0
  0
LINE
  5
1F60D
  8
SU
 10
321.33860314680442
 20
242.99796662501191
 30
0.0
 11
318.37732961332352
 21
242.99796662501191
 31
0.0
  0
LINE
  5
1F60E
  8
SU
 10
321.45860314680448
 20
243.19796662501179
 30
0.0
 11
318.25732961332358
 21
243.19796662501179
 31
0.0
  0
LINE
  5
1F60F
  8
SU
 10
321.57860314680443
 20
243.397966625012
 30
0.0
 11
318.13732961332352
 21
243.397966625012
 31
0.0
  0
LINE
  5
1F610
  8
SU
 10
321.69860314680449
 20
243.59796662501191
 30
0.0
 11
318.01732961332362
 21
243.59796662501191
 31
0.0
  0
LINE
  5
1F611
  8
SU
 10
321.81860314680438
 20
243.7979666250117
 30
0.0
 11
317.89732961332351
 21
243.7979666250117
 31
0.0
  0
LINE
  5
1F612
  8
SU
 10
321.9386031468045
 20
243.997966625012
 30
0.0
 11
317.77732961332362
 21
243.997966625012
 31
0.0
  0
LINE
  5
1F613
  8
SU
 10
322.05860314680439
 20
244.19796662501179
 30
0.0
 11
317.6573296133235
 21
244.19796662501179
 31
0.0
  0
LINE
  5
1F614
  8
SU
 10
322.17860314680451
 20
244.397966625012
 30
0.0
 11
317.53732961332361
 21
244.397966625012
 31
0.0
  0
LINE
  5
1F615
  8
SU
 10
322.2986031468044
 20
244.59796662501179
 30
0.0
 11
317.41732961332349
 21
244.59796662501179
 31
0.0
  0
LINE
  5
1F616
  8
SU
 10
322.41860314680429
 20
244.79796662501161
 30
0.0
 11
317.2973296133236
 21
244.79796662501161
 31
0.0
  0
LINE
  5
1F617
  8
SU
 10
322.53860314680441
 20
244.99796662501191
 30
0.0
 11
317.17732961332348
 21
244.99796662501191
 31
0.0
  0
LINE
  5
1F618
  8
SU
 10
322.65860314680452
 20
245.1979666250117
 30
0.0
 11
317.05732961332359
 21
245.1979666250117
 31
0.0
  0
LINE
  5
1F619
  8
SU
 10
322.77860314680441
 20
245.397966625012
 30
0.0
 11
316.93732961332353
 21
245.397966625012
 31
0.0
  0
LINE
  5
1F61A
  8
SU
 10
322.89860314680448
 20
245.59796662501191
 30
0.0
 11
316.81732961332358
 21
245.59796662501191
 31
0.0
  0
LINE
  5
1F61B
  8
SU
 10
323.01860314680442
 20
245.7979666250117
 30
0.0
 11
316.69732961332369
 21
245.7979666250117
 31
0.0
  0
LINE
  5
1F61C
  8
SU
 10
323.1386031468046
 20
245.997966625012
 30
0.0
 11
316.57732961332363
 21
245.997966625012
 31
0.0
  0
LINE
  5
1F61D
  8
SU
 10
323.25860314680449
 20
246.19796662501179
 30
0.0
 11
316.45732961332351
 21
246.19796662501179
 31
0.0
  0
LINE
  5
1F61E
  8
SU
 10
323.37860314680432
 20
246.397966625012
 30
0.0
 11
316.33732961332362
 21
246.397966625012
 31
0.0
  0
LINE
  5
1F61F
  8
SU
 10
323.49860314680438
 20
246.59796662501179
 30
0.0
 11
316.21732961332373
 21
246.59796662501179
 31
0.0
  0
LINE
  5
1F620
  8
SU
 10
323.6186031468045
 20
246.79796662501161
 30
0.0
 11
316.0973296133235
 21
246.79796662501161
 31
0.0
  0
LINE
  5
1F621
  8
SU
 10
323.73860314680439
 20
246.99796662501191
 30
0.0
 11
315.97732961332338
 21
246.99796662501191
 31
0.0
  0
LINE
  5
1F622
  8
SU
 10
323.85860314680428
 20
247.1979666250117
 30
0.0
 11
315.85732961332349
 21
247.1979666250117
 31
0.0
  0
LINE
  5
1F623
  8
SU
 10
323.97860314680418
 20
247.397966625012
 30
0.0
 11
315.73732961332371
 21
247.397966625012
 31
0.0
  0
LINE
  5
1F624
  8
SU
 10
324.09860314680458
 20
247.59796662501179
 30
0.0
 11
315.61732961332359
 21
247.59796662501179
 31
0.0
  0
LINE
  5
1F625
  8
SU
 10
324.21860314680453
 20
247.7979666250117
 30
0.0
 11
315.49732961332342
 21
247.7979666250117
 31
0.0
  0
LINE
  5
1F626
  8
SU
 10
324.33860314680442
 20
247.997966625012
 30
0.0
 11
315.37732961332352
 21
247.997966625012
 31
0.0
  0
LINE
  5
1F627
  8
SU
 10
324.45860314680448
 20
248.19796662501179
 30
0.0
 11
315.25732961332358
 21
248.19796662501179
 31
0.0
  0
LINE
  5
1F628
  8
SU
 10
324.57860314680443
 20
248.39796662501209
 30
0.0
 11
315.13732961332352
 21
248.39796662501209
 31
0.0
  0
LINE
  5
1F629
  8
SU
 10
324.69860314680449
 20
248.59796662501191
 30
0.0
 11
315.01732961332362
 21
248.59796662501191
 31
0.0
  0
LINE
  5
1F62A
  8
SU
 10
324.81860314680438
 20
248.7979666250117
 30
0.0
 11
314.89732961332351
 21
248.7979666250117
 31
0.0
  0
LINE
  5
1F62B
  8
SU
 10
324.9386031468045
 20
248.99796662501191
 30
0.0
 11
314.77732961332362
 21
248.99796662501191
 31
0.0
  0
LINE
  5
1F62C
  8
SU
 10
325.05860314680439
 20
249.1979666250117
 30
0.0
 11
314.6573296133235
 21
249.1979666250117
 31
0.0
  0
LINE
  5
1F62D
  8
SU
 10
325.17860314680451
 20
249.397966625012
 30
0.0
 11
314.53732961332361
 21
249.397966625012
 31
0.0
  0
LINE
  5
1F62E
  8
SU
 10
325.2986031468044
 20
249.59796662501179
 30
0.0
 11
314.41732961332349
 21
249.59796662501179
 31
0.0
  0
LINE
  5
1F62F
  8
SU
 10
325.41860314680429
 20
249.7979666250117
 30
0.0
 11
314.2973296133236
 21
249.7979666250117
 31
0.0
  0
LINE
  5
1F630
  8
SU
 10
325.53860314680441
 20
249.99796662501191
 30
0.0
 11
314.17732961332348
 21
249.99796662501191
 31
0.0
  0
LINE
  5
1F631
  8
SU
 10
325.65860314680452
 20
250.19796662501179
 30
0.0
 11
314.05732961332359
 21
250.19796662501179
 31
0.0
  0
LINE
  5
1F632
  8
SU
 10
325.77860314680441
 20
250.39796662501209
 30
0.0
 11
313.93732961332353
 21
250.39796662501209
 31
0.0
  0
LINE
  5
1F633
  8
SU
 10
313.8579663800644
 20
629.03023868044284
 30
0.0
 11
319.8579663800644
 21
639.03023868044284
 31
0.0
  0
LINE
  5
1F634
  8
SU
 10
325.8579663800644
 20
629.03023868044284
 30
0.0
 11
319.8579663800644
 21
639.03023868044284
 31
0.0
  0
LINE
  5
1F635
  8
SU
 10
313.8579663800644
 20
629.03023868044284
 30
0.0
 11
325.8579663800644
 21
629.03023868044284
 31
0.0
  0
LINE
  5
1F636
  8
SU
 10
319.81732961332381
 20
638.96251073587564
 30
0.0
 11
319.89860314680482
 21
638.96251073587564
 31
0.0
  0
LINE
  5
1F637
  8
SU
 10
319.69732961332392
 20
638.76251073587582
 30
0.0
 11
320.01860314680459
 21
638.76251073587582
 31
0.0
  0
LINE
  5
1F638
  8
SU
 10
319.5773296133238
 20
638.56251073587555
 30
0.0
 11
320.13860314680483
 21
638.56251073587555
 31
0.0
  0
LINE
  5
1F639
  8
SU
 10
319.45732961332391
 20
638.36251073587573
 30
0.0
 11
320.25860314680489
 21
638.36251073587573
 31
0.0
  0
LINE
  5
1F63A
  8
SU
 10
319.33732961332402
 20
638.16251073587534
 30
0.0
 11
320.37860314680478
 21
638.16251073587534
 31
0.0
  0
LINE
  5
1F63B
  8
SU
 10
319.2173296133239
 20
637.96251073587564
 30
0.0
 11
320.49860314680473
 21
637.96251073587564
 31
0.0
  0
LINE
  5
1F63C
  8
SU
 10
319.09732961332378
 20
637.76251073587582
 30
0.0
 11
320.61860314680479
 21
637.76251073587582
 31
0.0
  0
LINE
  5
1F63D
  8
SU
 10
318.97732961332389
 20
637.56251073587555
 30
0.0
 11
320.73860314680491
 21
637.56251073587555
 31
0.0
  0
LINE
  5
1F63E
  8
SU
 10
318.857329613324
 20
637.36251073587573
 30
0.0
 11
320.8586031468048
 21
637.36251073587573
 31
0.0
  0
LINE
  5
1F63F
  8
SU
 10
318.73732961332411
 20
637.16251073587534
 30
0.0
 11
320.97860314680469
 21
637.16251073587534
 31
0.0
  0
LINE
  5
1F640
  8
SU
 10
318.61732961332382
 20
636.96251073587564
 30
0.0
 11
321.09860314680481
 21
636.96251073587564
 31
0.0
  0
LINE
  5
1F641
  8
SU
 10
318.49732961332393
 20
636.76251073587582
 30
0.0
 11
321.21860314680492
 21
636.76251073587582
 31
0.0
  0
LINE
  5
1F642
  8
SU
 10
318.37732961332398
 20
636.56251073587555
 30
0.0
 11
321.33860314680481
 21
636.56251073587555
 31
0.0
  0
LINE
  5
1F643
  8
SU
 10
318.2573296133238
 20
636.36251073587573
 30
0.0
 11
321.45860314680471
 21
636.36251073587573
 31
0.0
  0
LINE
  5
1F644
  8
SU
 10
318.13732961332403
 20
636.16251073587534
 30
0.0
 11
321.57860314680482
 21
636.16251073587534
 31
0.0
  0
LINE
  5
1F645
  8
SU
 10
318.01732961332391
 20
635.96251073587564
 30
0.0
 11
321.69860314680471
 21
635.96251073587564
 31
0.0
  0
LINE
  5
1F646
  8
SU
 10
317.89732961332402
 20
635.76251073587571
 30
0.0
 11
321.81860314680478
 21
635.76251073587571
 31
0.0
  0
LINE
  5
1F647
  8
SU
 10
317.7773296133239
 20
635.56251073587555
 30
0.0
 11
321.93860314680472
 21
635.56251073587555
 31
0.0
  0
LINE
  5
1F648
  8
SU
 10
317.65732961332401
 20
635.36251073587573
 30
0.0
 11
322.0586031468049
 21
635.36251073587573
 31
0.0
  0
LINE
  5
1F649
  8
SU
 10
317.53732961332378
 20
635.16251073587546
 30
0.0
 11
322.17860314680468
 21
635.16251073587546
 31
0.0
  0
LINE
  5
1F64A
  8
SU
 10
317.41732961332389
 20
634.96251073587564
 30
0.0
 11
322.29860314680491
 21
634.96251073587564
 31
0.0
  0
LINE
  5
1F64B
  8
SU
 10
317.297329613324
 20
634.76251073587582
 30
0.0
 11
322.41860314680468
 21
634.76251073587582
 31
0.0
  0
LINE
  5
1F64C
  8
SU
 10
317.17732961332388
 20
634.56251073587555
 30
0.0
 11
322.5386031468048
 21
634.56251073587555
 31
0.0
  0
LINE
  5
1F64D
  8
SU
 10
317.05732961332382
 20
634.36251073587573
 30
0.0
 11
322.65860314680469
 21
634.36251073587573
 31
0.0
  0
LINE
  5
1F64E
  8
SU
 10
316.93732961332393
 20
634.16251073587534
 30
0.0
 11
322.77860314680493
 21
634.16251073587534
 31
0.0
  0
LINE
  5
1F64F
  8
SU
 10
316.81732961332381
 20
633.96251073587564
 30
0.0
 11
322.89860314680482
 21
633.96251073587564
 31
0.0
  0
LINE
  5
1F650
  8
SU
 10
316.69732961332392
 20
633.76251073587582
 30
0.0
 11
323.01860314680471
 21
633.76251073587582
 31
0.0
  0
LINE
  5
1F651
  8
SU
 10
316.5773296133238
 20
633.56251073587555
 30
0.0
 11
323.13860314680483
 21
633.56251073587555
 31
0.0
  0
LINE
  5
1F652
  8
SU
 10
316.45732961332391
 20
633.36251073587573
 30
0.0
 11
323.25860314680489
 21
633.36251073587573
 31
0.0
  0
LINE
  5
1F653
  8
SU
 10
316.33732961332402
 20
633.16251073587534
 30
0.0
 11
323.37860314680478
 21
633.16251073587534
 31
0.0
  0
LINE
  5
1F654
  8
SU
 10
316.2173296133239
 20
632.96251073587564
 30
0.0
 11
323.49860314680473
 21
632.96251073587564
 31
0.0
  0
LINE
  5
1F655
  8
SU
 10
316.09732961332378
 20
632.76251073587582
 30
0.0
 11
323.61860314680479
 21
632.76251073587582
 31
0.0
  0
LINE
  5
1F656
  8
SU
 10
315.97732961332389
 20
632.56251073587555
 30
0.0
 11
323.73860314680491
 21
632.56251073587555
 31
0.0
  0
LINE
  5
1F657
  8
SU
 10
315.857329613324
 20
632.36251073587573
 30
0.0
 11
323.8586031468048
 21
632.36251073587573
 31
0.0
  0
LINE
  5
1F658
  8
SU
 10
315.73732961332411
 20
632.16251073587534
 30
0.0
 11
323.97860314680469
 21
632.16251073587534
 31
0.0
  0
LINE
  5
1F659
  8
SU
 10
315.61732961332382
 20
631.96251073587564
 30
0.0
 11
324.09860314680481
 21
631.96251073587564
 31
0.0
  0
LINE
  5
1F65A
  8
SU
 10
315.49732961332393
 20
631.76251073587571
 30
0.0
 11
324.21860314680492
 21
631.76251073587571
 31
0.0
  0
LINE
  5
1F65B
  8
SU
 10
315.37732961332398
 20
631.56251073587555
 30
0.0
 11
324.33860314680481
 21
631.56251073587555
 31
0.0
  0
LINE
  5
1F65C
  8
SU
 10
315.25732961332392
 20
631.36251073587573
 30
0.0
 11
324.45860314680471
 21
631.36251073587573
 31
0.0
  0
LINE
  5
1F65D
  8
SU
 10
315.13732961332403
 20
631.16251073587546
 30
0.0
 11
324.57860314680482
 21
631.16251073587546
 31
0.0
  0
LINE
  5
1F65E
  8
SU
 10
315.0173296133238
 20
630.96251073587564
 30
0.0
 11
324.69860314680471
 21
630.96251073587564
 31
0.0
  0
LINE
  5
1F65F
  8
SU
 10
314.8973296133239
 20
630.76251073587582
 30
0.0
 11
324.81860314680478
 21
630.76251073587582
 31
0.0
  0
LINE
  5
1F660
  8
SU
 10
314.77732961332379
 20
630.56251073587555
 30
0.0
 11
324.93860314680472
 21
630.56251073587555
 31
0.0
  0
LINE
  5
1F661
  8
SU
 10
314.65732961332401
 20
630.36251073587573
 30
0.0
 11
325.05860314680478
 21
630.36251073587573
 31
0.0
  0
LINE
  5
1F662
  8
SU
 10
314.53732961332389
 20
630.16251073587534
 30
0.0
 11
325.17860314680468
 21
630.16251073587534
 31
0.0
  0
LINE
  5
1F663
  8
SU
 10
314.417329613324
 20
629.96251073587564
 30
0.0
 11
325.29860314680479
 21
629.96251073587564
 31
0.0
  0
LINE
  5
1F664
  8
SU
 10
314.29732961332411
 20
629.76251073587582
 30
0.0
 11
325.41860314680468
 21
629.76251073587582
 31
0.0
  0
LINE
  5
1F665
  8
SU
 10
314.17732961332388
 20
629.56251073587555
 30
0.0
 11
325.53860314680492
 21
629.56251073587555
 31
0.0
  0
LINE
  5
1F666
  8
SU
 10
314.05732961332382
 20
629.36251073587573
 30
0.0
 11
325.65860314680481
 21
629.36251073587573
 31
0.0
  0
LINE
  5
1F667
  8
SU
 10
313.93732961332393
 20
629.16251073587534
 30
0.0
 11
325.77860314680493
 21
629.16251073587534
 31
0.0
  0
LINE
  5
1F668
  8
SU
 10
249.8579663800642
 20
616.53023858197355
 30
0.0
 11
302.85796638006377
 21
616.53023858197355
 31
0.0
  0
LINE
  5
1F669
  8
SU
 10
299.85796638006377
 20
616.53023858197355
 30
0.0
 11
299.85796638006377
 21
639.03023868044284
 31
0.0
  0
LINE
  5
1F66D
  8
SU
 10
280.85796638006411
 20
639.03023868044284
 30
0.0
 11
322.85796638006423
 21
639.03023868044284
 31
0.0
  0
LINE
  5
1F66E
  8
SU
 10
280.85796638006411
 20
240.5302386804446
 30
0.0
 11
322.85796638006423
 21
240.5302386804446
 31
0.0
  0
LINE
  5
1F66F
  8
SU
 10
319.85796638006423
 20
639.03023868044284
 30
0.0
 11
319.85796638006423
 21
240.5302386804446
 31
0.0
  0
LINE
  5
1F671
  8
SU
 10
299.85796638006411
 20
240.5302386804446
 30
0.0
 11
299.85796638006423
 21
601.53023868044295
 31
0.0
  0
LINE
  5
1F674
  8
SU
 10
263.8579663802214
 20
640.03023868044295
 30
0.0
 11
263.8579663802214
 21
662.0302386804434
 31
0.0
  0
LINE
  5
1F675
  8
SU
 10
205.85796638022359
 20
640.03023868044352
 30
0.0
 11
205.85796638022359
 21
662.0302386804434
 31
0.0
  0
LINE
  5
1F676
  8
SU
 10
263.8579663802214
 20
659.0302386804434
 30
0.0
 11
205.85796638022359
 21
659.0302386804434
 31
0.0
  0
TEXT
  5
1F67A
  8
SU
 10
773.59546849685159
 20
283.2949853691108
 30
0.0
 40
10.0
  1
W
 41
0.8299999999999999
  0
TEXT
  5
1F67B
  8
SU
 10
229.32463304673081
 20
582.8302391602266
 30
0.0
 40
7.0
  1
33
 41
0.8299999999999999
  0
TEXT
  5
1F67E
  8
SU
 10
298.5579663800641
 20
603.0819052978751
 30
0.0
 40
7.0
  1
15
 50
90.0
 41
0.8299999999999999
  0
TEXT
  5
1F680
  8
SU
 10
298.5579663800637
 20
619.27020222560066
 30
0.0
 40
7.0
  1
22.5
 50
90.0
 41
0.8299999999999999
  0
TEXT
  5
1F683
  8
SU
 10
318.5579663800641
 20
435.43261963282481
 30
0.0
 40
10.0
  1
H
 50
90.0
 41
0.8299999999999999
  0
TEXT
  5
1F684
  8
SU
 10
298.5579663800641
 20
415.08190534711048
 30
0.0
 40
7.0
  1
DH
 50
90.0
 41
0.8299999999999999
  0
TEXT
  5
1F686
  8
SU
 10
229.32463304688909
 20
660.33023868044336
 30
0.0
 40
7.0
  1
58
 41
0.8299999999999999
  0
ARC
  5
1F689
  8
SU
 10
251.3579663800642
 20
581.53023916022676
 30
0.0
 40
0.5999999999999944
 50
180.0
 51
0.0
  0
ARC
  5
1F68A
  8
SU
 10
251.3579663800642
 20
581.53023916022676
 30
0.0
 40
0.5999999999999944
 50
0.0
 51
180.0
  0
ARC
  5
1F68B
  8
SU
 10
218.357966380064
 20
581.53023916022676
 30
0.0
 40
0.5999999999999944
 50
0.0
 51
180.0
  0
ARC
  5
1F68C
  8
SU
 10
218.357966380064
 20
581.53023916022676
 30
0.0
 40
0.5999999999999944
 50
180.0
 51
0.0
  0
ARC
  5
1F68D
  8
SU
 10
299.85796638006423
 20
601.53023868044295
 30
0.0
 40
0.6000000000000229
 50
90.0
 51
270.0
  0
ARC
  5
1F68E
  8
SU
 10
299.85796638006423
 20
601.53023868044295
 30
0.0
 40
0.6000000000000229
 50
270.0
 51
90.0
  0
ARC
  5
1F68F
  8
SU
 10
299.85796638006377
 20
639.03023868044284
 30
0.0
 40
0.6000000000000229
 50
270.0
 51
90.0
  0
ARC
  5
1F690
  8
SU
 10
299.85796638006377
 20
639.03023868044284
 30
0.0
 40
0.6000000000000229
 50
90.0
 51
270.0
  0
ARC
  5
1F691
  8
SU
 10
299.85796638006377
 20
616.53023858197355
 30
0.0
 40
0.6000000000000229
 50
90.0
 51
270.0
  0
ARC
  5
1F692
  8
SU
 10
299.85796638006377
 20
616.53023858197355
 30
0.0
 40
0.6000000000000229
 50
270.0
 51
90.0
  0
ARC
  5
1F693
  8
SU
 10
299.85796638006411
 20
240.5302386804446
 30
0.0
 40
0.5999999999999944
 50
90.0
 51
270.0
  0
ARC
  5
1F694
  8
SU
 10
299.85796638006411
 20
240.5302386804446
 30
0.0
 40
0.5999999999999944
 50
270.0
 51
90.0
  0
ARC
  5
1F695
  8
SU
 10
205.85796638022359
 20
659.0302386804434
 30
0.0
 40
0.5999999999999944
 50
0.0
 51
180.0
  0
ARC
  5
1F696
  8
SU
 10
205.85796638022359
 20
659.0302386804434
 30
0.0
 40
0.5999999999999944
 50
180.0
 51
0.0
  0
ARC
  5
1F697
  8
SU
 10
263.8579663802214
 20
659.0302386804434
 30
0.0
 40
0.6000000000000229
 50
180.0
 51
0.0
  0
ARC
  5
1F698
  8
SU
 10
263.8579663802214
 20
659.0302386804434
 30
0.0
 40
0.6000000000000229
 50
0.0
 51
180.0
  0
ENDSEC
  0
EOF
