  0
SECTION
  2
HEADER
  9
$ACADVER
  1
AC1009
  9
$INSBASE
 10
0.0
 20
0.0
 30
0.0
  9
$EXTMIN
 10
-379.9073466908971
 20
-269.33518848444231
 30
-0.0000000000112498
  9
$EXTMAX
 10
338.66717711797349
 20
255.39511237199781
 30
0.0000000000002956
  9
$LIMMIN
 10
-410.0
 20
-286.0
  9
$LIMMAX
 10
408.99999999999989
 20
279.0
  9
$ORTHOMODE
 70
     1
  9
$REGENMODE
 70
     1
  9
$FILLMODE
 70
     1
  9
$QTEXTMODE
 70
     0
  9
$MIRRTEXT
 70
     0
  9
$DRAGMODE
 70
     2
  9
$LTSCALE
 40
1.0
  9
$OSMODE
 70
     0
  9
$ATTMODE
 70
     1
  9
$TEXTSIZE
 40
2.5
  9
$TRACEWID
 40
1.0
  9
$TEXTSTYLE
  7
STANDARD
  9
$CLAYER
  8
0
  9
$CELTYPE
  6
BYLAYER
  9
$CECOLOR
 62
   256
  9
$DIMSCALE
 40
1.0
  9
$DIMASZ
 40
1.5
  9
$DIMEXO
 40
3.0
  9
$DIMDLI
 40
7.0
  9
$DIMRND
 40
0.0
  9
$DIMDLE
 40
0.0
  9
$DIMEXE
 40
1.0
  9
$DIMTP
 40
0.1
  9
$DIMTM
 40
0.1
  9
$DIMTXT
 40
10.0
  9
$DIMCEN
 40
0.0
  9
$DIMTSZ
 40
0.0
  9
$DIMTOL
 70
     0
  9
$DIMLIM
 70
     0
  9
$DIMTIH
 70
     0
  9
$DIMTOH
 70
     0
  9
$DIMSE1
 70
     0
  9
$DIMSE2
 70
     0
  9
$DIMTAD
 70
     1
  9
$DIMZIN
 70
     0
  9
$DIMBLK
  1
DOTSMALL
  9
$DIMASO
 70
     1
  9
$DIMSHO
 70
     1
  9
$DIMPOST
  1

  9
$DIMAPOST
  1
"
  9
$DIMALT
 70
     0
  9
$DIMALTD
 70
     2
  9
$DIMALTF
 40
0.0393701
  9
$DIMLFAC
 40
1.0
  9
$DIMTOFL
 70
     1
  9
$DIMTVP
 40
0.0
  9
$DIMTIX
 70
     0
  9
$DIMSOXD
 70
     0
  9
$DIMSAH
 70
     0
  9
$DIMBLK1
  1

  9
$DIMBLK2
  1

  9
$DIMSTYLE
  2
SANKYO
  9
$DIMCLRD
 70
   256
  9
$DIMCLRE
 70
   256
  9
$DIMCLRT
 70
   256
  9
$DIMTFAC
 40
0.71
  9
$DIMGAP
 40
0.5
  9
$LUNITS
 70
     2
  9
$LUPREC
 70
     4
  9
$SKETCHINC
 40
1.0
  9
$FILLETRAD
 40
0.5
  9
$AUNITS
 70
     0
  9
$AUPREC
 70
     0
  9
$MENU
  1
.
  9
$ELEVATION
 40
0.0
  9
$PELEVATION
 40
0.0
  9
$THICKNESS
 40
0.0
  9
$LIMCHECK
 70
     0
  9
$BLIPMODE
 70
     0
  9
$CHAMFERA
 40
10.0
  9
$CHAMFERB
 40
10.0
  9
$SKPOLY
 70
     0
  9
$TDCREATE
 40
2452388.6082117362
  9
$TDUPDATE
 40
2456027.6124581131
  9
$TDINDWG
 40
1.8137531134
  9
$TDUSRTIMER
 40
1.8137531134
  9
$USRTIMER
 70
     1
  9
$ANGBASE
 50
0.0
  9
$ANGDIR
 70
     0
  9
$PDMODE
 70
     0
  9
$PDSIZE
 40
0.0
  9
$PLINEWID
 40
0.0
  9
$COORDS
 70
     1
  9
$SPLFRAME
 70
     0
  9
$SPLINETYPE
 70
     6
  9
$SPLINESEGS
 70
     8
  9
$ATTDIA
 70
     0
  9
$ATTREQ
 70
     1
  9
$HANDLING
 70
-16383
  9
$HANDSEED
  5
1AA30
  9
$SURFTAB1
 70
     6
  9
$SURFTAB2
 70
     6
  9
$SURFTYPE
 70
     6
  9
$SURFU
 70
     6
  9
$SURFV
 70
     6
  9
$UCSNAME
  2

  9
$UCSORG
 10
0.0
 20
0.0
 30
0.0
  9
$UCSXDIR
 10
1.0
 20
0.0
 30
0.0
  9
$UCSYDIR
 10
0.0
 20
1.0
 30
0.0
  9
$PUCSNAME
  2

  9
$PUCSORG
 10
0.0
 20
0.0
 30
0.0
  9
$PUCSXDIR
 10
1.0
 20
0.0
 30
0.0
  9
$PUCSYDIR
 10
0.0
 20
1.0
 30
0.0
  9
$USERI1
 70
     0
  9
$USERI2
 70
     1
  9
$USERI3
 70
     0
  9
$USERI4
 70
     0
  9
$USERI5
 70
     0
  9
$USERR1
 40
0.0
  9
$USERR2
 40
0.0
  9
$USERR3
 40
0.0
  9
$USERR4
 40
0.0
  9
$USERR5
 40
0.0
  9
$WORLDVIEW
 70
     1
  9
$SHADEDGE
 70
     3
  9
$SHADEDIF
 70
    70
  9
$TILEMODE
 70
     1
  9
$MAXACTVP
 70
    48
  9
$PLIMCHECK
 70
     0
  9
$PEXTMIN
 10
1.0000000000000000E+020
 20
1.0000000000000000E+020
 30
1.0000000000000000E+020
  9
$PEXTMAX
 10
-1.0000000000000000E+020
 20
-1.0000000000000000E+020
 30
-1.0000000000000000E+020
  9
$PLIMMIN
 10
0.0
 20
0.0
  9
$PLIMMAX
 10
420.0
 20
297.0
  9
$UNITMODE
 70
     0
  9
$VISRETAIN
 70
     1
  9
$PLINEGEN
 70
     0
  9
$PSLTSCALE
 70
     1
  0
ENDSEC
  0
SECTION
  2
TABLES
  0
TABLE
  2
VPORT
 70
     2
  0
VPORT
  2
*ACTIVE
 70
     0
 10
0.0
 20
0.0
 11
1.0
 21
1.0
 12
-20.620084786461799
 22
-6.970038056222279
 13
0.0
 23
0.0
 14
2.5
 24
2.5
 15
10.0
 25
10.0
 16
0.0
 26
0.0
 36
1.0
 17
0.0
 27
0.0
 37
0.0
 40
529.0196493648034
 41
1.3969986357435189
 42
50.0
 43
0.0
 44
0.0
 50
0.0
 51
0.0
 71
    16
 72
   100
 73
     1
 74
     0
 75
     0
 76
     0
 77
     0
 78
     0
  0
ENDTAB
  0
TABLE
  2
LTYPE
 70
    17
  0
LTYPE
  2
CONTINUOUS
 70
     0
  3
Solid line
 72
    65
 73
     0
 40
0.0
  0
LTYPE
  2
CENTER2
 70
     0
  3
Center (.5x) ___ _ ___ _ ___ _ ___ _ ___ _ ___
 72
    65
 73
     4
 40
28.574999999999989
 49
19.050000000000001
 49
-3.174999999999998
 49
3.174999999999998
 49
-3.174999999999998
  0
LTYPE
  2
DASHED2
 70
     0
  3
Dashed (.5x) _ _ _ _ _ _ _ _ _ _ _ _ _ _ _ _ _
 72
    65
 73
     2
 40
9.5249999999999986
 49
6.349999999999997
 49
-3.174999999999998
  0
ENDTAB
  0
TABLE
  2
LAYER
 70
     4
  0
LAYER
  2
0
 70
     0
 62
     7
  6
CONTINUOUS
  0
LAYER
  2
SU
 70
     0
 62
     7
  6
CONTINUOUS
  0
LAYER
  2
KI
 70
     0
 62
     7
  6
CONTINUOUS
  0
LAYER
  2
OS
 70
     0
 62
     7
  6
CONTINUOUS
  0
ENDTAB
  0
TABLE
  2
STYLE
 70
     4
  0
STYLE
  2
STANDARD
 70
     0
 40
0.0
 41
0.8299999999999999
 50
0.0
 71
     0
 42
2.5
  3
txt.shx
  4
extfont.shx
  0
ENDTAB
  0
TABLE
  2
VIEW
 70
     6
  0
VIEW
  2
AM_VIEW1
 70
     0
 40
148.9999998536185
 10
126.61001776470241
 20
223.4999997804278
 41
253.2200355294051
 11
0.0
 21
0.0
 31
1.0
 12
0.0
 22
0.0
 32
0.0
 42
50.0
 43
0.0
 44
0.0
 50
0.0
 71
    16
  0
VIEW
  2
AM_VIEW2
 70
     0
 40
148.9999998536185
 10
294.38998139545481
 20
223.4999997804278
 41
253.2200355294051
 11
0.0
 21
0.0
 31
1.0
 12
0.0
 22
0.0
 32
0.0
 42
50.0
 43
0.0
 44
0.0
 50
0.0
 71
    16
  0
VIEW
  2
AM_VIEW3
 70
     0
 40
148.9999998536185
 10
126.61001776470241
 20
74.499999926809267
 41
253.2200355294051
 11
0.0
 21
0.0
 31
1.0
 12
0.0
 22
0.0
 32
0.0
 42
50.0
 43
0.0
 44
0.0
 50
0.0
 71
    16
  0
VIEW
  2
AM_VIEW4
 70
     0
 40
148.9999998536185
 10
294.38998139545481
 20
74.499999926809267
 41
253.2200355294051
 11
0.0
 21
0.0
 31
1.0
 12
0.0
 22
0.0
 32
0.0
 42
50.0
 43
0.0
 44
0.0
 50
0.0
 71
    16
  0
VIEW
  2
AM_VIEW5
 70
     0
 40
148.9999998536185
 10
210.49999958007871
 20
148.9999998536185
 41
253.2200355294051
 11
0.0
 21
0.0
 31
1.0
 12
0.0
 22
0.0
 32
0.0
 42
50.0
 43
0.0
 44
0.0
 50
0.0
 71
    16
  0
VIEW
  2
AM_VIEW6
 70
     0
 40
297.99701970723982
 10
210.49999958007871
 20
148.9999998536185
 41
506.43500665810018
 11
0.0
 21
0.0
 31
1.0
 12
0.0
 22
0.0
 32
0.0
 42
50.0
 43
0.0
 44
0.0
 50
0.0
 71
    16
  0
ENDTAB
  0
TABLE
  2
UCS
 70
     0
  0
ENDTAB
  0
TABLE
  2
APPID
 70
    22
  0
APPID
  2
ACAD
 70
     0
  0
APPID
  2
MCAD_NO_VIS
 70
     0
  0
APPID
  2
ACAD_TEMP_GRAPHIC
 70
     0
  0
APPID
  2
ACATTRIBSERVICES
 70
     0
  0
APPID
  2
GENIUS_GENDIMSH_14
 70
     0
  0
APPID
  2
GENIUS_GENOLIS_13
 70
     0
  0
APPID
  2
GENIUS_GENOENT_13
 70
     0
  0
APPID
  2
GENIUS_GENODEF_13
 70
     0
  0
APPID
  2
GENIUS_GENOBJ-N-TIT_13
 70
     0
  0
APPID
  2
GENIUS_GENTITLE_13
 70
     0
  0
APPID
  2
GENIUS_GENOREF_13
 70
     0
  0
APPID
  2
GENIUS_GENSCREG_15
 70
     0
  0
APPID
  2
GENIUS_GENOBJ-N-SDF_13
 70
     0
  0
APPID
  2
GENIUS_GENOBJ-N-FIL_13
 70
     0
  0
APPID
  2
GENIUS_GENREC_14
 70
     0
  0
APPID
  2
GENIUS_GENOBJ-N-REC_13
 70
     0
  0
APPID
  2
GENIUS_GENDTOL_13
 70
     0
  0
APPID
  2
GENIUS_GENOBJ-N-CEN_13
 70
     0
  0
APPID
  2
GENIUS_GENOBJ-N-HTC_13
 70
     0
  0
APPID
  2
GENIUS_GENHATCH_13
 70
     0
  0
APPID
  2
GENIUS_GENFIL_13
 70
     0
  0
APPID
  2
GENIUS_GENOBJ-N-CHA_13
 70
     0
  0
ENDTAB
  0
TABLE
  2
DIMSTYLE
 70
     7
  0
DIMSTYLE
  2
SANKYO
 70
     0
  3

  4
"
  5

  6

  7

 40
1.0
 41
2.399999999999999
 42
3.0
 43
7.0
 44
3.0
 45
0.0
 46
0.0
 47
0.1
 48
0.1
140
4.0
141
0.0
142
0.0
143
0.0393701
144
1.0
145
0.0
146
0.71
147
1.3
 71
     0
 72
     0
 73
     0
 74
     0
 75
     0
 76
     0
 77
     1
 78
     8
170
     0
171
     2
172
     1
173
     0
174
     0
175
     0
176
   256
177
   256
178
   256
  0
ENDTAB
  0
ENDSEC
  0
SECTION
  2
BLOCKS
  0
BLOCK
  8
0
  2
$MODEL_SPACE
 70
     0
 10
0.0
 20
0.0
 30
0.0
  3
$MODEL_SPACE
  1

  0
ENDBLK
  5
1A4A2
  8
0
  0
BLOCK
 67
     1
  8
0
  2
$PAPER_SPACE
 70
     0
 10
0.0
 20
0.0
 30
0.0
  3
$PAPER_SPACE
  1

  0
ENDBLK
  5
1A49E
 67
     1
  8
0
  0
BLOCK
  8
0
  2
_DOTSMALL
 70
     0
 10
0.0
 20
0.0
 30
0.0
  3
_DOTSMALL
  1

  0
POLYLINE
  5
1A4EA
  8
0
  6
BYBLOCK
 62
     0
 66
     1
 10
0.0
 20
0.0
 30
0.0
 70
     1
 40
1.0
 41
1.0
  0
VERTEX
  5
1A4EB
  8
0
  6
BYBLOCK
 62
     0
 10
-0.125
 20
0.0
 30
0.0
 42
1.0
  0
VERTEX
  5
1A4EC
  8
0
  6
BYBLOCK
 62
     0
 10
0.125
 20
0.0
 30
0.0
 42
1.0
  0
SEQEND
  5
1A4ED
  8
0
  6
BYBLOCK
 62
     0
  0
ENDBLK
  5
1A4EE
  8
0
  0
ENDSEC
  0
SECTION
  2
ENTITIES
  0
LINE
  5
1A4F3
  8
KI
  6
CONTINUOUS
 62
     7
 10
-339.6066791026463
 20
151.66064257049899
 30
0.0
 11
-336.60667910264772
 21
151.66064257049899
 31
0.0
  0
LINE
  5
1A4F4
  8
KI
  6
CONTINUOUS
 62
     7
 10
-339.606679102648
 20
151.66064257049899
 30
0.0
 11
-339.606679102648
 21
70.660642570503086
 31
0.0
  0
LINE
  5
1A4F5
  8
KI
  6
CONTINUOUS
 62
     7
 10
-175.60667910264661
 20
151.66064257049899
 30
0.0
 11
-172.606679102648
 21
151.66064257049899
 31
0.0
  0
TEXT
  5
1A4F6
  8
KI
  6
CONTINUOUS
 62
     7
 10
217.08671017873311
 20
-260.30805672442739
 30
0.0
 40
7.0
  1
4寸柱対応枠（ノンケーシング枠）
 41
0.84552428
  0
TEXT
  5
1A4F7
  8
KI
  6
CONTINUOUS
 62
     7
 10
-363.48595764053471
 20
248.38269285594961
 30
0.0
 40
7.0
  1
●標準たて枠
 41
0.84552428
  0
LINE
  5
1A4F8
  8
KI
  6
CONTINUOUS
 62
     7
 10
-339.60667910265158
 20
29.412564235292631
 30
0.0
 11
-339.60667910264999
 21
-66.835514099914207
 31
0.0
  0
LINE
  5
1A4F9
  8
KI
  6
CONTINUOUS
 62
     7
 10
-172.60667910264959
 20
29.412564235292631
 30
0.0
 11
-172.606679102648
 21
-66.835514099913297
 31
0.0
  0
LINE
  5
1A4FA
  8
KI
  6
CONTINUOUS
 62
     7
 10
-255.10667834096381
 20
29.41256423528813
 30
0.0
 11
-255.1066783409635
 21
-43.835511272029592
 31
0.0
  0
LINE
  5
1A4FB
  8
KI
  6
CONTINUOUS
 62
     7
 10
-231.1066808153621
 20
-43.835511272029592
 30
0.0
 11
-231.10668081536241
 21
29.41256423528813
 31
0.0
  0
LINE
  5
1A4FC
  8
KI
  6
CONTINUOUS
 62
     7
 10
-180.10667910659751
 20
-58.835511272029592
 30
0.0
 11
-180.10667910659791
 21
29.41256423528813
 31
0.0
  0
LINE
  5
1A4FD
  8
KI
  6
CONTINUOUS
 62
     7
 10
-220.10668081511031
 20
-58.835511272029592
 30
0.0
 11
-220.10668081511091
 21
29.41256423528813
 31
0.0
  0
LINE
  5
1A4FE
  8
OS
  6
CONTINUOUS
 62
     2
 10
-148.6066785304435
 20
-78.835514099913297
 30
0.0
 11
-360.60667910264999
 21
-78.835514099913297
 31
0.0
  0
LINE
  5
1A4FF
  8
SU
  6
CONTINUOUS
 62
     3
 10
-323.50732771032222
 20
-38.288542268083852
 30
0.0
 11
-285.87144300508902
 21
-38.288542268083852
 31
0.0
  0
LINE
  5
1A500
  8
OS
  6
CONTINUOUS
 62
     2
 10
-282.606679102648
 20
-75.835514099917617
 30
0.0
 11
-360.60667910264999
 21
-75.835514099906263
 31
0.0
  0
LINE
  5
1A501
  8
OS
  6
CONTINUOUS
 62
     2
 10
-282.606679102648
 20
-66.835514099917603
 30
0.0
 11
-360.60667910264999
 21
-66.835514099913297
 31
0.0
  0
LINE
  5
1A502
  8
OS
  6
CONTINUOUS
 62
     2
 10
-282.606679102648
 20
-69.835514099917603
 30
0.0
 11
-360.60667910264999
 21
-69.835514099913297
 31
0.0
  0
LINE
  5
1A503
  8
OS
  6
CONTINUOUS
 62
     2
 10
-282.606679102648
 20
-72.835514099917617
 30
0.0
 11
-360.60667910264999
 21
-72.835514099913297
 31
0.0
  0
LINE
  5
1A504
  8
KI
  6
DASHED2
 62
     7
 10
-339.60667910264999
 20
-66.835514099914207
 30
0.0
 11
-339.60667910264999
 21
-78.835514099906021
 31
0.0
  0
LINE
  5
1A505
  8
SU
  6
CONTINUOUS
 62
     3
 10
-285.87144300508902
 20
-38.288542268083852
 30
0.0
 11
-272.00554882258319
 21
-54.813271422709668
 31
0.0
  0
LINE
  5
1A506
  8
OS
  6
CONTINUOUS
 62
     2
 10
-282.606679102648
 20
-78.835514099913297
 30
0.0
 11
-282.606679102648
 21
-66.83551409992171
 31
0.0
  0
LINE
  5
1A507
  8
KI
  6
CONTINUOUS
 62
     7
 10
-220.10668081511031
 20
-58.835511272029592
 30
0.0
 11
-180.10667910659751
 21
-58.835511272029592
 31
0.0
  0
LINE
  5
1A508
  8
OS
  6
CONTINUOUS
 62
     2
 10
-148.6066785304435
 20
-69.835514099913297
 30
0.0
 11
-175.606679102648
 21
-69.835514099913297
 31
0.0
  0
LINE
  5
1A509
  8
OS
  6
CONTINUOUS
 62
     2
 10
-148.6066785304435
 20
-72.835514099913297
 30
0.0
 11
-175.606679102648
 21
-72.835514099913297
 31
0.0
  0
LINE
  5
1A50A
  8
OS
  6
CONTINUOUS
 62
     2
 10
-148.6066785304435
 20
-75.835514099913297
 30
0.0
 11
-175.606679102648
 21
-75.835514099913297
 31
0.0
  0
LINE
  5
1A50B
  8
OS
  6
CONTINUOUS
 62
     2
 10
-148.6066785304435
 20
-66.835514099913297
 30
0.0
 11
-175.606679102648
 21
-66.835514099913297
 31
0.0
  0
LINE
  5
1A50C
  8
KI
  6
DASHED2
 62
     7
 10
-172.606679102648
 20
-66.835514099913297
 30
0.0
 11
-172.606679102648
 21
-78.835514099905083
 31
0.0
  0
LINE
  5
1A50D
  8
OS
  6
CONTINUOUS
 62
     2
 10
-175.606679102648
 20
-78.835514099913297
 30
0.0
 11
-175.606679102648
 21
-66.83551409992171
 31
0.0
  0
LINE
  5
1A50E
  8
KI
  6
CONTINUOUS
 62
     7
 10
-339.60667910264999
 20
31.412564235284101
 30
0.0
 11
-339.606679102648
 21
151.66064257049899
 31
0.0
  0
LINE
  5
1A50F
  8
KI
  6
CONTINUOUS
 62
     7
 10
-255.1066783409635
 20
107.66061004983661
 30
0.0
 11
-255.10667834096381
 21
31.41256423529132
 31
0.0
  0
LINE
  5
1A510
  8
KI
  6
CONTINUOUS
 62
     7
 10
-172.606679102648
 20
151.66064257049899
 30
0.0
 11
-172.60667910264959
 21
31.412564235284101
 31
0.0
  0
LINE
  5
1A511
  8
KI
  6
CONTINUOUS
 62
     7
 10
-180.10667910659751
 20
124.66061004983651
 30
0.0
 11
-180.10667910659791
 21
31.41256423529132
 31
0.0
  0
LINE
  5
1A512
  8
KI
  6
CONTINUOUS
 62
     7
 10
-220.10668081511031
 20
124.66061004983651
 30
0.0
 11
-220.10668081511091
 21
31.41256423529132
 31
0.0
  0
LINE
  5
1A513
  8
KI
  6
CONTINUOUS
 62
     7
 10
-231.10668081536241
 20
31.41256423529132
 30
0.0
 11
-231.1066808153621
 21
107.66061004983661
 31
0.0
  0
LINE
  5
1A514
  8
KI
  6
CONTINUOUS
 62
     7
 10
-180.10667910659751
 20
124.66061004983651
 30
0.0
 11
-220.10668081511031
 21
124.66061004983651
 31
0.0
  0
LINE
  5
1A515
  8
OS
  6
CONTINUOUS
 62
     2
 10
-148.6066785304433
 20
-227.66293584505999
 30
0.0
 11
-360.60667910265101
 21
-227.66293584505999
 31
0.0
  0
LINE
  5
1A516
  8
OS
  6
CONTINUOUS
 62
     2
 10
-148.6066785304433
 20
-224.66293584505999
 30
0.0
 11
-360.60667910265101
 21
-224.66293584505999
 31
0.0
  0
LINE
  5
1A517
  8
OS
  6
CONTINUOUS
 62
     2
 10
-148.6066785304433
 20
-221.66293584505999
 30
0.0
 11
-360.60667910265101
 21
-221.66293584505999
 31
0.0
  0
LINE
  5
1A518
  8
OS
  6
CONTINUOUS
 62
     2
 10
-148.6066785304433
 20
-218.66293584505999
 30
0.0
 11
-360.60667910265101
 21
-218.66293584505999
 31
0.0
  0
LINE
  5
1A519
  8
OS
  6
CONTINUOUS
 62
     2
 10
-148.6066785304433
 20
-230.66293584505999
 30
0.0
 11
-360.60667910265101
 21
-230.66293584505999
 31
0.0
  0
LINE
  5
1A51A
  8
SU
  6
CONTINUOUS
 62
     3
 10
-294.57689878326852
 20
-242.924063667615
 30
0.0
 11
-240.11780769443919
 21
-242.924063667615
 31
0.0
  0
LINE
  5
1A51B
  8
KI
  6
CONTINUOUS
 62
     7
 10
-339.60667910265079
 20
-120.0148734886546
 30
0.0
 11
-339.60667910265079
 21
-218.66293584505971
 31
0.0
  0
LINE
  5
1A51C
  8
KI
  6
CONTINUOUS
 62
     7
 10
-255.10667834096381
 20
-120.0148734886546
 30
0.0
 11
-255.1066783409635
 21
-218.66293584505999
 31
0.0
  0
LINE
  5
1A51D
  8
KI
  6
DASHED2
 62
     7
 10
-339.60667910265079
 20
-218.66293584505971
 30
0.0
 11
-339.60667910265079
 21
-230.66293584505181
 31
0.0
  0
LINE
  5
1A51E
  8
KI
  6
CONTINUOUS
 62
     7
 10
-192.60667996085411
 20
-210.66293584505999
 30
0.0
 11
-192.60667996085411
 21
-180.16293584505999
 31
0.0
  0
LINE
  5
1A51F
  8
KI
  6
CONTINUOUS
 62
     7
 10
-207.60667996085411
 20
-210.66293584505999
 30
0.0
 11
-207.60667996085411
 21
-180.16293584505999
 31
0.0
  0
LINE
  5
1A520
  8
KI
  6
CONTINUOUS
 62
     7
 10
-172.606679102648
 20
-120.0148734886546
 30
0.0
 11
-172.606679102648
 21
-218.66293584505971
 31
0.0
  0
LINE
  5
1A521
  8
KI
  6
CONTINUOUS
 62
     7
 10
-180.10667910659751
 20
-210.66293584505999
 30
0.0
 11
-180.10667910659771
 21
-120.0148734886546
 31
0.0
  0
LINE
  5
1A522
  8
KI
  6
CONTINUOUS
 62
     7
 10
-220.10668081511031
 20
-210.66293584505999
 30
0.0
 11
-220.10668081511079
 21
-120.0148734886546
 31
0.0
  0
LINE
  5
1A523
  8
KI
  6
CONTINUOUS
 62
     7
 10
-231.1066808153621
 20
-218.66293584505999
 30
0.0
 11
-231.10668081536241
 21
-120.0148734886546
 31
0.0
  0
LINE
  5
1A524
  8
KI
  6
CONTINUOUS
 62
     7
 10
-188.85667996085411
 20
-161.91293584505999
 30
0.0
 11
-188.85667996085411
 21
-210.66293584505999
 31
0.0
  0
LINE
  5
1A525
  8
KI
  6
CONTINUOUS
 62
     7
 10
-211.35667996085411
 20
-161.91293584505999
 30
0.0
 11
-211.35667996085411
 21
-210.66293584505999
 31
0.0
  0
LINE
  5
1A526
  8
KI
  6
CONTINUOUS
 62
     7
 10
-192.60667996085411
 20
-210.66293584505999
 30
0.0
 11
-180.10667910659751
 21
-210.66293584505999
 31
0.0
  0
LINE
  5
1A527
  8
SU
  6
CONTINUOUS
 62
     3
 10
-240.11780769443919
 20
-242.924063667615
 30
0.0
 11
-211.35667996085411
 21
-214.16293584505999
 31
0.0
  0
LINE
  5
1A528
  8
KI
  6
CONTINUOUS
 62
     7
 10
-220.10668081511031
 20
-210.66293584505999
 30
0.0
 11
-207.60667996085411
 21
-210.66293584505999
 31
0.0
  0
LINE
  5
1A529
  8
KI
  6
DASHED2
 62
     7
 10
-172.606679102648
 20
-218.66293584505971
 30
0.0
 11
-172.606679102648
 21
-230.66293584505181
 31
0.0
  0
LINE
  5
1A52A
  8
KI
  6
CONTINUOUS
 62
     7
 10
-192.60667996085411
 20
-180.16293584505999
 30
0.0
 11
-207.60667996085411
 21
-180.16293584505999
 31
0.0
  0
ARC
  5
1A52B
  8
KI
  6
CONTINUOUS
 62
     7
 10
-200.106679960854
 20
-161.91293584505999
 30
0.0
 40
11.25
 50
0.0
 51
180.0
  0
LINE
  5
1A52C
  8
KI
  6
CONTINUOUS
 62
     7
 10
259.6242157861895
 20
-86.492412938115791
 30
0.0
 11
163.62421578619001
 21
-86.492412938115791
 31
0.0
  0
LINE
  5
1A52D
  8
KI
  6
CONTINUOUS
 62
     7
 10
259.6242157861895
 20
-46.492411229602709
 30
0.0
 11
163.62421578619001
 21
-46.492411229602709
 31
0.0
  0
LINE
  5
1A52E
  8
KI
  6
CONTINUOUS
 62
     7
 10
65.624221206300618
 20
-86.492412938115791
 30
0.0
 11
161.62421578619001
 21
-86.492412938115791
 31
0.0
  0
LINE
  5
1A52F
  8
KI
  6
CONTINUOUS
 62
     7
 10
67.624223916355618
 20
-46.492411229602702
 30
0.0
 11
161.62421578619001
 21
-46.492411229602709
 31
0.0
  0
LINE
  5
1A530
  8
KI
  6
CONTINUOUS
 62
     7
 10
161.62421578619001
 20
-35.492411229602709
 30
0.0
 11
81.624215786190078
 21
-35.492411229602702
 31
0.0
  0
LINE
  5
1A531
  8
KI
  6
CONTINUOUS
 62
     7
 10
65.624221206300618
 20
-86.492412938115791
 30
0.0
 11
67.624223916355618
 21
-46.492411229602702
 31
0.0
  0
LINE
  5
1A532
  8
KI
  6
CONTINUOUS
 62
     7
 10
163.62421578619001
 20
-35.492411229602709
 30
0.0
 11
243.62421578618989
 21
-35.492411229602709
 31
0.0
  0
LINE
  5
1A533
  8
KI
  6
CONTINUOUS
 62
     7
 10
259.6242157861895
 20
-46.492411229602709
 30
0.0
 11
259.6242157861895
 21
-86.492412938115791
 31
0.0
  0
LINE
  5
1A534
  8
KI
  6
CONTINUOUS
 62
     7
 10
81.624215786190078
 20
-11.492413704000819
 30
0.0
 11
161.62421578619001
 21
-11.492413704000819
 31
0.0
  0
LINE
  5
1A535
  8
KI
  6
CONTINUOUS
 62
     7
 10
243.62421578618989
 20
-11.492413704000819
 30
0.0
 11
163.62421578619001
 21
-11.492413704000819
 31
0.0
  0
TEXT
  5
1A536
  8
KI
  6
CONTINUOUS
 62
     7
 10
218.6672664069456
 20
-242.4411371107378
 30
0.0
 40
7.0
  1
D TOS多機能商品シリーズ
 41
0.84552428
  0
TEXT
  5
1A537
  8
KI
  6
CONTINUOUS
 62
     7
 10
218.6672664069456
 20
-251.36442957220399
 30
0.0
 40
7.0
  1
防音ドア
 41
0.84552428
  0
TEXT
  5
1A538
  8
KI
  6
CONTINUOUS
 62
     7
 10
217.70790036644311
 20
-269.30914795167661
 30
0.0
 40
7.0
  1
dt05a003
 41
0.84552428
  0
LINE
  5
1A539
  8
KI
  6
CONTINUOUS
 62
     7
 10
263.6242157861895
 20
16.007587057935162
 30
0.0
 11
163.62421578619001
 21
16.007587057935162
 31
0.0
  0
LINE
  5
1A53A
  8
KI
  6
CONTINUOUS
 62
     7
 10
61.624215786190121
 20
16.007587057935162
 30
0.0
 11
161.62421578619001
 21
16.007587057935162
 31
0.0
  0
LINE
  5
1A53B
  8
KI
  6
CONTINUOUS
 62
     7
 10
256.81603256421721
 20
-90.992412942064803
 30
0.0
 11
163.62421578619001
 21
-90.992412942064803
 31
0.0
  0
LINE
  5
1A53C
  8
KI
  6
CONTINUOUS
 62
     7
 10
61.624215786190121
 20
-90.992412942064803
 30
0.0
 11
161.62421578619001
 21
-90.992412942064803
 31
0.0
  0
LINE
  5
1A53D
  8
KI
  6
CONTINUOUS
 62
     7
 10
261.3242157861896
 20
-90.992412942064846
 30
0.0
 11
259.13007649192332
 21
-90.992412942064846
 31
0.0
  0
LINE
  5
1A53E
  8
KI
  6
CONTINUOUS
 62
     7
 10
263.6242157861895
 20
-7.492412942064818
 30
0.0
 11
163.62421578619001
 21
-7.492412942064818
 31
0.0
  0
LINE
  5
1A53F
  8
KI
  6
CONTINUOUS
 62
     7
 10
61.624215786190121
 20
-7.492412942064818
 30
0.0
 11
161.62421578619001
 21
-7.492412942064818
 31
0.0
  0
LINE
  5
1A540
  8
OS
  6
CONTINUOUS
 62
     2
 10
-282.606679102648
 20
-67.041574860572922
 30
0.0
 11
-261.08024318729241
 21
-45.515138945218837
 31
0.0
  0
LINE
  5
1A541
  8
OS
  6
CONTINUOUS
 62
     2
 10
-185.50617403925961
 20
-78.835514099913183
 30
0.0
 11
-175.606679102648
 21
-68.936019163301438
 31
0.0
  0
LINE
  5
1A542
  8
OS
  6
CONTINUOUS
 62
     2
 10
-195.40566897587121
 20
-78.835514099913297
 30
0.0
 11
-180.4056661479876
 21
-63.835511272029592
 31
0.0
  0
LINE
  5
1A543
  8
OS
  6
CONTINUOUS
 62
     2
 10
-215.20465884909481
 20
-78.83551409991324
 30
0.0
 11
-200.20465602121121
 21
-63.835511272029592
 31
0.0
  0
LINE
  5
1A544
  8
OS
  6
CONTINUOUS
 62
     2
 10
-225.10415378570639
 20
-78.835514099913283
 30
0.0
 11
-210.1041509578227
 21
-63.835511272029592
 31
0.0
  0
LINE
  5
1A545
  8
OS
  6
CONTINUOUS
 62
     2
 10
-244.90314365892959
 20
-78.835514099913183
 30
0.0
 11
-229.9031408310461
 21
-63.835511272029592
 31
0.0
  0
LINE
  5
1A546
  8
OS
  6
CONTINUOUS
 62
     2
 10
-235.00364872231799
 20
-78.835514099913297
 30
0.0
 11
-220.0036458944345
 21
-63.835511272029592
 31
0.0
  0
LINE
  5
1A547
  8
OS
  6
CONTINUOUS
 62
     2
 10
-205.3051639124829
 20
-78.835514099913183
 30
0.0
 11
-190.3051610845994
 21
-63.835511272029592
 31
0.0
  0
LINE
  5
1A548
  8
OS
  6
CONTINUOUS
 62
     2
 10
-264.70213353215269
 20
-78.83551409991307
 30
0.0
 11
-231.10668081511039
 21
-45.240061382870628
 31
0.0
  0
LINE
  5
1A549
  8
OS
  6
CONTINUOUS
 62
     2
 10
-254.8026385955412
 20
-78.83551409991324
 30
0.0
 11
-231.10668081511039
 21
-55.139556319482452
 31
0.0
  0
LINE
  5
1A54A
  8
OS
  6
CONTINUOUS
 62
     2
 10
-274.60162846876472
 20
-78.835514099913183
 30
0.0
 11
-239.601625640881
 21
-43.835511272029592
 31
0.0
  0
LINE
  5
1A54B
  8
OS
  6
CONTINUOUS
 62
     2
 10
-282.606679102648
 20
-76.941069797184767
 30
0.0
 11
-249.50112057749271
 21
-43.835511272029592
 31
0.0
  0
LINE
  5
1A54C
  8
SU
  6
CONTINUOUS
 62
     3
 10
101.6242157861904
 20
-11.49241370400083
 30
0.0
 11
101.6242157861904
 21
73.00758696564408
 31
0.0
  0
LINE
  5
1A54D
  8
SU
  6
CONTINUOUS
 62
     3
 10
81.624215786190078
 20
-10.492413704000819
 30
0.0
 11
81.624215786190078
 21
96.007593131811291
 31
0.0
  0
LINE
  5
1A54E
  8
SU
  6
CONTINUOUS
 62
     3
 10
61.624215786190653
 20
93.007593131811262
 30
0.0
 11
81.624215786190078
 21
93.007593131811262
 31
0.0
  0
LINE
  5
1A54F
  8
SU
  6
CONTINUOUS
 62
     3
 10
243.62421578618989
 20
-10.492413704000819
 30
0.0
 11
243.62421578618989
 21
96.007593131811362
 31
0.0
  0
LINE
  5
1A550
  8
SU
  6
CONTINUOUS
 62
     3
 10
263.6242157861904
 20
93.007593131811348
 30
0.0
 11
243.62421578618989
 21
93.007593131811348
 31
0.0
  0
LINE
  5
1A551
  8
SU
  6
CONTINUOUS
 62
     3
 10
62.624215786190682
 20
73.007586965644094
 30
0.0
 11
118.62421823471961
 21
73.00758696564408
 31
0.0
  0
LINE
  5
1A552
  8
SU
  6
CONTINUOUS
 62
     3
 10
62.624215786189957
 20
-93.992412942064803
 30
0.0
 11
118.62421823471961
 21
-93.992412942064831
 31
0.0
  0
LINE
  5
1A553
  8
SU
  6
CONTINUOUS
 62
     3
 10
115.62421823471961
 20
73.00758696564408
 30
0.0
 11
115.62421823471961
 21
-93.992412942064831
 31
0.0
  0
LINE
  5
1A554
  8
SU
  6
CONTINUOUS
 62
     3
 10
277.62421578619001
 20
-173.49241294205001
 30
0.0
 11
287.62421578618989
 21
-167.49241294205001
 31
0.0
  0
LINE
  5
1A555
  8
SU
  6
CONTINUOUS
 62
     3
 10
277.62421578619001
 20
-161.49241294205001
 30
0.0
 11
287.62421578618989
 21
-167.49241294205001
 31
0.0
  0
LINE
  5
1A556
  8
SU
  6
CONTINUOUS
 62
     3
 10
277.62421578619001
 20
-173.49241294205001
 30
0.0
 11
277.62421578619001
 21
-161.49241294205001
 31
0.0
  0
LINE
  5
1A557
  8
SU
  6
CONTINUOUS
 62
     3
 10
263.62421577060309
 20
-152.49241294205001
 30
0.0
 11
287.62421578618989
 21
-152.49241294205001
 31
0.0
  0
LINE
  5
1A558
  8
SU
  6
CONTINUOUS
 62
     3
 10
101.62421578619011
 20
-46.492411229602709
 30
0.0
 11
101.62421578619011
 21
-35.492411229602702
 31
0.0
  0
LINE
  5
1A559
  8
SU
  6
CONTINUOUS
 62
     3
 10
101.62421578619011
 20
-46.492411229602709
 30
0.0
 11
101.62421578619011
 21
-86.492412942048659
 31
0.0
  0
LINE
  5
1A55A
  8
KI
  6
CONTINUOUS
 62
     7
 10
60.544215786190129
 20
-92.572412942064744
 30
0.0
 11
60.544215786190179
 21
-93.982412942065054
 31
0.0
  0
LINE
  5
1A55B
  8
KI
  6
CONTINUOUS
 62
     7
 10
61.624215786190121
 20
-54.99241294206481
 30
0.0
 11
61.624215786190121
 21
-93.982412942065054
 31
0.0
  0
ARC
  5
1A55C
  8
KI
  6
CONTINUOUS
 62
     7
 10
60.544215786190179
 20
-93.982412942065054
 30
0.0
 40
1.0800000000000001
 50
297.90344809752992
 51
0.0
  0
LINE
  5
1A55D
  8
KI
  6
CONTINUOUS
 62
     7
 10
58.589637425159587
 20
-96.239541914236426
 30
0.0
 11
61.049637425118249
 21
-94.936849407684036
 31
0.0
  0
LINE
  5
1A55E
  8
KI
  6
CONTINUOUS
 62
     7
 10
58.084215786190143
 20
-95.285105448639257
 30
0.0
 11
58.589637425159587
 21
-96.239541914236426
 31
0.0
  0
LINE
  5
1A55F
  8
KI
  6
CONTINUOUS
 62
     7
 10
58.084215786190143
 20
-95.285105448639257
 30
0.0
 11
60.544215786190179
 21
-93.982412942065054
 31
0.0
  0
LINE
  5
1A560
  8
KI
  6
DASHED2
 62
     7
 10
51.674215786190302
 20
-76.442412942065062
 30
0.0
 11
51.674215786190302
 21
-65.25616032901975
 31
0.0
  0
LINE
  5
1A561
  8
KI
  6
DASHED2
 62
     7
 10
52.674215786190302
 20
-77.44241294206509
 30
0.0
 11
61.624215786190121
 21
-77.44241294206509
 31
0.0
  0
LINE
  5
1A562
  8
KI
  6
DASHED2
 62
     7
 10
52.674215786190302
 20
-73.022412942065017
 30
0.0
 11
61.624215786190121
 21
-73.022412942065017
 31
0.0
  0
ARC
  5
1A563
  8
KI
  6
DASHED2
 62
     7
 10
52.674215786190302
 20
-76.442412942065062
 30
0.0
 40
1.0
 50
180.0
 51
270.0
  0
ARC
  5
1A564
  8
KI
  6
DASHED2
 62
     7
 10
52.674215786190302
 20
-72.022412942065003
 30
0.0
 40
1.0
 50
180.0
 51
270.0
  0
LINE
  5
1A565
  8
KI
  6
DASHED2
 62
     7
 10
60.544215786190179
 20
-54.99241294206481
 30
0.0
 11
61.624215786190121
 21
-54.99241294206481
 31
0.0
  0
LINE
  5
1A566
  8
KI
  6
DASHED2
 62
     7
 10
60.544215786190179
 20
-54.99241294206481
 30
0.0
 11
60.544215786190129
 21
-92.572412942064744
 31
0.0
  0
ARC
  5
1A567
  8
KI
  6
CONTINUOUS
 62
     7
 10
68.676439935844769
 20
-75.662077475011429
 30
0.0
 40
16.06232918379629
 50
100.9541706765956
 51
116.0435154452659
  0
LINE
  5
1A568
  8
KI
  6
CONTINUOUS
 62
     7
 10
65.624215786190121
 20
-59.892412083859341
 30
0.0
 11
66.95422299439214
 21
-59.892412083859341
 31
0.0
  0
LINE
  5
1A569
  8
KI
  6
DASHED2
 62
     7
 10
52.624215786190121
 20
-75.092412083859614
 30
0.0
 11
61.624215786190099
 21
-75.092412083859614
 31
0.0
  0
ARC
  5
1A56A
  8
KI
  6
DASHED2
 62
     7
 10
68.676439935844769
 20
-75.662077475011429
 30
0.0
 40
16.06232918379629
 50
116.0435154452659
 51
177.96752584043799
  0
LINE
  5
1A56B
  8
KI
  6
CONTINUOUS
 62
     7
 10
61.624215786190099
 20
-75.092412083859614
 30
0.0
 11
66.194221997032741
 21
-75.092412083859614
 31
0.0
  0
LINE
  5
1A56C
  8
SU
  6
CONTINUOUS
 62
     3
 10
101.62421578619011
 20
-86.492412942048659
 30
0.0
 11
101.62421578619011
 21
-93.992412942064831
 31
0.0
  0
LINE
  5
1A56D
  8
SU
  6
CONTINUOUS
 62
     3
 10
101.62421578619011
 20
-93.992412942064831
 30
0.0
 11
101.62421578618979
 21
-105.9486034182551
 31
0.0
  0
LINE
  5
1A56E
  8
SU
  6
CONTINUOUS
 62
     3
 10
47.624215786189957
 20
-173.49241294205001
 30
0.0
 11
37.62421578618995
 21
-167.49241294205001
 31
0.0
  0
LINE
  5
1A56F
  8
SU
  6
CONTINUOUS
 62
     3
 10
47.624215786189957
 20
-161.49241294205001
 30
0.0
 11
37.62421578618995
 21
-167.49241294205001
 31
0.0
  0
LINE
  5
1A570
  8
SU
  6
CONTINUOUS
 62
     3
 10
47.624215786189957
 20
-173.49241294205001
 30
0.0
 11
47.624215786189957
 21
-161.49241294205001
 31
0.0
  0
LINE
  5
1A571
  8
SU
  6
CONTINUOUS
 62
     3
 10
61.624215801776813
 20
-152.49241294205001
 30
0.0
 11
37.624215786189879
 21
-152.49241294205001
 31
0.0
  0
LINE
  5
1A572
  8
SU
  6
CONTINUOUS
 62
     3
 10
61.624215786189957
 20
-94.992412942064249
 30
0.0
 11
61.624215786189922
 21
-155.49241294205001
 31
0.0
  0
LINE
  5
1A573
  8
SU
  6
CONTINUOUS
 62
     3
 10
65.624215801776813
 20
-152.49241294205001
 30
0.0
 11
61.624215786189922
 21
-152.49241294205001
 31
0.0
  0
LINE
  5
1A574
  8
SU
  6
CONTINUOUS
 62
     3
 10
63.624215793983382
 20
-152.49241294205001
 30
0.0
 11
68.324215801776816
 21
-137.49241294205001
 31
0.0
  0
LINE
  5
1A575
  8
SU
  6
CONTINUOUS
 62
     3
 10
68.324215801776816
 20
-137.49241294205001
 30
0.0
 11
73.295644373205391
 21
-137.49241294205001
 31
0.0
  0
LINE
  5
1A576
  8
SU
  6
CONTINUOUS
 62
     3
 10
259.62421577060309
 20
-87.492412942050038
 30
0.0
 11
259.62421577060309
 21
-155.49241294205001
 31
0.0
  0
LINE
  5
1A577
  8
SU
  6
CONTINUOUS
 62
     3
 10
65.624215801777041
 20
-87.492412942050038
 30
0.0
 11
65.624215801777041
 21
-155.49241294205001
 31
0.0
  0
LINE
  5
1A578
  8
SU
  6
CONTINUOUS
 62
     3
 10
259.62421577060309
 20
-152.49241294205001
 30
0.0
 11
65.624215801777041
 21
-152.49241294205001
 31
0.0
  0
LINE
  5
1A579
  8
SU
  6
CONTINUOUS
 62
     3
 10
263.62421578619001
 20
-94.992412942064249
 30
0.0
 11
263.62421578619001
 21
-155.49241294205001
 31
0.0
  0
LINE
  5
1A57A
  8
SU
  6
CONTINUOUS
 62
     3
 10
259.62421577060309
 20
-152.49241294205001
 30
0.0
 11
263.62421578619001
 21
-152.49241294205001
 31
0.0
  0
LINE
  5
1A57B
  8
SU
  6
CONTINUOUS
 62
     3
 10
261.6242157783966
 20
-152.49241294205001
 30
0.0
 11
256.92421577060293
 21
-137.49241294205001
 31
0.0
  0
LINE
  5
1A57C
  8
SU
  6
CONTINUOUS
 62
     3
 10
256.92421577060293
 20
-137.49241294205001
 30
0.0
 11
251.9527871991744
 21
-137.49241294205001
 31
0.0
  0
LINE
  5
1A57D
  8
SU
  6
CONTINUOUS
 62
     3
 10
37.62421578618995
 20
-94.992412942064803
 30
0.0
 11
37.624215786189922
 21
-170.49241294205001
 31
0.0
  0
LINE
  5
1A57E
  8
SU
  6
CONTINUOUS
 62
     3
 10
287.62421578618989
 20
-94.992412942064803
 30
0.0
 11
287.62421578618989
 21
-170.49241294205001
 31
0.0
  0
LINE
  5
1A57F
  8
SU
  6
CONTINUOUS
 62
     3
 10
37.624215786189922
 20
-167.49241294205001
 30
0.0
 11
287.62421578618989
 21
-167.49241294205001
 31
0.0
  0
LINE
  5
1A580
  8
KI
  6
DASHED2
 62
     7
 10
253.62421578618981
 20
-53.49241293811577
 30
0.0
 11
253.62421578618981
 21
-86.492412938115791
 31
0.0
  0
LINE
  5
1A581
  8
KI
  6
DASHED2
 62
     7
 10
259.6242157861895
 20
-53.49241293811577
 30
0.0
 11
253.62421578618981
 21
-53.49241293811577
 31
0.0
  0
LINE
  5
1A582
  8
KI
  6
DASHED2
 62
     7
 10
247.62421578618989
 20
-83.742412938115791
 30
0.0
 11
253.62421578618981
 21
-83.742412938115791
 31
0.0
  0
LINE
  5
1A583
  8
KI
  6
DASHED2
 62
     7
 10
247.62421578618989
 20
-56.242412938115791
 30
0.0
 11
253.62421578618981
 21
-56.242412938115791
 31
0.0
  0
LINE
  5
1A584
  8
KI
  6
DASHED2
 62
     7
 10
241.62421578618989
 20
-57.992412938115777
 30
0.0
 11
247.62421578618989
 21
-57.992412938115777
 31
0.0
  0
LINE
  5
1A585
  8
KI
  6
DASHED2
 62
     7
 10
241.62421578618989
 20
-81.992412938115805
 30
0.0
 11
247.62421578618989
 21
-81.992412938115805
 31
0.0
  0
LINE
  5
1A586
  8
KI
  6
DASHED2
 62
     7
 10
247.62421578618989
 20
-56.242412938115791
 30
0.0
 11
247.62421578618989
 21
-83.742412938115791
 31
0.0
  0
LINE
  5
1A587
  8
KI
  6
DASHED2
 62
     7
 10
241.62421578618989
 20
-57.992412938115777
 30
0.0
 11
241.62421578618989
 21
-81.992412938115805
 31
0.0
  0
CIRCLE
  5
1A588
  8
KI
  6
CONTINUOUS
 62
     7
 10
260.62421578618989
 20
-104.49241293811571
 30
0.0
 40
3.1931342056999981
  0
CIRCLE
  5
1A589
  8
KI
  6
CONTINUOUS
 62
     7
 10
260.62421578618989
 20
-104.49241293811571
 30
0.0
 40
4.0
  0
CIRCLE
  5
1A58A
  8
KI
  6
CONTINUOUS
 62
     7
 10
260.62421578618989
 20
-104.49241293811571
 30
0.0
 40
6.939104820999999
  0
CIRCLE
  5
1A58B
  8
KI
  6
CONTINUOUS
 62
     7
 10
260.62421578618989
 20
-104.49241293811571
 30
0.0
 40
8.0
  0
LINE
  5
1A58C
  8
KI
  6
CONTINUOUS
 62
     7
 10
263.6242157861895
 20
-49.992412938115791
 30
0.0
 11
263.6242157861895
 21
-97.076214451020064
 31
0.0
  0
LINE
  5
1A58D
  8
KI
  6
CONTINUOUS
 62
     7
 10
261.3242157861896
 20
-49.992412938115791
 30
0.0
 11
261.3242157861896
 21
-96.523096781757104
 31
0.0
  0
LINE
  5
1A58E
  8
KI
  6
CONTINUOUS
 62
     7
 10
259.74417349494092
 20
-96.540964921206225
 30
0.0
 11
258.63203005991829
 21
-86.492412938115805
 31
0.0
  0
LINE
  5
1A58F
  8
KI
  6
CONTINUOUS
 62
     7
 10
257.49528701439169
 20
-97.129682144380851
 30
0.0
 11
256.31798613221213
 21
-86.492412938115805
 31
0.0
  0
LINE
  5
1A590
  8
KI
  6
CONTINUOUS
 62
     7
 10
263.6242157861895
 20
-49.992412938115791
 30
0.0
 11
261.3242157861896
 21
-49.992412938115791
 31
0.0
  0
LINE
  5
1A591
  8
KI
  6
CONTINUOUS
 62
     7
 10
268.1242157861895
 20
-17.492413704000821
 30
0.0
 11
268.1242157861895
 21
-29.49241122960316
 31
0.0
  0
LINE
  5
1A592
  8
KI
  6
CONTINUOUS
 62
     7
 10
268.1242157861895
 20
-29.49241122960316
 30
0.0
 11
263.6242157861895
 21
-29.49241122960316
 31
0.0
  0
LINE
  5
1A593
  8
KI
  6
CONTINUOUS
 62
     7
 10
263.6242157861895
 20
-29.49241122960273
 30
0.0
 11
263.6242157861895
 21
-35.492411229602709
 31
0.0
  0
LINE
  5
1A594
  8
KI
  6
CONTINUOUS
 62
     7
 10
268.1242157861895
 20
-17.492413704000821
 30
0.0
 11
263.6242157861895
 21
-17.492413704000821
 31
0.0
  0
LINE
  5
1A595
  8
KI
  6
CONTINUOUS
 62
     7
 10
263.6242157861895
 20
-11.492413704000819
 30
0.0
 11
263.6242157861895
 21
-17.492413704000789
 31
0.0
  0
LINE
  5
1A596
  8
KI
  6
CONTINUOUS
 62
     7
 10
263.6242157861895
 20
-11.492413704000819
 30
0.0
 11
243.62421578618989
 21
-11.492413704000811
 31
0.0
  0
LINE
  5
1A597
  8
KI
  6
CONTINUOUS
 62
     7
 10
243.62421578618989
 20
-11.492413704000811
 30
0.0
 11
243.62421578618989
 21
-35.492411229602702
 31
0.0
  0
LINE
  5
1A598
  8
KI
  6
CONTINUOUS
 62
     7
 10
263.6242157861895
 20
-35.492411229602709
 30
0.0
 11
243.62421578618989
 21
-35.492411229602702
 31
0.0
  0
LINE
  5
1A599
  8
KI
  6
CONTINUOUS
 62
     7
 10
243.62418079112911
 20
-35.992417229603369
 30
0.0
 11
243.62418079112871
 21
-38.218509960831987
 31
0.0
  0
ARC
  5
1A59A
  8
KI
  6
CONTINUOUS
 62
     7
 10
255.18505668127889
 20
-45.50044027925891
 30
0.0
 40
9.2190722294335075
 50
35.625868175516771
 51
87.195312659551448
  0
LINE
  5
1A59B
  8
KI
  6
CONTINUOUS
 62
     7
 10
245.79118551653119
 20
-35.492411229602247
 30
0.0
 11
245.6241807911274
 21
-35.659415955006033
 31
0.0
  0
LINE
  5
1A59C
  8
KI
  6
CONTINUOUS
 62
     7
 10
246.4892111286367
 20
-35.692411229602982
 30
0.0
 11
245.88920512863751
 21
-36.292417229603103
 31
0.0
  0
LINE
  5
1A59D
  8
KI
  6
CONTINUOUS
 62
     7
 10
246.68921112863799
 20
-35.492411229602709
 30
0.0
 11
246.48921112863709
 21
-35.692411229602982
 31
0.0
  0
LINE
  5
1A59E
  8
KI
  6
CONTINUOUS
 62
     7
 10
247.38723674074441
 20
-35.692411229602982
 30
0.0
 11
246.78723074074421
 21
-36.292417229603103
 31
0.0
  0
LINE
  5
1A59F
  8
KI
  6
CONTINUOUS
 62
     7
 10
247.5872367407446
 20
-35.492411229602247
 30
0.0
 11
247.38723674074441
 21
-35.692411229602982
 31
0.0
  0
LINE
  5
1A5A0
  8
KI
  6
CONTINUOUS
 62
     7
 10
248.28526235285111
 20
-35.692411229602982
 30
0.0
 11
247.6852563528509
 21
-36.292417229603103
 31
0.0
  0
LINE
  5
1A5A1
  8
KI
  6
CONTINUOUS
 62
     7
 10
248.48526235285141
 20
-35.492411229602247
 30
0.0
 11
248.28526235285111
 21
-35.692411229602982
 31
0.0
  0
LINE
  5
1A5A2
  8
KI
  6
CONTINUOUS
 62
     7
 10
249.1832879649582
 20
-35.692411229602982
 30
0.0
 11
248.58328196495759
 21
-36.292417229602641
 31
0.0
  0
LINE
  5
1A5A3
  8
KI
  6
CONTINUOUS
 62
     7
 10
249.38328796495861
 20
-35.492411229602247
 30
0.0
 11
249.1832879649582
 21
-35.692411229602982
 31
0.0
  0
LINE
  5
1A5A4
  8
KI
  6
CONTINUOUS
 62
     7
 10
250.08131357706509
 20
-35.692411229603891
 30
0.0
 11
249.48130757706531
 21
-36.292417229603551
 31
0.0
  0
LINE
  5
1A5A5
  8
KI
  6
CONTINUOUS
 62
     7
 10
250.2813135770657
 20
-35.492411229603157
 30
0.0
 11
250.08131357706509
 21
-35.692411229603437
 31
0.0
  0
LINE
  5
1A5A6
  8
KI
  6
CONTINUOUS
 62
     7
 10
250.97933918917181
 20
-35.692411229603891
 30
0.0
 11
250.62418079112831
 21
-36.047569627646808
 31
0.0
  0
LINE
  5
1A5A7
  8
KI
  6
CONTINUOUS
 62
     7
 10
250.62418079112831
 20
-36.047569627646808
 30
0.0
 11
250.39996865545351
 21
-36.271781763322132
 31
0.0
  0
LINE
  5
1A5A8
  8
KI
  6
CONTINUOUS
 62
     7
 10
251.17933918917191
 20
-35.492411229603611
 30
0.0
 11
250.97933918917181
 21
-35.692411229603437
 31
0.0
  0
LINE
  5
1A5A9
  8
KI
  6
CONTINUOUS
 62
     7
 10
251.8773648012789
 20
-35.692411229603437
 30
0.0
 11
251.27736480127999
 21
-36.292411229602891
 31
0.0
  0
LINE
  5
1A5AA
  8
KI
  6
CONTINUOUS
 62
     7
 10
252.0773648012788
 20
-35.492411229603611
 30
0.0
 11
251.8773648012789
 21
-35.692411229603437
 31
0.0
  0
LINE
  5
1A5AB
  8
KI
  6
CONTINUOUS
 62
     7
 10
252.77539041338591
 20
-35.692411229603437
 30
0.0
 11
252.17539041338571
 21
-36.292411229603331
 31
0.0
  0
LINE
  5
1A5AC
  8
KI
  6
CONTINUOUS
 62
     7
 10
252.9753904133859
 20
-35.492411229603157
 30
0.0
 11
252.77539041338591
 21
-35.692411229603437
 31
0.0
  0
LINE
  5
1A5AD
  8
KI
  6
CONTINUOUS
 62
     7
 10
253.6241807911284
 20
-35.74164646396742
 30
0.0
 11
253.07341602549249
 21
-36.292411229603331
 31
0.0
  0
LINE
  5
1A5AE
  8
KI
  6
CONTINUOUS
 62
     7
 10
253.6241807911284
 20
-35.492411229603157
 30
0.0
 11
253.6241807911284
 21
-36.292411229603331
 31
0.0
  0
LINE
  5
1A5AF
  8
KI
  6
CONTINUOUS
 62
     7
 10
245.62418079112911
 20
-35.492411229602709
 30
0.0
 11
245.62418079112831
 21
-36.292417229603551
 31
0.0
  0
LINE
  5
1A5B0
  8
KI
  6
CONTINUOUS
 62
     7
 10
254.63615954339829
 20
-36.292411229603793
 30
0.0
 11
250.8741907911288
 21
-36.292411229603331
 31
0.0
  0
LINE
  5
1A5B1
  8
KI
  6
CONTINUOUS
 62
     7
 10
250.6241907911284
 20
-36.092411229603073
 30
0.0
 11
250.37418079112871
 21
-36.292411229603331
 31
0.0
  0
LINE
  5
1A5B2
  8
KI
  6
CONTINUOUS
 62
     7
 10
250.6241907911284
 20
-36.09241722960283
 30
0.0
 11
250.8741907911288
 21
-36.292411229603331
 31
0.0
  0
LINE
  5
1A5B3
  8
KI
  6
CONTINUOUS
 62
     7
 10
250.3741907911284
 20
-36.292417229603551
 30
0.0
 11
244.62418079112911
 21
-36.292417229603551
 31
0.0
  0
ARC
  5
1A5B4
  8
KI
  6
CONTINUOUS
 62
     7
 10
255.3361595433984
 20
-35.992411229603142
 30
0.0
 40
0.3
 50
359.99999999991371
 51
89.999999999651507
  0
LINE
  5
1A5B5
  8
KI
  6
CONTINUOUS
 62
     7
 10
255.63615954339821
 20
-36.292411229603331
 30
0.0
 11
255.63615954339861
 21
-35.992411229603142
 31
0.0
  0
ARC
  5
1A5B6
  8
KI
  6
CONTINUOUS
 62
     7
 10
254.9361595433993
 20
-35.992411229600428
 30
0.0
 40
0.3
 50
89.999999999651507
 51
179.9999999999136
  0
LINE
  5
1A5B7
  8
KI
  6
CONTINUOUS
 62
     7
 10
255.3361595433984
 20
-35.692411229602982
 30
0.0
 11
254.9361595433993
 21
-35.692411229600701
 31
0.0
  0
ARC
  5
1A5B8
  8
KI
  6
CONTINUOUS
 62
     7
 10
244.32418079112909
 20
-35.992411229600428
 30
0.0
 40
0.3
 50
359.99999999991371
 51
89.999999999651507
  0
ARC
  5
1A5B9
  8
KI
  6
CONTINUOUS
 62
     7
 10
243.9241807911294
 20
-35.992411229598609
 30
0.0
 40
0.3
 50
89.999999999651507
 51
179.9999999999136
  0
LINE
  5
1A5BA
  8
KI
  6
CONTINUOUS
 62
     7
 10
244.32418079112909
 20
-35.692411229601163
 30
0.0
 11
243.9241807911294
 21
-35.692411229598427
 31
0.0
  0
LINE
  5
1A5BB
  8
KI
  6
CONTINUOUS
 62
     7
 10
244.62418079112911
 20
-36.292417229603551
 30
0.0
 11
244.62418079112911
 21
-35.992411229600428
 31
0.0
  0
LINE
  5
1A5BC
  8
KI
  6
CONTINUOUS
 62
     7
 10
254.63615954339869
 20
-35.992411229600428
 30
0.0
 11
254.63615954339829
 21
-36.292411229603793
 31
0.0
  0
LINE
  5
1A5BD
  8
KI
  6
CONTINUOUS
 62
     7
 10
253.6241807911284
 20
-35.492411229603157
 30
0.0
 11
245.62418079112911
 21
-35.492411229602709
 31
0.0
  0
ARC
  5
1A5BE
  8
KI
  6
CONTINUOUS
 62
     7
 10
245.06502273421481
 20
-43.485810079002619
 30
0.0
 40
0.5
 50
59.296923400935583
 51
153.98093263770701
  0
ARC
  5
1A5BF
  8
KI
  6
CONTINUOUS
 62
     7
 10
238.07685638957761
 20
-40.074574355252132
 30
0.0
 40
7.2763100519022599
 50
298.11323276635829
 51
333.98093263770693
  0
ARC
  5
1A5C0
  8
KI
  6
CONTINUOUS
 62
     7
 10
257.84077196107842
 20
-21.971627764474889
 30
0.0
 40
24.521586859558742
 50
239.29692340093581
 51
273.71118635343151
  0
ARC
  5
1A5C1
  8
KI
  6
CONTINUOUS
 62
     7
 10
238.07685638957761
 20
-40.074574355252132
 30
0.0
 40
5.776310051902259
 50
298.11323276635829
 51
343.81317179960399
  0
LINE
  5
1A5C2
  8
KI
  6
CONTINUOUS
 62
     7
 10
243.62418079112791
 20
-38.218509960831987
 30
0.0
 11
243.62418079112959
 21
-41.68483824656019
 31
0.0
  0
ARC
  5
1A5C3
  8
KI
  6
CONTINUOUS
 62
     7
 10
257.84077196107842
 20
-21.971627764474889
 30
0.0
 40
23.321944298558741
 50
238.41089939395661
 51
273.71118635343151
  0
LINE
  5
1A5C4
  8
KI
  6
CONTINUOUS
 62
     7
 10
245.62418079112831
 20
-38.792380660919768
 30
0.0
 11
245.62418079112831
 21
-41.837880205521422
 31
0.0
  0
LINE
  5
1A5C5
  8
KI
  6
CONTINUOUS
 62
     7
 10
259.18089919744921
 20
-39.108069662458689
 30
0.0
 11
259.18089900102228
 21
-39.108069421356639
 31
0.0
  0
LINE
  5
1A5C6
  8
KI
  6
CONTINUOUS
 62
     7
 10
256.13600385718792
 20
-38.292380660919797
 30
0.0
 11
246.1241807911282
 21
-38.292380660919797
 31
0.0
  0
ARC
  5
1A5C7
  8
KI
  6
CONTINUOUS
 62
     7
 10
246.1241807911282
 20
-38.792380660919768
 30
0.0
 40
0.5
 50
90.0
 51
180.00000000000151
  0
ARC
  5
1A5C8
  8
KI
  6
CONTINUOUS
 62
     7
 10
263.12785788571318
 20
-41.409873099986399
 30
0.0
 40
0.3
 50
282.850904373123
 51
106.2830629427703
  0
ARC
  5
1A5C9
  8
KI
  6
CONTINUOUS
 62
     7
 10
261.76702714722001
 20
-40.294421748828093
 30
0.0
 40
0.5
 50
204.55739357395959
 51
220.67258802736049
  0
ARC
  5
1A5CA
  8
KI
  6
CONTINUOUS
 62
     7
 10
253.4901638856968
 20
-44.076416105799723
 30
0.0
 40
10.0
 50
17.18458009630881
 51
19.803175794162041
  0
ARC
  5
1A5CB
  8
KI
  6
CONTINUOUS
 62
     7
 10
262.79292433947973
 20
-40.407813110171134
 30
0.0
 40
0.3
 50
290.66264471901661
 51
112.3867008755925
  0
ARC
  5
1A5CC
  8
KI
  6
CONTINUOUS
 62
     7
 10
259.26415458055732
 20
-42.445149280397011
 30
0.0
 40
4.0
 50
272.34734183586102
 51
295.7018087462551
  0
ARC
  5
1A5CD
  8
KI
  6
CONTINUOUS
 62
     7
 10
253.49016388568711
 20
-44.0764231435775
 30
0.0
 40
8.7999999999999972
 50
15.77603774735195
 51
15.80191346986723
  0
ARC
  5
1A5CE
  8
KI
  6
CONTINUOUS
 62
     7
 10
261.26415458055641
 20
-45.909250895534711
 30
0.0
 40
0.3
 50
207.8509043731396
 51
32.14909562682751
  0
ARC
  5
1A5CF
  8
KI
  6
CONTINUOUS
 62
     7
 10
259.26415458055732
 20
-42.445149280397011
 30
0.0
 40
4.0
 50
304.29819125370682
 51
310.7018087462971
  0
ARC
  5
1A5D0
  8
KI
  6
CONTINUOUS
 62
     7
 10
262.09258170530438
 20
-45.273576405141881
 30
0.0
 40
0.3
 50
222.85090437314679
 51
47.149095626876061
  0
ARC
  5
1A5D1
  8
KI
  6
CONTINUOUS
 62
     7
 10
263.26415458055732
 20
-42.445149280398851
 30
0.0
 40
0.3
 50
267.85090437314102
 51
92.149095626780564
  0
ARC
  5
1A5D2
  8
KI
  6
CONTINUOUS
 62
     7
 10
263.12785788571279
 20
-43.480425460809471
 30
0.0
 40
0.3
 50
252.8509043730698
 51
77.149095626823382
  0
ARC
  5
1A5D3
  8
KI
  6
CONTINUOUS
 62
     7
 10
259.26415458055732
 20
-42.445149280397011
 30
0.0
 40
4.0
 50
334.29819125373632
 51
340.7018087462269
  0
ARC
  5
1A5D4
  8
KI
  6
CONTINUOUS
 62
     7
 10
262.72825619569551
 20
-44.445149280396123
 30
0.0
 40
0.3
 50
237.85090437311911
 51
62.149095626886691
  0
ARC
  5
1A5D5
  8
KI
  6
CONTINUOUS
 62
     7
 10
259.26415458055732
 20
-42.445149280397011
 30
0.0
 40
4.0
 50
319.2981912537565
 51
325.70180874627903
  0
ARC
  5
1A5D6
  8
KI
  6
CONTINUOUS
 62
     7
 10
259.26415458055732
 20
-42.445149280397011
 30
0.0
 40
4.0
 50
4.298191253699688
 51
10.70180874628195
  0
ARC
  5
1A5D7
  8
KI
  6
CONTINUOUS
 62
     7
 10
259.26415458058
 20
-42.445149280397011
 30
0.0
 40
4.0
 50
349.29819125367982
 51
355.70180874624123
  0
ARC
  5
1A5D8
  8
KI
  6
CONTINUOUS
 62
     7
 10
259.26415458055732
 20
-42.445149280397011
 30
0.0
 40
2.799999999999998
 50
272.34734183586102
 51
40.672588027355317
  0
ARC
  5
1A5D9
  8
KI
  6
CONTINUOUS
 62
     7
 10
256.10113389496883
 20
-45.541303742584788
 30
0.0
 40
7.2490069497939373
 50
44.038429734718477
 51
89.724388542350269
  0
ARC
  5
1A5DA
  8
KI
  6
CONTINUOUS
 62
     7
 10
241.2449013919223
 20
-45.781348460014812
 30
0.0
 40
0.7573354118943643
 50
126.0942255147736
 51
290.1322400179493
  0
ARC
  5
1A5DB
  8
KI
  6
CONTINUOUS
 62
     7
 10
242.57376905126401
 20
-28.992918603016872
 30
0.0
 40
2.5000001067820641
 50
191.52508544921761
 51
271.1553192138681
  0
LINE
  5
1A5DC
  8
KI
  6
CONTINUOUS
 62
     7
 10
242.62419693363199
 20
-31.492405813441689
 30
0.0
 11
243.62418079112911
 21
-31.492405813441689
 31
0.0
  0
LINE
  5
1A5DD
  8
KI
  6
DASHED2
 62
     7
 10
241.62417808107381
 20
-28.992411174637841
 30
0.0
 11
242.62419693363199
 21
-30.242417242804681
 31
0.0
  0
LINE
  5
1A5DE
  8
KI
  6
DASHED2
 62
     7
 10
243.62421578618989
 20
-28.992411170688811
 30
0.0
 11
242.62419693363199
 21
-30.242417238855658
 31
0.0
  0
LINE
  5
1A5DF
  8
KI
  6
DASHED2
 62
     7
 10
241.62417808107381
 20
-17.992413766864171
 30
0.0
 11
241.62417808107381
 21
-28.992411174637841
 31
0.0
  0
LINE
  5
1A5E0
  8
KI
  6
DASHED2
 62
     7
 10
242.62419693363199
 20
-16.742407698697331
 30
0.0
 11
242.62419693363199
 21
-30.242417242804681
 31
0.0
  0
LINE
  5
1A5E1
  8
KI
  6
DASHED2
 62
     7
 10
242.62419693363199
 20
-16.742407698697331
 30
0.0
 11
243.62418079112911
 21
-17.992413766864171
 31
0.0
  0
LINE
  5
1A5E2
  8
KI
  6
DASHED2
 62
     7
 10
242.62419693363199
 20
-16.742407698697331
 30
0.0
 11
241.62417808107381
 21
-17.992413766864171
 31
0.0
  0
LINE
  5
1A5E3
  8
KI
  6
CONTINUOUS
 62
     7
 10
240.1241847972978
 20
-29.49242060091651
 30
0.0
 11
240.1241847972978
 21
-17.492404340585509
 31
0.0
  0
ARC
  5
1A5E4
  8
KI
  6
CONTINUOUS
 62
     7
 10
242.57376905126401
 20
-17.991906338485151
 30
0.0
 40
2.5000001067820641
 50
88.844696044923452
 51
168.47492980957071
  0
LINE
  5
1A5E5
  8
KI
  6
CONTINUOUS
 62
     7
 10
242.62419693363199
 20
-15.49241912806078
 30
0.0
 11
243.62418079112911
 21
-15.49241912806078
 31
0.0
  0
LINE
  5
1A5E6
  8
KI
  6
CONTINUOUS
 62
     7
 10
57.124215786190121
 20
-17.492413704000821
 30
0.0
 11
57.124215786190121
 21
-29.49241122960316
 31
0.0
  0
LINE
  5
1A5E7
  8
KI
  6
CONTINUOUS
 62
     7
 10
57.124215786190121
 20
-29.49241122960316
 30
0.0
 11
61.624215786190121
 21
-29.49241122960316
 31
0.0
  0
LINE
  5
1A5E8
  8
KI
  6
CONTINUOUS
 62
     7
 10
61.624215786190121
 20
-29.49241122960273
 30
0.0
 11
61.624215786190121
 21
-35.492411229602709
 31
0.0
  0
LINE
  5
1A5E9
  8
KI
  6
CONTINUOUS
 62
     7
 10
57.124215786190121
 20
-17.492413704000821
 30
0.0
 11
61.624215786190121
 21
-17.492413704000821
 31
0.0
  0
LINE
  5
1A5EA
  8
KI
  6
CONTINUOUS
 62
     7
 10
61.624215786190121
 20
-11.492413704000819
 30
0.0
 11
61.624215786190121
 21
-17.492413704000789
 31
0.0
  0
LINE
  5
1A5EB
  8
KI
  6
CONTINUOUS
 62
     7
 10
61.624215786190121
 20
-11.492413704000819
 30
0.0
 11
81.624215786190078
 21
-11.49241370400083
 31
0.0
  0
LINE
  5
1A5EC
  8
KI
  6
CONTINUOUS
 62
     7
 10
81.624215786190078
 20
-11.49241370400083
 30
0.0
 11
81.624215786190078
 21
-35.492411229602709
 31
0.0
  0
LINE
  5
1A5ED
  8
KI
  6
CONTINUOUS
 62
     7
 10
61.624215786190121
 20
-35.492411229602709
 30
0.0
 11
81.624215786190078
 21
-35.492411229602709
 31
0.0
  0
LINE
  5
1A5EE
  8
KI
  6
CONTINUOUS
 62
     7
 10
81.62425078125068
 20
-35.992417229603383
 30
0.0
 11
81.624250781251149
 21
-38.218509960832002
 31
0.0
  0
ARC
  5
1A5EF
  8
KI
  6
CONTINUOUS
 62
     7
 10
70.063374891100821
 20
-45.50044027925891
 30
0.0
 40
9.2190722294335075
 50
92.804687340448481
 51
144.3741318244827
  0
LINE
  5
1A5F0
  8
KI
  6
CONTINUOUS
 62
     7
 10
79.457246055848699
 20
-35.492411229602247
 30
0.0
 11
79.624250781252485
 21
-35.659415955006033
 31
0.0
  0
LINE
  5
1A5F1
  8
KI
  6
CONTINUOUS
 62
     7
 10
78.759220443743175
 20
-35.692411229602989
 30
0.0
 11
79.359226443742372
 21
-36.29241722960311
 31
0.0
  0
LINE
  5
1A5F2
  8
KI
  6
CONTINUOUS
 62
     7
 10
78.559220443741992
 20
-35.492411229602709
 30
0.0
 11
78.75922044374272
 21
-35.692411229602989
 31
0.0
  0
LINE
  5
1A5F3
  8
KI
  6
CONTINUOUS
 62
     7
 10
77.861194831635558
 20
-35.692411229602989
 30
0.0
 11
78.461200831635651
 21
-36.29241722960311
 31
0.0
  0
LINE
  5
1A5F4
  8
KI
  6
CONTINUOUS
 62
     7
 10
77.661194831635271
 20
-35.492411229602247
 30
0.0
 11
77.861194831635558
 21
-35.692411229602989
 31
0.0
  0
LINE
  5
1A5F5
  8
KI
  6
CONTINUOUS
 62
     7
 10
76.963169219528766
 20
-35.692411229602982
 30
0.0
 11
77.563175219528944
 21
-36.29241722960311
 31
0.0
  0
LINE
  5
1A5F6
  8
KI
  6
CONTINUOUS
 62
     7
 10
76.76316921952855
 20
-35.492411229602247
 30
0.0
 11
76.963169219528766
 21
-35.692411229602982
 31
0.0
  0
LINE
  5
1A5F7
  8
KI
  6
CONTINUOUS
 62
     7
 10
76.065143607421632
 20
-35.692411229602982
 30
0.0
 11
76.665149607422222
 21
-36.292417229602641
 31
0.0
  0
LINE
  5
1A5F8
  8
KI
  6
CONTINUOUS
 62
     7
 10
75.865143607421373
 20
-35.492411229602247
 30
0.0
 11
76.065143607421632
 21
-35.692411229602982
 31
0.0
  0
LINE
  5
1A5F9
  8
KI
  6
CONTINUOUS
 62
     7
 10
75.167117995314896
 20
-35.692411229603891
 30
0.0
 11
75.767123995314591
 21
-36.292417229603551
 31
0.0
  0
LINE
  5
1A5FA
  8
KI
  6
CONTINUOUS
 62
     7
 10
74.967117995314183
 20
-35.492411229603157
 30
0.0
 11
75.167117995314896
 21
-35.692411229603437
 31
0.0
  0
LINE
  5
1A5FB
  8
KI
  6
CONTINUOUS
 62
     7
 10
74.269092383208189
 20
-35.692411229603891
 30
0.0
 11
74.62425078125159
 21
-36.047569627646808
 31
0.0
  0
LINE
  5
1A5FC
  8
KI
  6
CONTINUOUS
 62
     7
 10
74.62425078125159
 20
-36.047569627646808
 30
0.0
 11
74.848462916926451
 21
-36.271781763322132
 31
0.0
  0
LINE
  5
1A5FD
  8
KI
  6
CONTINUOUS
 62
     7
 10
74.069092383207945
 20
-35.492411229603611
 30
0.0
 11
74.269092383208189
 21
-35.692411229603437
 31
0.0
  0
LINE
  5
1A5FE
  8
KI
  6
CONTINUOUS
 62
     7
 10
73.371066771101013
 20
-35.692411229603437
 30
0.0
 11
73.971066771100013
 21
-36.292411229602891
 31
0.0
  0
LINE
  5
1A5FF
  8
KI
  6
CONTINUOUS
 62
     7
 10
73.171066771101223
 20
-35.492411229603611
 30
0.0
 11
73.371066771101013
 21
-35.692411229603437
 31
0.0
  0
LINE
  5
1A600
  8
KI
  6
CONTINUOUS
 62
     7
 10
72.473041158993865
 20
-35.692411229603437
 30
0.0
 11
73.073041158994201
 21
-36.292411229603331
 31
0.0
  0
LINE
  5
1A601
  8
KI
  6
CONTINUOUS
 62
     7
 10
72.273041158994033
 20
-35.492411229603157
 30
0.0
 11
72.473041158993865
 21
-35.692411229603437
 31
0.0
  0
LINE
  5
1A602
  8
KI
  6
CONTINUOUS
 62
     7
 10
71.62425078125159
 20
-35.74164646396742
 30
0.0
 11
72.175015546887479
 21
-36.292411229603331
 31
0.0
  0
LINE
  5
1A603
  8
KI
  6
CONTINUOUS
 62
     7
 10
71.62425078125159
 20
-35.492411229603157
 30
0.0
 11
71.62425078125159
 21
-36.292411229603331
 31
0.0
  0
LINE
  5
1A604
  8
KI
  6
CONTINUOUS
 62
     7
 10
79.62425078125068
 20
-35.492411229602709
 30
0.0
 11
79.62425078125159
 21
-36.292417229603558
 31
0.0
  0
LINE
  5
1A605
  8
KI
  6
CONTINUOUS
 62
     7
 10
70.612272028981693
 20
-36.292411229603793
 30
0.0
 11
74.374240781250933
 21
-36.292411229603331
 31
0.0
  0
LINE
  5
1A606
  8
KI
  6
CONTINUOUS
 62
     7
 10
74.624240781251373
 20
-36.092411229603073
 30
0.0
 11
74.874250781251149
 21
-36.292411229603331
 31
0.0
  0
LINE
  5
1A607
  8
KI
  6
CONTINUOUS
 62
     7
 10
74.624240781251373
 20
-36.09241722960283
 30
0.0
 11
74.374240781250933
 21
-36.292411229603331
 31
0.0
  0
LINE
  5
1A608
  8
KI
  6
CONTINUOUS
 62
     7
 10
74.874240781251373
 20
-36.292417229603551
 30
0.0
 11
80.62425078125068
 21
-36.292417229603558
 31
0.0
  0
ARC
  5
1A609
  8
KI
  6
CONTINUOUS
 62
     7
 10
69.91227202898142
 20
-35.992411229603142
 30
0.0
 40
0.3
 50
90.000000000348507
 51
180.000000000086
  0
LINE
  5
1A60A
  8
KI
  6
CONTINUOUS
 62
     7
 10
69.612272028981693
 20
-36.292411229603331
 30
0.0
 11
69.612272028981252
 21
-35.992411229603142
 31
0.0
  0
ARC
  5
1A60B
  8
KI
  6
CONTINUOUS
 62
     7
 10
70.312272028980601
 20
-35.992411229600428
 30
0.0
 40
0.3
 50
0.0000000000863075
 51
90.000000000348507
  0
LINE
  5
1A60C
  8
KI
  6
CONTINUOUS
 62
     7
 10
69.91227202898142
 20
-35.692411229602982
 30
0.0
 11
70.312272028980601
 21
-35.692411229600701
 31
0.0
  0
ARC
  5
1A60D
  8
KI
  6
CONTINUOUS
 62
     7
 10
80.924250781250876
 20
-35.992411229600442
 30
0.0
 40
0.3
 50
90.000000000348507
 51
180.000000000086
  0
ARC
  5
1A60E
  8
KI
  6
CONTINUOUS
 62
     7
 10
81.324250781250498
 20
-35.99241122959863
 30
0.0
 40
0.3
 50
0.0000000000863075
 51
90.000000000348507
  0
LINE
  5
1A60F
  8
KI
  6
CONTINUOUS
 62
     7
 10
80.924250781250876
 20
-35.69241122960117
 30
0.0
 11
81.324250781250498
 21
-35.692411229598427
 31
0.0
  0
LINE
  5
1A610
  8
KI
  6
CONTINUOUS
 62
     7
 10
80.62425078125068
 20
-36.292417229603558
 30
0.0
 11
80.62425078125068
 21
-35.992411229600442
 31
0.0
  0
LINE
  5
1A611
  8
KI
  6
CONTINUOUS
 62
     7
 10
70.612272028981224
 20
-35.992411229600428
 30
0.0
 11
70.612272028981693
 21
-36.292411229603793
 31
0.0
  0
LINE
  5
1A612
  8
KI
  6
CONTINUOUS
 62
     7
 10
71.62425078125159
 20
-35.492411229603157
 30
0.0
 11
79.62425078125068
 21
-35.492411229602709
 31
0.0
  0
ARC
  5
1A613
  8
KI
  6
CONTINUOUS
 62
     7
 10
80.183408838165064
 20
-43.485810079002619
 30
0.0
 40
0.5
 50
26.019067362292621
 51
120.7030765990647
  0
ARC
  5
1A614
  8
KI
  6
CONTINUOUS
 62
     7
 10
87.171575182802258
 20
-40.074574355252167
 30
0.0
 40
7.2763100519022599
 50
206.0190673622925
 51
241.88676723364111
  0
ARC
  5
1A615
  8
KI
  6
CONTINUOUS
 62
     7
 10
67.407659611301256
 20
-21.971627764474889
 30
0.0
 40
24.521586859558742
 50
266.28881364656843
 51
300.70307659906382
  0
ARC
  5
1A616
  8
KI
  6
CONTINUOUS
 62
     7
 10
87.171575182802258
 20
-40.074574355252167
 30
0.0
 40
5.776310051902259
 50
196.18682820039569
 51
241.88676723364111
  0
LINE
  5
1A617
  8
KI
  6
CONTINUOUS
 62
     7
 10
81.62425078125203
 20
-38.218509960832002
 30
0.0
 11
81.624250781250225
 21
-41.684838246560197
 31
0.0
  0
ARC
  5
1A618
  8
KI
  6
CONTINUOUS
 62
     7
 10
67.407659611301256
 20
-21.971627764474889
 30
0.0
 40
23.321944298558741
 50
266.28881364656843
 51
301.58910060604359
  0
LINE
  5
1A619
  8
KI
  6
CONTINUOUS
 62
     7
 10
79.62425078125159
 20
-38.792380660919811
 30
0.0
 11
79.62425078125159
 21
-41.837880205521422
 31
0.0
  0
LINE
  5
1A61A
  8
KI
  6
CONTINUOUS
 62
     7
 10
66.067532374930465
 20
-39.108069662458689
 30
0.0
 11
66.067532571357674
 21
-39.108069421356639
 31
0.0
  0
LINE
  5
1A61B
  8
KI
  6
CONTINUOUS
 62
     7
 10
69.11242771519197
 20
-38.292380660919797
 30
0.0
 11
79.12425078125159
 21
-38.292380660919811
 31
0.0
  0
ARC
  5
1A61C
  8
KI
  6
CONTINUOUS
 62
     7
 10
79.12425078125159
 20
-38.792380660919811
 30
0.0
 40
0.5
 50
359.99999999999829
 51
90.0
  0
ARC
  5
1A61D
  8
KI
  6
CONTINUOUS
 62
     7
 10
62.120573686666717
 20
-41.409873099986399
 30
0.0
 40
0.3
 50
73.716937057229572
 51
257.14909562687677
  0
ARC
  5
1A61E
  8
KI
  6
CONTINUOUS
 62
     7
 10
63.481404425159653
 20
-40.294421748828093
 30
0.0
 40
0.5
 50
319.32741197263852
 51
335.44260642604002
  0
ARC
  5
1A61F
  8
KI
  6
CONTINUOUS
 62
     7
 10
71.758267686683098
 20
-44.076416105799723
 30
0.0
 40
10.0
 50
160.1968242058378
 51
162.81541990369081
  0
ARC
  5
1A620
  8
KI
  6
CONTINUOUS
 62
     7
 10
62.455507232900231
 20
-40.407813110171134
 30
0.0
 40
0.3
 50
67.613299124407419
 51
249.3373552809833
  0
ARC
  5
1A621
  8
KI
  6
CONTINUOUS
 62
     7
 10
65.98427699182264
 20
-42.445149280397011
 30
0.0
 40
4.0
 50
244.29819125374479
 51
267.65265816413881
  0
ARC
  5
1A622
  8
KI
  6
CONTINUOUS
 62
     7
 10
71.758267686692633
 20
-44.0764231435775
 30
0.0
 40
8.7999999999999972
 50
164.19808653013251
 51
164.22396225264819
  0
ARC
  5
1A623
  8
KI
  6
CONTINUOUS
 62
     7
 10
63.984276991823542
 20
-45.909250895534711
 30
0.0
 40
0.3
 50
147.85090437317251
 51
332.1490956268604
  0
ARC
  5
1A624
  8
KI
  6
CONTINUOUS
 62
     7
 10
65.98427699182264
 20
-42.445149280397011
 30
0.0
 40
4.0
 50
229.29819125370301
 51
235.70180874629281
  0
ARC
  5
1A625
  8
KI
  6
CONTINUOUS
 62
     7
 10
63.15584986707551
 20
-45.273576405141881
 30
0.0
 40
0.3
 50
132.85090437312351
 51
317.14909562685312
  0
ARC
  5
1A626
  8
KI
  6
CONTINUOUS
 62
     7
 10
61.984276991822632
 20
-42.445149280398851
 30
0.0
 40
0.3
 50
87.850904373219379
 51
272.14909562685881
  0
ARC
  5
1A627
  8
KI
  6
CONTINUOUS
 62
     7
 10
62.120573686667157
 20
-43.480425460809471
 30
0.0
 40
0.3
 50
102.85090437317641
 51
287.14909562692998
  0
ARC
  5
1A628
  8
KI
  6
CONTINUOUS
 62
     7
 10
65.98427699182264
 20
-42.445149280397011
 30
0.0
 40
4.0
 50
199.29819125377281
 51
205.701808746263
  0
ARC
  5
1A629
  8
KI
  6
CONTINUOUS
 62
     7
 10
62.520175376684499
 20
-44.445149280396123
 30
0.0
 40
0.3
 50
117.8509043731132
 51
302.14909562688081
  0
ARC
  5
1A62A
  8
KI
  6
CONTINUOUS
 62
     7
 10
65.98427699182264
 20
-42.445149280397011
 30
0.0
 40
4.0
 50
214.29819125372151
 51
220.7018087462435
  0
ARC
  5
1A62B
  8
KI
  6
CONTINUOUS
 62
     7
 10
65.98427699182264
 20
-42.445149280397011
 30
0.0
 40
4.0
 50
169.29819125371779
 51
175.7018087463002
  0
ARC
  5
1A62C
  8
KI
  6
CONTINUOUS
 62
     7
 10
65.984276991799902
 20
-42.445149280397011
 30
0.0
 40
4.0
 50
184.2981912537584
 51
190.70180874632001
  0
ARC
  5
1A62D
  8
KI
  6
CONTINUOUS
 62
     7
 10
65.98427699182264
 20
-42.445149280397011
 30
0.0
 40
2.799999999999998
 50
139.32741197264451
 51
267.65265816413881
  0
ARC
  5
1A62E
  8
KI
  6
CONTINUOUS
 62
     7
 10
69.147297677411075
 20
-45.541303742584788
 30
0.0
 40
7.2490069497939373
 50
90.275611457649703
 51
135.96157026528149
  0
ARC
  5
1A62F
  8
KI
  6
CONTINUOUS
 62
     7
 10
84.003530180457659
 20
-45.781348460014812
 30
0.0
 40
0.7573354118943643
 50
249.86775998205039
 51
53.905774485226729
  0
ARC
  5
1A630
  8
KI
  6
CONTINUOUS
 62
     7
 10
82.674662521115707
 20
-28.992918603016872
 30
0.0
 40
2.5000001067820641
 50
268.84468078613151
 51
348.4749145507817
  0
LINE
  5
1A631
  8
KI
  6
CONTINUOUS
 62
     7
 10
82.624234638747907
 20
-31.49240581344171
 30
0.0
 11
81.62425078125068
 21
-31.49240581344171
 31
0.0
  0
LINE
  5
1A632
  8
KI
  6
DASHED2
 62
     7
 10
83.624253491306149
 20
-28.992411174637851
 30
0.0
 11
82.624234638747907
 21
-30.242417242804681
 31
0.0
  0
LINE
  5
1A633
  8
KI
  6
DASHED2
 62
     7
 10
81.624215786190078
 20
-28.992411170688811
 30
0.0
 11
82.624234638747907
 21
-30.242417238855669
 31
0.0
  0
LINE
  5
1A634
  8
KI
  6
DASHED2
 62
     7
 10
83.624253491306149
 20
-17.992413766864189
 30
0.0
 11
83.624253491306149
 21
-28.992411174637851
 31
0.0
  0
LINE
  5
1A635
  8
KI
  6
DASHED2
 62
     7
 10
82.624234638747907
 20
-16.742407698697349
 30
0.0
 11
82.624234638747907
 21
-30.242417242804681
 31
0.0
  0
LINE
  5
1A636
  8
KI
  6
DASHED2
 62
     7
 10
82.624234638747907
 20
-16.742407698697349
 30
0.0
 11
81.62425078125068
 21
-17.992413766864189
 31
0.0
  0
LINE
  5
1A637
  8
KI
  6
DASHED2
 62
     7
 10
82.624234638747907
 20
-16.742407698697349
 30
0.0
 11
83.624253491306149
 21
-17.992413766864189
 31
0.0
  0
LINE
  5
1A638
  8
KI
  6
CONTINUOUS
 62
     7
 10
85.124246775082057
 20
-29.492420600916521
 30
0.0
 11
85.124246775082057
 21
-17.49240434058553
 31
0.0
  0
ARC
  5
1A639
  8
KI
  6
CONTINUOUS
 62
     7
 10
82.674662521115707
 20
-17.991906338485151
 30
0.0
 40
2.5000001067820641
 50
11.52507019042889
 51
91.155303955076519
  0
LINE
  5
1A63A
  8
KI
  6
CONTINUOUS
 62
     7
 10
82.624234638747907
 20
-15.49241912806079
 30
0.0
 11
81.62425078125068
 21
-15.49241912806079
 31
0.0
  0
LINE
  5
1A63B
  8
SU
  6
CONTINUOUS
 62
     3
 10
82.624215786190106
 20
-35.492411229602702
 30
0.0
 11
104.62421578619011
 21
-35.492411229602702
 31
0.0
  0
LINE
  5
1A63C
  8
SU
  6
CONTINUOUS
 62
     3
 10
82.624215786190106
 20
-11.492413704000819
 30
0.0
 11
104.62421578619011
 21
-11.49241370400083
 31
0.0
  0
LINE
  5
1A63D
  8
SU
  6
CONTINUOUS
 62
     3
 10
101.62421578618979
 20
-35.492411229602702
 30
0.0
 11
101.62421578619011
 21
-11.49241370400083
 31
0.0
  0
LINE
  5
1A63E
  8
KI
  6
DASHED2
 62
     7
 10
243.62418079112911
 20
-24.542404269888848
 30
0.0
 11
241.62417808107381
 21
-26.04113773148233
 31
0.0
  0
LINE
  5
1A63F
  8
KI
  6
DASHED2
 62
     7
 10
243.62418079112911
 20
-22.44242067161408
 30
0.0
 11
241.62417808107381
 21
-20.943687210020599
 31
0.0
  0
LINE
  5
1A640
  8
KI
  6
DASHED2
 62
     7
 10
267.36811945810229
 20
-22.3319412612565
 30
0.0
 11
265.5514908657475
 21
-24.781018086843829
 31
0.0
  0
LINE
  5
1A641
  8
KI
  6
DASHED2
 62
     7
 10
268.47826776646241
 20
-22.3319412612565
 30
0.0
 11
266.66163917410711
 21
-24.781018086843829
 31
0.0
  0
LINE
  5
1A642
  8
KI
  6
DASHED2
 62
     7
 10
269.58845106988281
 20
-22.3319412612565
 30
0.0
 11
267.77182247752802
 21
-24.781018086843829
 31
0.0
  0
LINE
  5
1A643
  8
KI
  6
DASHED2
 62
     7
 10
270.69859937824282
 20
-22.3319412612565
 30
0.0
 11
268.88197078588792
 21
-24.781018086843829
 31
0.0
  0
LINE
  5
1A644
  8
KI
  6
DASHED2
 62
     7
 10
271.80874768660311
 20
-22.3319412612565
 30
0.0
 11
269.99211909424832
 21
-24.781018086843829
 31
0.0
  0
LINE
  5
1A645
  8
KI
  6
DASHED2
 62
     7
 10
272.91893099002351
 20
-22.3319412612565
 30
0.0
 11
271.10230239766872
 21
-24.78101808684384
 31
0.0
  0
LINE
  5
1A646
  8
KI
  6
DASHED2
 62
     7
 10
274.02907929838341
 20
-22.3319412612565
 30
0.0
 11
272.21245070602902
 21
-24.78101808684384
 31
0.0
  0
LINE
  5
1A647
  8
KI
  6
DASHED2
 62
     7
 10
275.13922760674359
 20
-22.3319412612565
 30
0.0
 11
273.3225990143888
 21
-24.78101808684384
 31
0.0
  0
LINE
  5
1A648
  8
KI
  6
DASHED2
 62
     7
 10
276.2494109101641
 20
-22.3319412612565
 30
0.0
 11
274.4327823178092
 21
-24.78101808684384
 31
0.0
  0
LINE
  5
1A649
  8
KI
  6
DASHED2
 62
     7
 10
277.35955921852383
 20
-22.3319412612565
 30
0.0
 11
275.54293062616949
 21
-24.78101808684384
 31
0.0
  0
LINE
  5
1A64A
  8
KI
  6
DASHED2
 62
     7
 10
278.4697425219448
 20
-22.3319412612565
 30
0.0
 11
276.65311392958978
 21
-24.78101808684384
 31
0.0
  0
LINE
  5
1A64B
  8
KI
  6
DASHED2
 62
     7
 10
264.03763953796181
 20
-22.3319412612565
 30
0.0
 11
262.22101094560691
 21
-24.781018086843829
 31
0.0
  0
LINE
  5
1A64C
  8
KI
  6
DASHED2
 62
     7
 10
265.1477878463221
 20
-22.3319412612565
 30
0.0
 11
263.33115925396669
 21
-24.781018086843829
 31
0.0
  0
LINE
  5
1A64D
  8
KI
  6
DASHED2
 62
     7
 10
266.25793615468172
 20
-22.3319412612565
 30
0.0
 11
264.44130756232681
 21
-24.781018086843829
 31
0.0
  0
LINE
  5
1A64E
  8
KI
  6
DASHED2
 62
     7
 10
260.70712462276072
 20
-22.3319412612565
 30
0.0
 11
258.89053102546637
 21
-24.781018086843829
 31
0.0
  0
LINE
  5
1A64F
  8
KI
  6
DASHED2
 62
     7
 10
261.8173079261814
 20
-22.3319412612565
 30
0.0
 11
260.00067933382599
 21
-24.781018086843829
 31
0.0
  0
LINE
  5
1A650
  8
KI
  6
DASHED2
 62
     7
 10
262.92745623454141
 20
-22.3319412612565
 30
0.0
 11
261.11082764218622
 21
-24.781018086843829
 31
0.0
  0
LINE
  5
1A651
  8
KI
  6
DASHED2
 62
     7
 10
267.36811945810229
 20
-22.331941265205518
 30
0.0
 11
265.5514908657475
 21
-24.781018090792848
 31
0.0
  0
LINE
  5
1A652
  8
KI
  6
DASHED2
 62
     7
 10
268.47826776646241
 20
-22.331941265205518
 30
0.0
 11
266.66163917410711
 21
-24.781018090792848
 31
0.0
  0
LINE
  5
1A653
  8
KI
  6
DASHED2
 62
     7
 10
269.58845106988281
 20
-22.331941265205518
 30
0.0
 11
267.77182247752802
 21
-24.781018090792848
 31
0.0
  0
LINE
  5
1A654
  8
KI
  6
DASHED2
 62
     7
 10
270.69859937824282
 20
-22.331941265205518
 30
0.0
 11
268.88197078588792
 21
-24.781018090792848
 31
0.0
  0
LINE
  5
1A655
  8
KI
  6
DASHED2
 62
     7
 10
271.80874768660311
 20
-22.331941265205518
 30
0.0
 11
269.99211909424832
 21
-24.781018090792848
 31
0.0
  0
LINE
  5
1A656
  8
KI
  6
DASHED2
 62
     7
 10
272.91893099002351
 20
-22.331941265205518
 30
0.0
 11
271.10230239766872
 21
-24.781018090792848
 31
0.0
  0
LINE
  5
1A657
  8
KI
  6
DASHED2
 62
     7
 10
274.02907929838341
 20
-22.331941265205518
 30
0.0
 11
272.21245070602902
 21
-24.781018090792848
 31
0.0
  0
LINE
  5
1A658
  8
KI
  6
DASHED2
 62
     7
 10
275.13922760674359
 20
-22.331941265205518
 30
0.0
 11
273.3225990143888
 21
-24.781018090792848
 31
0.0
  0
LINE
  5
1A659
  8
KI
  6
DASHED2
 62
     7
 10
276.2494109101641
 20
-22.331941265205518
 30
0.0
 11
274.4327823178092
 21
-24.781018090792848
 31
0.0
  0
LINE
  5
1A65A
  8
KI
  6
DASHED2
 62
     7
 10
277.35955921852383
 20
-22.331941265205518
 30
0.0
 11
275.54293062616949
 21
-24.781018090792848
 31
0.0
  0
LINE
  5
1A65B
  8
KI
  6
DASHED2
 62
     7
 10
278.4697425219448
 20
-22.331941265205518
 30
0.0
 11
276.65311392958978
 21
-24.781018090792848
 31
0.0
  0
LINE
  5
1A65C
  8
KI
  6
DASHED2
 62
     7
 10
279.57989083030509
 20
-22.331941265205518
 30
0.0
 11
277.76326223794962
 21
-24.781018090792848
 31
0.0
  0
LINE
  5
1A65D
  8
KI
  6
DASHED2
 62
     7
 10
280.69003913866482
 20
-22.331941265205518
 30
0.0
 11
278.87341054631003
 21
-24.781018090792848
 31
0.0
  0
LINE
  5
1A65E
  8
KI
  6
DASHED2
 62
     7
 10
281.80022244208533
 20
-22.331941265205518
 30
0.0
 11
279.98359384973043
 21
-24.781018090792848
 31
0.0
  0
LINE
  5
1A65F
  8
KI
  6
DASHED2
 62
     7
 10
282.91037075044562
 20
-22.331941265205518
 30
0.0
 11
281.09374215809032
 21
-24.781018090792848
 31
0.0
  0
LINE
  5
1A660
  8
KI
  6
DASHED2
 62
     7
 10
243.62418079112911
 20
-22.44242067161408
 30
0.0
 11
281.73880611067972
 21
-22.44242067161408
 31
0.0
  0
LINE
  5
1A661
  8
KI
  6
DASHED2
 62
     7
 10
281.73880611067972
 20
-22.44242067161408
 30
0.0
 11
290.32711891514862
 21
-23.487950600521039
 31
0.0
  0
LINE
  5
1A662
  8
KI
  6
DASHED2
 62
     7
 10
281.73880611067972
 20
-24.54240426988887
 30
0.0
 11
290.32711891514862
 21
-23.496874340981918
 31
0.0
  0
LINE
  5
1A663
  8
KI
  6
DASHED2
 62
     7
 10
243.62418079112911
 20
-24.542404269888848
 30
0.0
 11
281.73880611067972
 21
-24.54240426988887
 31
0.0
  0
LINE
  5
1A664
  8
KI
  6
DASHED2
 62
     7
 10
264.03763953796181
 20
-22.331941265205518
 30
0.0
 11
262.22101094560691
 21
-24.781018090792848
 31
0.0
  0
LINE
  5
1A665
  8
KI
  6
DASHED2
 62
     7
 10
265.1477878463221
 20
-22.331941265205518
 30
0.0
 11
263.33115925396709
 21
-24.781018090792848
 31
0.0
  0
LINE
  5
1A666
  8
KI
  6
DASHED2
 62
     7
 10
266.25793615468172
 20
-22.331941265205518
 30
0.0
 11
264.44130756232681
 21
-24.781018090792848
 31
0.0
  0
LINE
  5
1A667
  8
KI
  6
DASHED2
 62
     7
 10
260.70712462276072
 20
-22.331941265205518
 30
0.0
 11
258.89053102546637
 21
-24.781018090792848
 31
0.0
  0
LINE
  5
1A668
  8
KI
  6
DASHED2
 62
     7
 10
261.8173079261814
 20
-22.331941265205518
 30
0.0
 11
260.00067933382599
 21
-24.781018090792848
 31
0.0
  0
LINE
  5
1A669
  8
KI
  6
DASHED2
 62
     7
 10
262.92745623454141
 20
-22.331941265205518
 30
0.0
 11
261.11082764218622
 21
-24.781018090792848
 31
0.0
  0
LINE
  5
1A66A
  8
KI
  6
CENTER2
 62
     7
 10
237.26921776099499
 20
-23.492412470751461
 30
0.0
 11
295.73941999709717
 21
-23.492412470751479
 31
0.0
  0
LINE
  5
1A66B
  8
KI
  6
DASHED2
 62
     7
 10
81.62425078125068
 20
-24.542404269888848
 30
0.0
 11
83.624253491306149
 21
-26.04113773148233
 31
0.0
  0
LINE
  5
1A66C
  8
KI
  6
DASHED2
 62
     7
 10
81.62425078125068
 20
-22.44242067161408
 30
0.0
 11
83.624253491306149
 21
-20.943687210020599
 31
0.0
  0
LINE
  5
1A66D
  8
KI
  6
DASHED2
 62
     7
 10
57.880312114277658
 20
-22.331941261256489
 30
0.0
 11
59.69694070663251
 21
-24.781018086843812
 31
0.0
  0
LINE
  5
1A66E
  8
KI
  6
DASHED2
 62
     7
 10
56.77016380591737
 20
-22.331941261256489
 30
0.0
 11
58.586792398272671
 21
-24.781018086843812
 31
0.0
  0
LINE
  5
1A66F
  8
KI
  6
DASHED2
 62
     7
 10
55.659980502496978
 20
-22.331941261256489
 30
0.0
 11
57.476609094851817
 21
-24.781018086843812
 31
0.0
  0
LINE
  5
1A670
  8
KI
  6
DASHED2
 62
     7
 10
54.549832194137153
 20
-22.331941261256489
 30
0.0
 11
56.366460786491977
 21
-24.781018086843812
 31
0.0
  0
LINE
  5
1A671
  8
KI
  6
DASHED2
 62
     7
 10
53.439683885776837
 20
-22.331941261256489
 30
0.0
 11
55.256312478131669
 21
-24.781018086843812
 31
0.0
  0
LINE
  5
1A672
  8
KI
  6
DASHED2
 62
     7
 10
52.329500582356431
 20
-22.331941261256489
 30
0.0
 11
54.146129174711277
 21
-24.781018086843812
 31
0.0
  0
LINE
  5
1A673
  8
KI
  6
DASHED2
 62
     7
 10
51.219352273996599
 20
-22.331941261256489
 30
0.0
 11
53.035980866350997
 21
-24.781018086843812
 31
0.0
  0
LINE
  5
1A674
  8
KI
  6
DASHED2
 62
     7
 10
50.109203965636311
 20
-22.331941261256489
 30
0.0
 11
51.92583255799115
 21
-24.781018086843812
 31
0.0
  0
LINE
  5
1A675
  8
KI
  6
DASHED2
 62
     7
 10
48.999020662215912
 20
-22.331941261256489
 30
0.0
 11
50.815649254570758
 21
-24.781018086843812
 31
0.0
  0
LINE
  5
1A676
  8
KI
  6
DASHED2
 62
     7
 10
47.888872353856058
 20
-22.331941261256489
 30
0.0
 11
49.705500946210456
 21
-24.781018086843812
 31
0.0
  0
LINE
  5
1A677
  8
KI
  6
DASHED2
 62
     7
 10
46.778689050435219
 20
-22.331941261256489
 30
0.0
 11
48.59531764279005
 21
-24.781018086843812
 31
0.0
  0
LINE
  5
1A678
  8
KI
  6
DASHED2
 62
     7
 10
61.210792034418198
 20
-22.3319412612565
 30
0.0
 11
63.027420626773043
 21
-24.781018086843812
 31
0.0
  0
LINE
  5
1A679
  8
KI
  6
DASHED2
 62
     7
 10
60.10064372605791
 20
-22.331941261256489
 30
0.0
 11
61.917272318413211
 21
-24.781018086843812
 31
0.0
  0
LINE
  5
1A67A
  8
KI
  6
DASHED2
 62
     7
 10
58.990495417698071
 20
-22.331941261256489
 30
0.0
 11
60.807124010052917
 21
-24.781018086843812
 31
0.0
  0
LINE
  5
1A67B
  8
KI
  6
DASHED2
 62
     7
 10
64.541306949619283
 20
-22.3319412612565
 30
0.0
 11
66.357900546913569
 21
-24.781018086843812
 31
0.0
  0
LINE
  5
1A67C
  8
KI
  6
DASHED2
 62
     7
 10
63.431123646198451
 20
-22.3319412612565
 30
0.0
 11
65.247752238553744
 21
-24.781018086843812
 31
0.0
  0
LINE
  5
1A67D
  8
KI
  6
DASHED2
 62
     7
 10
62.320975337838611
 20
-22.3319412612565
 30
0.0
 11
64.137603930193436
 21
-24.781018086843812
 31
0.0
  0
LINE
  5
1A67E
  8
KI
  6
DASHED2
 62
     7
 10
57.880312114277658
 20
-22.331941265205518
 30
0.0
 11
59.69694070663251
 21
-24.781018090792848
 31
0.0
  0
LINE
  5
1A67F
  8
KI
  6
DASHED2
 62
     7
 10
56.77016380591737
 20
-22.331941265205518
 30
0.0
 11
58.586792398272671
 21
-24.781018090792848
 31
0.0
  0
LINE
  5
1A680
  8
KI
  6
DASHED2
 62
     7
 10
55.659980502496978
 20
-22.331941265205518
 30
0.0
 11
57.476609094851817
 21
-24.781018090792848
 31
0.0
  0
LINE
  5
1A681
  8
KI
  6
DASHED2
 62
     7
 10
54.549832194137153
 20
-22.331941265205518
 30
0.0
 11
56.366460786491977
 21
-24.781018090792848
 31
0.0
  0
LINE
  5
1A682
  8
KI
  6
DASHED2
 62
     7
 10
53.439683885776837
 20
-22.331941265205518
 30
0.0
 11
55.256312478131669
 21
-24.781018090792848
 31
0.0
  0
LINE
  5
1A683
  8
KI
  6
DASHED2
 62
     7
 10
52.329500582356431
 20
-22.331941265205518
 30
0.0
 11
54.146129174711277
 21
-24.781018090792848
 31
0.0
  0
LINE
  5
1A684
  8
KI
  6
DASHED2
 62
     7
 10
51.219352273996599
 20
-22.331941265205518
 30
0.0
 11
53.035980866350997
 21
-24.781018090792848
 31
0.0
  0
LINE
  5
1A685
  8
KI
  6
DASHED2
 62
     7
 10
50.109203965636311
 20
-22.331941265205518
 30
0.0
 11
51.92583255799115
 21
-24.781018090792848
 31
0.0
  0
LINE
  5
1A686
  8
KI
  6
DASHED2
 62
     7
 10
48.999020662215912
 20
-22.331941265205518
 30
0.0
 11
50.815649254570758
 21
-24.781018090792848
 31
0.0
  0
LINE
  5
1A687
  8
KI
  6
DASHED2
 62
     7
 10
47.888872353856058
 20
-22.331941265205518
 30
0.0
 11
49.705500946210456
 21
-24.781018090792848
 31
0.0
  0
LINE
  5
1A688
  8
KI
  6
DASHED2
 62
     7
 10
46.778689050435219
 20
-22.331941265205518
 30
0.0
 11
48.59531764279005
 21
-24.781018090792848
 31
0.0
  0
LINE
  5
1A689
  8
KI
  6
DASHED2
 62
     7
 10
45.66854074207491
 20
-22.331941265205518
 30
0.0
 11
47.485169334430211
 21
-24.781018090792848
 31
0.0
  0
LINE
  5
1A68A
  8
KI
  6
DASHED2
 62
     7
 10
44.558392433715063
 20
-22.331941265205518
 30
0.0
 11
46.37502102606993
 21
-24.781018090792848
 31
0.0
  0
LINE
  5
1A68B
  8
KI
  6
DASHED2
 62
     7
 10
43.448209130294678
 20
-22.331941265205518
 30
0.0
 11
45.264837722649517
 21
-24.781018090792848
 31
0.0
  0
LINE
  5
1A68C
  8
KI
  6
DASHED2
 62
     7
 10
42.338060821934391
 20
-22.331941265205511
 30
0.0
 11
44.154689414289678
 21
-24.781018090792848
 31
0.0
  0
LINE
  5
1A68D
  8
KI
  6
DASHED2
 62
     7
 10
81.62425078125068
 20
-22.44242067161408
 30
0.0
 11
43.509625461700011
 21
-22.44242067161408
 31
0.0
  0
LINE
  5
1A68E
  8
KI
  6
DASHED2
 62
     7
 10
43.509625461700011
 20
-22.44242067161408
 30
0.0
 11
34.921312657231162
 21
-23.487950600521021
 31
0.0
  0
LINE
  5
1A68F
  8
KI
  6
DASHED2
 62
     7
 10
43.509625461700011
 20
-24.542404269888848
 30
0.0
 11
34.921312657231162
 21
-23.496874340981911
 31
0.0
  0
LINE
  5
1A690
  8
KI
  6
DASHED2
 62
     7
 10
81.62425078125068
 20
-24.542404269888848
 30
0.0
 11
43.509625461700011
 21
-24.542404269888848
 31
0.0
  0
LINE
  5
1A691
  8
KI
  6
DASHED2
 62
     7
 10
61.210792034418198
 20
-22.331941265205518
 30
0.0
 11
63.027420626773043
 21
-24.781018090792848
 31
0.0
  0
LINE
  5
1A692
  8
KI
  6
DASHED2
 62
     7
 10
60.10064372605791
 20
-22.331941265205518
 30
0.0
 11
61.91727231841277
 21
-24.781018090792848
 31
0.0
  0
LINE
  5
1A693
  8
KI
  6
DASHED2
 62
     7
 10
58.990495417698071
 20
-22.331941265205518
 30
0.0
 11
60.807124010052917
 21
-24.781018090792848
 31
0.0
  0
LINE
  5
1A694
  8
KI
  6
DASHED2
 62
     7
 10
64.541306949619283
 20
-22.331941265205518
 30
0.0
 11
66.357900546913569
 21
-24.781018090792848
 31
0.0
  0
LINE
  5
1A695
  8
KI
  6
DASHED2
 62
     7
 10
63.431123646198451
 20
-22.331941265205518
 30
0.0
 11
65.247752238553744
 21
-24.781018090792848
 31
0.0
  0
LINE
  5
1A696
  8
KI
  6
DASHED2
 62
     7
 10
62.320975337838611
 20
-22.331941265205518
 30
0.0
 11
64.137603930193436
 21
-24.781018090792848
 31
0.0
  0
LINE
  5
1A697
  8
KI
  6
CENTER2
 62
     7
 10
87.979213811384753
 20
-23.492412470751461
 30
0.0
 11
29.50901157528267
 21
-23.492412470751461
 31
0.0
  0
LINE
  5
1A698
  8
SU
  6
CONTINUOUS
 62
     3
 10
-179.10667910659751
 20
-210.66293584505999
 30
0.0
 11
-134.6066789891438
 21
-210.66293584505999
 31
0.0
  0
LINE
  5
1A699
  8
SU
  6
CONTINUOUS
 62
     3
 10
-137.6066789891438
 20
-210.66293584505999
 30
0.0
 11
-137.6066789891438
 21
-218.66293584505999
 31
0.0
  0
LINE
  5
1A69A
  8
SU
  6
CONTINUOUS
 62
     3
 10
-147.606679102648
 20
-230.66293584505999
 30
0.0
 11
-119.60667898914519
 21
-230.66293584505999
 31
0.0
  0
LINE
  5
1A69B
  8
SU
  6
CONTINUOUS
 62
     3
 10
-122.60667898914519
 20
-218.66293584505999
 30
0.0
 11
-122.60667898914519
 21
-230.66293584505999
 31
0.0
  0
LINE
  5
1A69C
  8
SU
  6
CONTINUOUS
 62
     3
 10
-211.35667996085411
 20
-214.16293584505999
 30
0.0
 11
-213.27626527392221
 21
-215.63588546150521
 31
0.0
  0
LINE
  5
1A69D
  8
SU
  6
CONTINUOUS
 62
     3
 10
-211.35667996085411
 20
-214.16293584505999
 30
0.0
 11
-212.83003380744799
 21
-216.0830479611142
 31
0.0
  0
ARC
  5
1A69E
  8
KI
  6
CONTINUOUS
 62
     7
 10
-189.8034258996957
 20
-217.71477190870351
 30
0.0
 40
0.9481639363564127
 50
176.8660808498669
 51
3.133919150132968
  0
LINE
  5
1A69F
  8
KI
  6
CONTINUOUS
 62
     7
 10
-209.35667996085411
 20
-212.66293584505999
 30
0.0
 11
-209.35667996085411
 21
-217.66293584505999
 31
0.0
  0
LINE
  5
1A6A0
  8
KI
  6
CONTINUOUS
 62
     7
 10
-190.75017183853669
 20
-212.66293584505999
 30
0.0
 11
-190.75017183853669
 21
-217.66293584505999
 31
0.0
  0
LINE
  5
1A6A1
  8
KI
  6
CONTINUOUS
 62
     7
 10
-188.85667996085411
 20
-210.66293584505999
 30
0.0
 11
-188.85667996085411
 21
-217.66293584505999
 31
0.0
  0
LINE
  5
1A6A2
  8
KI
  6
CONTINUOUS
 62
     7
 10
-211.35667996085411
 20
-210.66293584505999
 30
0.0
 11
-211.35667996085411
 21
-217.66293584505999
 31
0.0
  0
ARC
  5
1A6A3
  8
KI
  6
CONTINUOUS
 62
     7
 10
-210.356679960854
 20
-217.66293584505999
 30
0.0
 40
1.0
 50
180.0
 51
0.0
  0
LINE
  5
1A6A4
  8
KI
  6
CONTINUOUS
 62
     7
 10
-211.35667996085411
 20
-210.66293584505999
 30
0.0
 11
-188.85667996085411
 21
-210.66293584505999
 31
0.0
  0
LINE
  5
1A6A5
  8
KI
  6
CONTINUOUS
 62
     7
 10
-190.75017183853669
 20
-212.66293584505999
 30
0.0
 11
-209.35667996085411
 21
-212.66293584505999
 31
0.0
  0
LINE
  5
1A6A6
  8
SU
  6
CONTINUOUS
 62
     3
 10
-128.60667898914511
 20
-208.66293584505971
 30
0.0
 11
-122.60667898914519
 21
-218.66293584505971
 31
0.0
  0
LINE
  5
1A6A7
  8
SU
  6
CONTINUOUS
 62
     3
 10
-116.60667898914519
 20
-208.66293584505971
 30
0.0
 11
-122.60667898914519
 21
-218.66293584505971
 31
0.0
  0
LINE
  5
1A6A8
  8
SU
  6
CONTINUOUS
 62
     3
 10
-128.60667898914511
 20
-208.66293584505971
 30
0.0
 11
-116.60667898914519
 21
-208.66293584505971
 31
0.0
  0
LINE
  5
1A6A9
  8
SU
  6
CONTINUOUS
 62
     3
 10
-179.106679102648
 20
-210.66293584505999
 30
0.0
 11
-134.6066789891438
 21
-210.66293584505999
 31
0.0
  0
LINE
  5
1A6AA
  8
SU
  6
CONTINUOUS
 62
     3
 10
-137.6066789891438
 20
-120.0148734886547
 30
0.0
 11
-137.6066789891438
 21
-210.66293584505999
 31
0.0
  0
LINE
  5
1A6AB
  8
SU
  6
CONTINUOUS
 62
     3
 10
-147.60667853044339
 20
-218.66293584505999
 30
0.0
 11
-119.60667898914519
 21
-218.66293584505999
 31
0.0
  0
LINE
  5
1A6AC
  8
SU
  6
CONTINUOUS
 62
     3
 10
-122.60667898914519
 20
-120.0148734886547
 30
0.0
 11
-122.60667898914519
 21
-218.66293584505999
 31
0.0
  0
TEXT
  5
1A6AD
  8
SU
  6
CONTINUOUS
 62
     3
 10
-294.7768770483778
 20
-241.590730334282
 30
0.0
 40
4.0
  1
ボトムタイトナー（三方枠用）
 41
0.8299999999999999
  0
TEXT
  5
1A6AE
  8
SU
  6
CONTINUOUS
 62
     3
 10
-279.86849609599682
 20
-248.25739700094849
 30
0.0
 40
4.0
  1
〔オプション〕
 41
0.8299999999999999
  0
LINE
  5
1A6AF
  8
SU
  6
CONTINUOUS
 62
     3
 10
-180.106679102648
 20
86.160642570500514
 30
0.0
 11
-175.606679102648
 21
86.160642570500514
 31
0.0
  0
LINE
  5
1A6B0
  8
SU
  6
CONTINUOUS
 62
     3
 10
-175.606679102648
 20
86.160642570500514
 30
0.0
 11
-163.6504886264575
 21
86.160642570500514
 31
0.0
  0
LINE
  5
1A6B1
  8
SU
  6
CONTINUOUS
 62
     3
 10
-220.10668081511031
 20
123.66061004983671
 30
0.0
 11
-220.10668081511031
 21
83.160642570500656
 31
0.0
  0
LINE
  5
1A6B2
  8
SU
  6
CONTINUOUS
 62
     3
 10
-231.1066808153621
 20
106.66061004983661
 30
0.0
 11
-231.1066808153621
 21
83.160642570500656
 31
0.0
  0
LINE
  5
1A6B3
  8
SU
  6
CONTINUOUS
 62
     3
 10
-220.10668081511031
 20
86.160642570500656
 30
0.0
 11
-231.1066808153621
 21
86.160642570500656
 31
0.0
  0
LINE
  5
1A6B4
  8
KI
  6
DASHED2
 62
     7
 10
-242.05668777482441
 20
107.6605750547759
 30
0.0
 11
-240.55795431323079
 21
105.66057234472051
 31
0.0
  0
LINE
  5
1A6B5
  8
KI
  6
DASHED2
 62
     7
 10
-244.1566713730991
 20
107.6605750547759
 30
0.0
 11
-245.65540483469269
 21
105.66057234472051
 31
0.0
  0
LINE
  5
1A6B6
  8
KI
  6
DASHED2
 62
     7
 10
-244.26715078345671
 20
131.40451372174891
 30
0.0
 11
-241.8180739578695
 21
129.58788512939421
 31
0.0
  0
LINE
  5
1A6B7
  8
KI
  6
DASHED2
 62
     7
 10
-244.26715078345671
 20
132.51466203010921
 30
0.0
 11
-241.8180739578695
 21
130.69803343775391
 31
0.0
  0
LINE
  5
1A6B8
  8
KI
  6
DASHED2
 62
     7
 10
-244.26715078345671
 20
133.62484533352941
 30
0.0
 11
-241.8180739578695
 21
131.8082167411749
 31
0.0
  0
LINE
  5
1A6B9
  8
KI
  6
DASHED2
 62
     7
 10
-244.26715078345671
 20
134.7349936418895
 30
0.0
 11
-241.8180739578695
 21
132.91836504953471
 31
0.0
  0
LINE
  5
1A6BA
  8
KI
  6
DASHED2
 62
     7
 10
-244.26715078345671
 20
135.84514195024971
 30
0.0
 11
-241.8180739578695
 21
134.02851335789481
 31
0.0
  0
LINE
  5
1A6BB
  8
KI
  6
DASHED2
 62
     7
 10
-244.26715078345671
 20
136.9553252536702
 30
0.0
 11
-241.8180739578695
 21
135.13869666131541
 31
0.0
  0
LINE
  5
1A6BC
  8
KI
  6
DASHED2
 62
     7
 10
-244.26715078345671
 20
138.06547356202981
 30
0.0
 11
-241.8180739578695
 21
136.2488449696757
 31
0.0
  0
LINE
  5
1A6BD
  8
KI
  6
DASHED2
 62
     7
 10
-244.26715078345671
 20
139.17562187039039
 30
0.0
 11
-241.8180739578695
 21
137.35899327803551
 31
0.0
  0
LINE
  5
1A6BE
  8
KI
  6
DASHED2
 62
     7
 10
-244.26715078345671
 20
140.28580517381079
 30
0.0
 11
-241.8180739578695
 21
138.46917658145591
 31
0.0
  0
LINE
  5
1A6BF
  8
KI
  6
DASHED2
 62
     7
 10
-244.26715078345671
 20
141.3959534821706
 30
0.0
 11
-241.8180739578695
 21
139.57932488981621
 31
0.0
  0
LINE
  5
1A6C0
  8
KI
  6
DASHED2
 62
     7
 10
-244.26715078345671
 20
142.50613678559151
 30
0.0
 11
-241.8180739578695
 21
140.68950819323661
 31
0.0
  0
LINE
  5
1A6C1
  8
KI
  6
DASHED2
 62
     7
 10
-244.26715078345671
 20
128.07403380160841
 30
0.0
 11
-241.8180739578695
 21
126.25740520925351
 31
0.0
  0
LINE
  5
1A6C2
  8
KI
  6
DASHED2
 62
     7
 10
-244.26715078345671
 20
129.1841821099687
 30
0.0
 11
-241.8180739578695
 21
127.3675535176135
 31
0.0
  0
LINE
  5
1A6C3
  8
KI
  6
DASHED2
 62
     7
 10
-244.26715078345671
 20
130.2943304183286
 30
0.0
 11
-241.8180739578695
 21
128.47770182597381
 31
0.0
  0
LINE
  5
1A6C4
  8
KI
  6
DASHED2
 62
     7
 10
-244.26715078345671
 20
124.7435188864074
 30
0.0
 11
-241.8180739578695
 21
122.9269252891131
 31
0.0
  0
LINE
  5
1A6C5
  8
KI
  6
DASHED2
 62
     7
 10
-244.26715078345671
 20
125.8537021898282
 30
0.0
 11
-241.8180739578695
 21
124.0370735974729
 31
0.0
  0
LINE
  5
1A6C6
  8
KI
  6
DASHED2
 62
     7
 10
-244.26715078345671
 20
126.9638504981879
 30
0.0
 11
-241.8180739578695
 21
125.14722190583321
 31
0.0
  0
LINE
  5
1A6C7
  8
KI
  6
DASHED2
 62
     7
 10
-244.2671507795078
 20
131.40451372174891
 30
0.0
 11
-241.81807395392039
 21
129.58788512939421
 31
0.0
  0
LINE
  5
1A6C8
  8
KI
  6
DASHED2
 62
     7
 10
-244.2671507795078
 20
132.51466203010921
 30
0.0
 11
-241.81807395392039
 21
130.69803343775391
 31
0.0
  0
LINE
  5
1A6C9
  8
KI
  6
DASHED2
 62
     7
 10
-244.2671507795078
 20
133.62484533352941
 30
0.0
 11
-241.81807395392039
 21
131.8082167411749
 31
0.0
  0
LINE
  5
1A6CA
  8
KI
  6
DASHED2
 62
     7
 10
-244.2671507795078
 20
134.7349936418895
 30
0.0
 11
-241.81807395392039
 21
132.91836504953471
 31
0.0
  0
LINE
  5
1A6CB
  8
KI
  6
DASHED2
 62
     7
 10
-244.2671507795078
 20
135.84514195024971
 30
0.0
 11
-241.81807395392039
 21
134.02851335789481
 31
0.0
  0
LINE
  5
1A6CC
  8
KI
  6
DASHED2
 62
     7
 10
-244.2671507795078
 20
136.9553252536702
 30
0.0
 11
-241.81807395392039
 21
135.13869666131541
 31
0.0
  0
LINE
  5
1A6CD
  8
KI
  6
DASHED2
 62
     7
 10
-244.2671507795078
 20
138.06547356202981
 30
0.0
 11
-241.81807395392039
 21
136.2488449696757
 31
0.0
  0
LINE
  5
1A6CE
  8
KI
  6
DASHED2
 62
     7
 10
-244.2671507795078
 20
139.17562187039039
 30
0.0
 11
-241.81807395392039
 21
137.35899327803551
 31
0.0
  0
LINE
  5
1A6CF
  8
KI
  6
DASHED2
 62
     7
 10
-244.2671507795078
 20
140.28580517381079
 30
0.0
 11
-241.81807395392039
 21
138.46917658145591
 31
0.0
  0
LINE
  5
1A6D0
  8
KI
  6
DASHED2
 62
     7
 10
-244.2671507795078
 20
141.3959534821706
 30
0.0
 11
-241.81807395392039
 21
139.57932488981621
 31
0.0
  0
LINE
  5
1A6D1
  8
KI
  6
DASHED2
 62
     7
 10
-244.2671507795078
 20
142.50613678559151
 30
0.0
 11
-241.81807395392039
 21
140.68950819323661
 31
0.0
  0
LINE
  5
1A6D2
  8
KI
  6
DASHED2
 62
     7
 10
-244.2671507795078
 20
143.6162850939518
 30
0.0
 11
-241.81807395392039
 21
141.79965650159639
 31
0.0
  0
LINE
  5
1A6D3
  8
KI
  6
DASHED2
 62
     7
 10
-244.2671507795078
 20
144.7264334023115
 30
0.0
 11
-241.81807395392039
 21
142.9098048099568
 31
0.0
  0
LINE
  5
1A6D4
  8
KI
  6
DASHED2
 62
     7
 10
-244.2671507795078
 20
145.83661670573201
 30
0.0
 11
-241.81807395392039
 21
144.01998811337711
 31
0.0
  0
LINE
  5
1A6D5
  8
KI
  6
DASHED2
 62
     7
 10
-244.2671507795078
 20
146.94676501409231
 30
0.0
 11
-241.81807395392039
 21
145.13013642173681
 31
0.0
  0
LINE
  5
1A6D6
  8
KI
  6
DASHED2
 62
     7
 10
-244.1566713730991
 20
107.6605750547759
 30
0.0
 11
-244.1566713730991
 21
145.77520037432669
 31
0.0
  0
LINE
  5
1A6D7
  8
KI
  6
DASHED2
 62
     7
 10
-244.1566713730991
 20
145.77520037432669
 30
0.0
 11
-243.1111414441923
 21
154.3635131787955
 31
0.0
  0
LINE
  5
1A6D8
  8
KI
  6
DASHED2
 62
     7
 10
-242.05668777482441
 20
145.77520037432669
 30
0.0
 11
-243.10221770373141
 21
154.3635131787955
 31
0.0
  0
LINE
  5
1A6D9
  8
KI
  6
DASHED2
 62
     7
 10
-242.05668777482441
 20
107.6605750547759
 30
0.0
 11
-242.05668777482441
 21
145.77520037432669
 31
0.0
  0
LINE
  5
1A6DA
  8
KI
  6
DASHED2
 62
     7
 10
-244.2671507795078
 20
128.07403380160841
 30
0.0
 11
-241.81807395392039
 21
126.25740520925351
 31
0.0
  0
LINE
  5
1A6DB
  8
KI
  6
DASHED2
 62
     7
 10
-244.2671507795078
 20
129.1841821099687
 30
0.0
 11
-241.81807395392039
 21
127.3675535176139
 31
0.0
  0
LINE
  5
1A6DC
  8
KI
  6
DASHED2
 62
     7
 10
-244.2671507795078
 20
130.2943304183286
 30
0.0
 11
-241.81807395392039
 21
128.47770182597381
 31
0.0
  0
LINE
  5
1A6DD
  8
KI
  6
DASHED2
 62
     7
 10
-244.2671507795078
 20
124.7435188864074
 30
0.0
 11
-241.81807395392039
 21
122.9269252891131
 31
0.0
  0
LINE
  5
1A6DE
  8
KI
  6
DASHED2
 62
     7
 10
-244.2671507795078
 20
125.8537021898282
 30
0.0
 11
-241.81807395392039
 21
124.0370735974729
 31
0.0
  0
LINE
  5
1A6DF
  8
KI
  6
DASHED2
 62
     7
 10
-244.2671507795078
 20
126.9638504981879
 30
0.0
 11
-241.81807395392039
 21
125.14722190583321
 31
0.0
  0
LINE
  5
1A6E0
  8
KI
  6
CENTER2
 62
     7
 10
-243.1066795739618
 20
101.3056120246419
 30
0.0
 11
-243.1066795739618
 21
159.775814260744
 31
0.0
  0
LINE
  5
1A6E1
  8
SU
  6
CONTINUOUS
 62
     3
 10
-180.10667910659751
 20
123.66061004983651
 30
0.0
 11
-180.10667910659751
 21
83.160642570500514
 31
0.0
  0
LINE
  5
1A6E2
  8
SU
  6
CONTINUOUS
 62
     3
 10
-220.10668081511031
 20
123.66061004983671
 30
0.0
 11
-220.10668081511031
 21
83.160642570500514
 31
0.0
  0
LINE
  5
1A6E3
  8
SU
  6
CONTINUOUS
 62
     3
 10
-180.10667910659751
 20
86.160642570500514
 30
0.0
 11
-220.10668081511031
 21
86.160642570500514
 31
0.0
  0
LINE
  5
1A6E4
  8
SU
  6
CONTINUOUS
 62
     3
 10
-175.606679102648
 20
71.160642570500428
 30
0.0
 11
-172.606679102648
 21
71.160642570500428
 31
0.0
  0
LINE
  5
1A6E5
  8
SU
  6
CONTINUOUS
 62
     3
 10
-172.606679102648
 20
71.160642570500428
 30
0.0
 11
-165.39334576931461
 21
71.160642570500428
 31
0.0
  0
LINE
  5
1A6E6
  8
SU
  6
CONTINUOUS
 62
     3
 10
-337.6066791026492
 20
127.66064257049879
 30
0.0
 11
-362.606679102648
 21
127.66064257049879
 31
0.0
  0
LINE
  5
1A6E7
  8
SU
  6
CONTINUOUS
 62
     3
 10
-256.10667834096353
 20
107.66061004983661
 30
0.0
 11
-362.606679102648
 21
107.66061004983661
 31
0.0
  0
LINE
  5
1A6E8
  8
SU
  6
CONTINUOUS
 62
     3
 10
-359.606679102648
 20
127.66064257049879
 30
0.0
 11
-359.606679102648
 21
107.66061004983661
 31
0.0
  0
LINE
  5
1A6E9
  8
SU
  6
CONTINUOUS
 62
     3
 10
-255.10667834071251
 20
106.66061004983661
 30
0.0
 11
-255.10667834071251
 21
83.160642570500698
 31
0.0
  0
LINE
  5
1A6EA
  8
SU
  6
CONTINUOUS
 62
     3
 10
-336.60667910264903
 20
126.66064257049879
 30
0.0
 11
-336.60667910264903
 21
83.160642570500698
 31
0.0
  0
LINE
  5
1A6EB
  8
SU
  6
CONTINUOUS
 62
     3
 10
-255.10667834071251
 20
86.160642570500684
 30
0.0
 11
-336.60667910264903
 21
86.160642570500684
 31
0.0
  0
LINE
  5
1A6EC
  8
SU
  6
CONTINUOUS
 62
     3
 10
-336.60667910264903
 20
71.160642570500187
 30
0.0
 11
-339.60667910264692
 21
71.160642570500187
 31
0.0
  0
LINE
  5
1A6ED
  8
SU
  6
CONTINUOUS
 62
     3
 10
-339.60667910264692
 20
71.160642570500187
 30
0.0
 11
-346.82001243598052
 21
71.160642570500187
 31
0.0
  0
LINE
  5
1A6EE
  8
SU
  6
CONTINUOUS
 62
     3
 10
-231.1066808153621
 20
106.66061004983661
 30
0.0
 11
-231.1066808153621
 21
83.160642570500784
 31
0.0
  0
LINE
  5
1A6EF
  8
SU
  6
CONTINUOUS
 62
     3
 10
-255.1066783409635
 20
106.66061004983671
 30
0.0
 11
-255.1066783409635
 21
83.160642570500784
 31
0.0
  0
LINE
  5
1A6F0
  8
SU
  6
CONTINUOUS
 62
     3
 10
-231.1066808153621
 20
86.160642570500798
 30
0.0
 11
-255.1066783409635
 21
86.160642570500798
 31
0.0
  0
LINE
  5
1A6F1
  8
KI
  6
CONTINUOUS
 62
     7
 10
-249.10667834071239
 20
132.16061004983661
 30
0.0
 11
-237.10668081511011
 21
132.16061004983661
 31
0.0
  0
LINE
  5
1A6F2
  8
KI
  6
CONTINUOUS
 62
     7
 10
-237.10668081511011
 20
132.16061004983661
 30
0.0
 11
-237.10668081511011
 21
127.66061004983651
 31
0.0
  0
LINE
  5
1A6F3
  8
KI
  6
CONTINUOUS
 62
     7
 10
-237.10668081511051
 20
127.66061004983651
 30
0.0
 11
-231.10668081511039
 21
127.66061004983651
 31
0.0
  0
LINE
  5
1A6F4
  8
KI
  6
CONTINUOUS
 62
     7
 10
-249.10667834071239
 20
132.16061004983661
 30
0.0
 11
-249.10667834071239
 21
127.66061004983651
 31
0.0
  0
LINE
  5
1A6F5
  8
KI
  6
CONTINUOUS
 62
     7
 10
-255.10667834071251
 20
127.66061004983651
 30
0.0
 11
-249.10667834071239
 21
127.66061004983651
 31
0.0
  0
LINE
  5
1A6F6
  8
KI
  6
CONTINUOUS
 62
     7
 10
-255.10667834071251
 20
127.66061004983651
 30
0.0
 11
-255.10667834071251
 21
107.66061004983661
 31
0.0
  0
LINE
  5
1A6F7
  8
KI
  6
CONTINUOUS
 62
     7
 10
-255.10667834071251
 20
107.66061004983661
 30
0.0
 11
-231.10668081511039
 21
107.66061004983661
 31
0.0
  0
LINE
  5
1A6F8
  8
KI
  6
CONTINUOUS
 62
     7
 10
-231.10668081511039
 20
127.66061004983651
 30
0.0
 11
-231.10668081511039
 21
107.66061004983661
 31
0.0
  0
LINE
  5
1A6F9
  8
KI
  6
CONTINUOUS
 62
     7
 10
-230.6066748151099
 20
107.6605750547759
 30
0.0
 11
-228.38058208388119
 21
107.66057505477551
 31
0.0
  0
ARC
  5
1A6FA
  8
KI
  6
CONTINUOUS
 62
     7
 10
-221.09865176545441
 20
119.22145094492591
 30
0.0
 40
9.2190722294335075
 50
125.6258681755171
 51
177.1953126595514
  0
LINE
  5
1A6FB
  8
KI
  6
CONTINUOUS
 62
     7
 10
-231.10668081511079
 20
109.827579780178
 30
0.0
 11
-230.93967608970721
 21
109.6605750547742
 31
0.0
  0
LINE
  5
1A6FC
  8
KI
  6
CONTINUOUS
 62
     7
 10
-230.90668081511001
 20
110.5256053922833
 30
0.0
 11
-230.30667481511
 21
109.9255993922843
 31
0.0
  0
LINE
  5
1A6FD
  8
KI
  6
CONTINUOUS
 62
     7
 10
-231.10668081511039
 20
110.72560539228471
 30
0.0
 11
-230.90668081511001
 21
110.52560539228379
 31
0.0
  0
LINE
  5
1A6FE
  8
KI
  6
CONTINUOUS
 62
     7
 10
-230.90668081511001
 20
111.423631004391
 30
0.0
 11
-230.30667481511
 21
110.823625004391
 31
0.0
  0
LINE
  5
1A6FF
  8
KI
  6
CONTINUOUS
 62
     7
 10
-231.10668081511079
 20
111.6236310043914
 30
0.0
 11
-230.90668081511001
 21
111.423631004391
 31
0.0
  0
LINE
  5
1A700
  8
KI
  6
CONTINUOUS
 62
     7
 10
-230.90668081511001
 20
112.3216566164979
 30
0.0
 11
-230.30667481511
 21
111.7216506164977
 31
0.0
  0
LINE
  5
1A701
  8
KI
  6
CONTINUOUS
 62
     7
 10
-231.10668081511079
 20
112.52165661649811
 30
0.0
 11
-230.90668081511001
 21
112.3216566164979
 31
0.0
  0
LINE
  5
1A702
  8
KI
  6
CONTINUOUS
 62
     7
 10
-230.90668081511001
 20
113.219682228605
 30
0.0
 11
-230.3066748151106
 21
112.6196762286045
 31
0.0
  0
LINE
  5
1A703
  8
KI
  6
CONTINUOUS
 62
     7
 10
-231.10668081511079
 20
113.4196822286053
 30
0.0
 11
-230.90668081511001
 21
113.219682228605
 31
0.0
  0
LINE
  5
1A704
  8
KI
  6
CONTINUOUS
 62
     7
 10
-230.90668081510941
 20
114.1177078407118
 30
0.0
 11
-230.3066748151096
 21
113.51770184071211
 31
0.0
  0
LINE
  5
1A705
  8
KI
  6
CONTINUOUS
 62
     7
 10
-231.10668081511
 20
114.3177078407125
 30
0.0
 11
-230.90668081510981
 21
114.1177078407118
 31
0.0
  0
LINE
  5
1A706
  8
KI
  6
CONTINUOUS
 62
     7
 10
-230.90668081510941
 20
115.01573345281849
 30
0.0
 11
-230.55152241706639
 21
114.66057505477499
 31
0.0
  0
LINE
  5
1A707
  8
KI
  6
CONTINUOUS
 62
     7
 10
-230.55152241706639
 20
114.66057505477499
 30
0.0
 11
-230.32731028139111
 21
114.43636291910011
 31
0.0
  0
LINE
  5
1A708
  8
KI
  6
CONTINUOUS
 62
     7
 10
-231.1066808151096
 20
115.2157334528187
 30
0.0
 11
-230.90668081510981
 21
115.01573345281849
 31
0.0
  0
LINE
  5
1A709
  8
KI
  6
CONTINUOUS
 62
     7
 10
-230.90668081510981
 20
115.9137590649256
 30
0.0
 11
-230.30668081511041
 21
115.3137590649267
 31
0.0
  0
LINE
  5
1A70A
  8
KI
  6
CONTINUOUS
 62
     7
 10
-231.1066808151096
 20
116.1137590649255
 30
0.0
 11
-230.90668081510981
 21
115.9137590649256
 31
0.0
  0
LINE
  5
1A70B
  8
KI
  6
CONTINUOUS
 62
     7
 10
-230.90668081510981
 20
116.8117846770327
 30
0.0
 11
-230.30668081511001
 21
116.2117846770325
 31
0.0
  0
LINE
  5
1A70C
  8
KI
  6
CONTINUOUS
 62
     7
 10
-231.10668081511
 20
117.01178467703249
 30
0.0
 11
-230.90668081510981
 21
116.8117846770327
 31
0.0
  0
LINE
  5
1A70D
  8
KI
  6
CONTINUOUS
 62
     7
 10
-230.85744558074589
 20
117.66057505477499
 30
0.0
 11
-230.30668081511001
 21
117.10981028913911
 31
0.0
  0
LINE
  5
1A70E
  8
KI
  6
CONTINUOUS
 62
     7
 10
-231.10668081511
 20
117.66057505477499
 30
0.0
 11
-230.30668081511001
 21
117.66057505477499
 31
0.0
  0
LINE
  5
1A70F
  8
KI
  6
CONTINUOUS
 62
     7
 10
-231.10668081511039
 20
109.660575054776
 30
0.0
 11
-230.3066748151096
 21
109.66057505477499
 31
0.0
  0
LINE
  5
1A710
  8
KI
  6
CONTINUOUS
 62
     7
 10
-230.3066808151093
 20
118.67255380704501
 30
0.0
 11
-230.30668081511001
 21
114.91058505477579
 31
0.0
  0
LINE
  5
1A711
  8
KI
  6
CONTINUOUS
 62
     7
 10
-230.50668081510989
 20
114.6605850547752
 30
0.0
 11
-230.30668081511001
 21
114.41057505477551
 31
0.0
  0
LINE
  5
1A712
  8
KI
  6
CONTINUOUS
 62
     7
 10
-230.5066748151105
 20
114.6605850547752
 30
0.0
 11
-230.30668081511001
 21
114.91058505477579
 31
0.0
  0
LINE
  5
1A713
  8
KI
  6
CONTINUOUS
 62
     7
 10
-230.3066748151096
 20
114.4105850547753
 30
0.0
 11
-230.3066748151096
 21
108.6605750547759
 31
0.0
  0
ARC
  5
1A714
  8
KI
  6
CONTINUOUS
 62
     7
 10
-230.60668081511
 20
119.37255380704519
 30
0.0
 40
0.3
 50
89.999999999913726
 51
179.99999999965141
  0
LINE
  5
1A715
  8
KI
  6
CONTINUOUS
 62
     7
 10
-230.30668081511001
 20
119.67255380704501
 30
0.0
 11
-230.60668081511
 21
119.6725538070454
 31
0.0
  0
ARC
  5
1A716
  8
KI
  6
CONTINUOUS
 62
     7
 10
-230.6066808151129
 20
118.972553807046
 30
0.0
 40
0.3
 50
179.99999999965141
 51
269.99999999991348
  0
LINE
  5
1A717
  8
KI
  6
CONTINUOUS
 62
     7
 10
-230.90668081511001
 20
119.37255380704519
 30
0.0
 11
-230.9066808151124
 21
118.972553807046
 31
0.0
  0
ARC
  5
1A718
  8
KI
  6
CONTINUOUS
 62
     7
 10
-230.6066808151129
 20
108.3605750547755
 30
0.0
 40
0.3
 50
89.999999999913726
 51
179.99999999965141
  0
ARC
  5
1A719
  8
KI
  6
CONTINUOUS
 62
     7
 10
-230.60668081511449
 20
107.9605750547762
 30
0.0
 40
0.3
 50
179.99999999965141
 51
269.99999999991348
  0
LINE
  5
1A71A
  8
KI
  6
CONTINUOUS
 62
     7
 10
-230.9066808151118
 20
108.3605750547755
 30
0.0
 11
-230.9066808151149
 21
107.9605750547762
 31
0.0
  0
LINE
  5
1A71B
  8
KI
  6
CONTINUOUS
 62
     7
 10
-230.3066748151096
 20
108.6605750547759
 30
0.0
 11
-230.6066808151129
 21
108.6605750547759
 31
0.0
  0
LINE
  5
1A71C
  8
KI
  6
CONTINUOUS
 62
     7
 10
-230.6066808151129
 20
118.6725538070454
 30
0.0
 11
-230.3066808151093
 21
118.67255380704501
 31
0.0
  0
LINE
  5
1A71D
  8
KI
  6
CONTINUOUS
 62
     7
 10
-231.10668081511
 20
117.66057505477499
 30
0.0
 11
-231.10668081511039
 21
109.660575054776
 31
0.0
  0
ARC
  5
1A71E
  8
KI
  6
CONTINUOUS
 62
     7
 10
-223.11328196571071
 20
109.10141699786151
 30
0.0
 40
0.5
 50
149.29692340093499
 51
243.98093263770789
  0
ARC
  5
1A71F
  8
KI
  6
CONTINUOUS
 62
     7
 10
-226.52451768946111
 20
102.1132506532244
 30
0.0
 40
7.2763100519022599
 50
28.113232766358639
 51
63.980932637708079
  0
ARC
  5
1A720
  8
KI
  6
CONTINUOUS
 62
     7
 10
-244.6274642802384
 20
121.8771662247253
 30
0.0
 40
24.521586859558742
 50
329.29692340093601
 51
3.711186353431466
  0
ARC
  5
1A721
  8
KI
  6
CONTINUOUS
 62
     7
 10
-226.52451768946111
 20
102.1132506532244
 30
0.0
 40
5.776310051902259
 50
28.113232766358639
 51
73.813171799604191
  0
LINE
  5
1A722
  8
KI
  6
CONTINUOUS
 62
     7
 10
-228.38058208388119
 20
107.6605750547745
 30
0.0
 11
-224.91425379815311
 21
107.6605750547765
 31
0.0
  0
ARC
  5
1A723
  8
KI
  6
CONTINUOUS
 62
     7
 10
-244.6274642802384
 20
121.8771662247253
 30
0.0
 40
23.321944298558741
 50
328.41089939395619
 51
3.711186353431466
  0
LINE
  5
1A724
  8
KI
  6
CONTINUOUS
 62
     7
 10
-227.8067113837935
 20
109.66057505477499
 30
0.0
 11
-224.7612118391919
 21
109.66057505477499
 31
0.0
  0
LINE
  5
1A725
  8
KI
  6
CONTINUOUS
 62
     7
 10
-227.49102238225461
 20
123.2172934610962
 30
0.0
 11
-227.4910226233564
 21
123.2172932646689
 31
0.0
  0
LINE
  5
1A726
  8
KI
  6
CONTINUOUS
 62
     7
 10
-228.3067113837935
 20
120.1723981208347
 30
0.0
 11
-228.3067113837935
 21
110.16057505477499
 31
0.0
  0
ARC
  5
1A727
  8
KI
  6
CONTINUOUS
 62
     7
 10
-227.8067113837935
 20
110.16057505477499
 30
0.0
 40
0.5
 50
180.0
 51
270.00000000000159
  0
ARC
  5
1A728
  8
KI
  6
CONTINUOUS
 62
     7
 10
-225.1892189447268
 20
127.16425214936
 30
0.0
 40
0.3
 50
12.850904373123271
 51
196.2830629427705
  0
ARC
  5
1A729
  8
KI
  6
CONTINUOUS
 62
     7
 10
-226.30467029588519
 20
125.803421410867
 30
0.0
 40
0.5
 50
294.55739357396061
 51
310.67258802736131
  0
ARC
  5
1A72A
  8
KI
  6
CONTINUOUS
 62
     7
 10
-222.52267593891361
 20
117.5265581493434
 30
0.0
 40
10.0
 50
107.18458009630901
 51
109.803175794162
  0
ARC
  5
1A72B
  8
KI
  6
CONTINUOUS
 62
     7
 10
-226.1912789345422
 20
126.8293186031264
 30
0.0
 40
0.3
 50
20.662644719016761
 51
202.3867008755924
  0
ARC
  5
1A72C
  8
KI
  6
CONTINUOUS
 62
     7
 10
-224.1539427643163
 20
123.300548844204
 30
0.0
 40
4.0
 50
2.3473418358611311
 51
25.701808746255011
  0
ARC
  5
1A72D
  8
KI
  6
CONTINUOUS
 62
     7
 10
-222.5226689011358
 20
117.5265581493337
 30
0.0
 40
8.7999999999999972
 50
105.7760377473512
 51
105.8019134698674
  0
ARC
  5
1A72E
  8
KI
  6
CONTINUOUS
 62
     7
 10
-220.68984114917839
 20
125.30054884420311
 30
0.0
 40
0.3
 50
297.8509043731388
 51
122.14909562682701
  0
ARC
  5
1A72F
  8
KI
  6
CONTINUOUS
 62
     7
 10
-224.1539427643163
 20
123.300548844204
 30
0.0
 40
4.0
 50
34.29819125370711
 51
40.701808746296827
  0
ARC
  5
1A730
  8
KI
  6
CONTINUOUS
 62
     7
 10
-221.32551563957131
 20
126.1289759689512
 30
0.0
 40
0.3
 50
312.8509043731467
 51
137.1490956268762
  0
ARC
  5
1A731
  8
KI
  6
CONTINUOUS
 62
     7
 10
-224.15394276431439
 20
127.300548844204
 30
0.0
 40
0.3
 50
357.85090437314102
 51
182.14909562678051
  0
ARC
  5
1A732
  8
KI
  6
CONTINUOUS
 62
     7
 10
-223.1186665839038
 20
127.1642521493594
 30
0.0
 40
0.3
 50
342.85090437306962
 51
167.14909562682331
  0
ARC
  5
1A733
  8
KI
  6
CONTINUOUS
 62
     7
 10
-224.1539427643163
 20
123.300548844204
 30
0.0
 40
4.0
 50
64.298191253737713
 51
70.701808746227059
  0
ARC
  5
1A734
  8
KI
  6
CONTINUOUS
 62
     7
 10
-222.15394276431709
 20
126.76465045934211
 30
0.0
 40
0.3
 50
327.85090437311919
 51
152.14909562688661
  0
ARC
  5
1A735
  8
KI
  6
CONTINUOUS
 62
     7
 10
-224.1539427643163
 20
123.300548844204
 30
0.0
 40
4.0
 50
49.298191253756329
 51
55.70180874627755
  0
ARC
  5
1A736
  8
KI
  6
CONTINUOUS
 62
     7
 10
-224.1539427643163
 20
123.300548844204
 30
0.0
 40
4.0
 50
94.298191253699784
 51
100.7018087462819
  0
ARC
  5
1A737
  8
KI
  6
CONTINUOUS
 62
     7
 10
-224.1539427643163
 20
123.3005488442268
 30
0.0
 40
4.0
 50
79.298191253680031
 51
85.701808746241468
  0
ARC
  5
1A738
  8
KI
  6
CONTINUOUS
 62
     7
 10
-224.1539427643163
 20
123.300548844204
 30
0.0
 40
2.799999999999998
 50
2.3473418358611311
 51
130.67258802735509
  0
ARC
  5
1A739
  8
KI
  6
CONTINUOUS
 62
     7
 10
-221.0577883021285
 20
120.13752815861559
 30
0.0
 40
7.2490069497939373
 50
134.03842973471851
 51
179.72438854235031
  0
ARC
  5
1A73A
  8
KI
  6
CONTINUOUS
 62
     7
 10
-220.81774358469829
 20
105.281295655569
 30
0.0
 40
0.7573354118943643
 50
216.09422551477309
 51
20.132240017949432
  0
ARC
  5
1A73B
  8
KI
  6
CONTINUOUS
 62
     7
 10
-237.6061734416964
 20
106.61016331491091
 30
0.0
 40
2.5000001067820641
 50
281.5250854492183
 51
1.155319213868458
  0
LINE
  5
1A73C
  8
KI
  6
CONTINUOUS
 62
     7
 10
-235.1066862312716
 20
106.66059119727871
 30
0.0
 11
-235.1066862312716
 21
107.6605750547759
 31
0.0
  0
LINE
  5
1A73D
  8
KI
  6
DASHED2
 62
     7
 10
-237.60668087007551
 20
105.66057234472051
 30
0.0
 11
-236.35667480190861
 21
106.66059119727871
 31
0.0
  0
LINE
  5
1A73E
  8
KI
  6
DASHED2
 62
     7
 10
-237.60668087402431
 20
107.66061004983661
 30
0.0
 11
-236.35667480585761
 21
106.66059119727871
 31
0.0
  0
LINE
  5
1A73F
  8
KI
  6
DASHED2
 62
     7
 10
-248.60667827784911
 20
105.66057234472051
 30
0.0
 11
-237.60668087007551
 21
105.66057234472051
 31
0.0
  0
LINE
  5
1A740
  8
KI
  6
DASHED2
 62
     7
 10
-249.85668434601581
 20
106.66059119727871
 30
0.0
 11
-236.35667480190861
 21
106.66059119727871
 31
0.0
  0
LINE
  5
1A741
  8
KI
  6
DASHED2
 62
     7
 10
-249.85668434601581
 20
106.66059119727871
 30
0.0
 11
-248.60667827784911
 21
107.6605750547759
 31
0.0
  0
LINE
  5
1A742
  8
KI
  6
DASHED2
 62
     7
 10
-249.85668434601581
 20
106.66059119727871
 30
0.0
 11
-248.60667827784911
 21
105.66057234472051
 31
0.0
  0
LINE
  5
1A743
  8
KI
  6
CONTINUOUS
 62
     7
 10
-237.10667144379681
 20
104.1605790609446
 30
0.0
 11
-249.10668770412781
 21
104.1605790609446
 31
0.0
  0
ARC
  5
1A744
  8
KI
  6
CONTINUOUS
 62
     7
 10
-248.60718570622811
 20
106.61016331491091
 30
0.0
 40
2.5000001067820641
 50
178.84469604492341
 51
258.47492980957082
  0
LINE
  5
1A745
  8
KI
  6
CONTINUOUS
 62
     7
 10
-251.1066729166524
 20
106.66059119727871
 30
0.0
 11
-251.1066729166524
 21
107.6605750547759
 31
0.0
  0
LINE
  5
1A746
  8
SU
  6
CONTINUOUS
 62
     3
 10
-175.606679102648
 20
126.66064257049899
 30
0.0
 11
-175.606679102648
 21
68.160642570500187
 31
0.0
  0
LINE
  5
1A747
  8
SU
  6
CONTINUOUS
 62
     3
 10
-336.60667910264903
 20
126.66064257049879
 30
0.0
 11
-336.60667910264903
 21
68.160642570500187
 31
0.0
  0
LINE
  5
1A748
  8
SU
  6
CONTINUOUS
 62
     3
 10
-175.606679102648
 20
71.160642570500187
 30
0.0
 11
-336.60667910264903
 21
71.160642570500187
 31
0.0
  0
LINE
  5
1A749
  8
SU
  6
CONTINUOUS
 62
     3
 10
-172.60667911177541
 20
-79.835514099927394
 30
0.0
 11
-172.60667911177541
 21
-101.8355140999209
 31
0.0
  0
LINE
  5
1A74A
  8
SU
  6
CONTINUOUS
 62
     3
 10
-172.60667911177541
 20
-98.835514099920942
 30
0.0
 11
-161.67810768320379
 21
-98.835514099920942
 31
0.0
  0
LINE
  5
1A74B
  8
SU
  6
CONTINUOUS
 62
     3
 10
-175.6066792252785
 20
-98.835514099920942
 30
0.0
 11
-172.60667911177541
 21
-98.835514099920942
 31
0.0
  0
LINE
  5
1A74C
  8
SU
  6
CONTINUOUS
 62
     3
 10
-272.0055488483369
 20
-54.813271487506903
 30
0.0
 11
-273.30559056306799
 21
-52.772614758242611
 31
0.0
  0
LINE
  5
1A74D
  8
SU
  6
CONTINUOUS
 62
     3
 10
-272.0055488483369
 20
-54.813271487506903
 30
0.0
 11
-273.7899431092622
 21
-53.178175399483422
 31
0.0
  0
LINE
  5
1A74E
  8
SU
  6
CONTINUOUS
 62
     3
 10
-283.606679102648
 20
-63.835511272029592
 30
0.0
 11
-362.606679102648
 21
-63.835511272029592
 31
0.0
  0
LINE
  5
1A74F
  8
SU
  6
CONTINUOUS
 62
     3
 10
-260.10668081511011
 20
-43.835511272029592
 30
0.0
 11
-362.606679102648
 21
-43.835511272029578
 31
0.0
  0
LINE
  5
1A750
  8
SU
  6
CONTINUOUS
 62
     3
 10
-359.606679102648
 20
-63.835511272029592
 30
0.0
 11
-359.606679102648
 21
-43.835511272029578
 31
0.0
  0
LINE
  5
1A751
  8
SU
  6
CONTINUOUS
 62
     3
 10
-359.60667910264982
 20
-78.835514099913297
 30
0.0
 11
-356.606679102648
 21
-78.835514099913297
 31
0.0
  0
LINE
  5
1A752
  8
SU
  6
CONTINUOUS
 62
     3
 10
-283.606679102648
 20
-63.835511272029592
 30
0.0
 11
-362.606679102648
 21
-63.835511272029592
 31
0.0
  0
LINE
  5
1A753
  8
SU
  6
CONTINUOUS
 62
     3
 10
-359.606679102648
 20
-63.835511272029592
 30
0.0
 11
-359.606679102648
 21
-78.835514099913297
 31
0.0
  0
LINE
  5
1A754
  8
SU
  6
CONTINUOUS
 62
     3
 10
-359.606679102648
 20
-78.835514099913297
 30
0.0
 11
-359.606679102648
 21
-88.736466480865687
 31
0.0
  0
TEXT
  5
1A755
  8
SU
  6
CONTINUOUS
 62
     3
 10
-323.50732771032222
 20
-37.213620528430681
 30
0.0
 40
4.0
  1
下枠沓摺（四方枠用）
 41
0.8299999999999999
  0
LINE
  5
1A756
  8
SU
  6
CONTINUOUS
 62
     3
 10
-282.60667921615101
 20
-79.835514099921937
 30
0.0
 11
-282.60667921615101
 21
-101.8355140999212
 31
0.0
  0
LINE
  5
1A757
  8
SU
  6
CONTINUOUS
 62
     3
 10
-339.60667910264999
 20
-79.835514099906021
 30
0.0
 11
-339.60667910264999
 21
-101.8355140999212
 31
0.0
  0
LINE
  5
1A758
  8
SU
  6
CONTINUOUS
 62
     3
 10
-285.00667921615093
 20
-98.835514099921284
 30
0.0
 11
-339.60667910264999
 21
-98.835514099921284
 31
0.0
  0
LINE
  5
1A759
  8
SU
  6
CONTINUOUS
 62
     3
 10
-361.60667910264982
 20
-78.835514099913297
 30
0.0
 11
-377.606679102648
 21
-78.835514099913297
 31
0.0
  0
LINE
  5
1A75A
  8
SU
  6
CONTINUOUS
 62
     3
 10
-260.10668081511011
 20
-43.835511272029592
 30
0.0
 11
-377.606679102648
 21
-43.835511272029571
 31
0.0
  0
LINE
  5
1A75B
  8
SU
  6
CONTINUOUS
 62
     3
 10
-374.606679102648
 20
-78.835514099913297
 30
0.0
 11
-374.606679102648
 21
-43.835511272029571
 31
0.0
  0
LINE
  5
1A75C
  8
SU
  6
CONTINUOUS
 62
     3
 10
-282.60667921615101
 20
-79.835514099921937
 30
0.0
 11
-282.60667921615101
 21
-101.8355140999211
 31
0.0
  0
LINE
  5
1A75D
  8
SU
  6
CONTINUOUS
 62
     3
 10
-175.6066792252785
 20
-79.835514099921468
 30
0.0
 11
-175.6066792252785
 21
-101.8355140999211
 31
0.0
  0
LINE
  5
1A75E
  8
SU
  6
CONTINUOUS
 62
     3
 10
-282.60667921615101
 20
-98.835514099921156
 30
0.0
 11
-175.6066792252785
 21
-98.835514099921156
 31
0.0
  0
LINE
  5
1A75F
  8
KI
  6
CONTINUOUS
 62
     7
 10
-259.10668081511011
 20
-43.835511272029592
 30
0.0
 11
-231.10668081511039
 21
-43.835511272029592
 31
0.0
  0
LINE
  5
1A760
  8
KI
  6
CONTINUOUS
 62
     7
 10
-282.606679102648
 20
-63.835511272029592
 30
0.0
 11
-259.10668081511011
 21
-43.835511272029592
 31
0.0
  0
LINE
  5
1A761
  8
KI
  6
CONTINUOUS
 62
     7
 10
-282.606679102648
 20
-63.835511272029592
 30
0.0
 11
-282.606679102648
 21
-78.835514099913297
 31
0.0
  0
LINE
  5
1A762
  8
KI
  6
CONTINUOUS
 62
     7
 10
-231.10668081511039
 20
-63.835511272029592
 30
0.0
 11
-175.606679102648
 21
-63.835511272029592
 31
0.0
  0
LINE
  5
1A763
  8
KI
  6
CONTINUOUS
 62
     7
 10
-231.10668081511039
 20
-63.835511272029592
 30
0.0
 11
-231.10668081511039
 21
-43.835511272029592
 31
0.0
  0
LINE
  5
1A764
  8
KI
  6
CONTINUOUS
 62
     7
 10
-175.606679102648
 20
-63.835511272029592
 30
0.0
 11
-175.606679102648
 21
-78.835514099913297
 31
0.0
  0
LINE
  5
1A765
  8
KI
  6
CONTINUOUS
 62
     7
 10
-282.606679102648
 20
-78.835514099913297
 30
0.0
 11
-175.606679102648
 21
-78.835514099913297
 31
0.0
  0
LINE
  5
1A766
  8
KI
  6
CONTINUOUS
 62
     7
 10
-230.60667481485831
 20
-43.835476276969047
 30
0.0
 11
-228.3805820836298
 21
-43.835476276968592
 31
0.0
  0
ARC
  5
1A767
  8
KI
  6
CONTINUOUS
 62
     7
 10
-221.09865176520279
 20
-55.39635216711892
 30
0.0
 40
9.2190722294335075
 50
182.80468734044729
 51
234.3741318244837
  0
LINE
  5
1A768
  8
KI
  6
CONTINUOUS
 62
     7
 10
-230.9066808148589
 20
-48.49655783869089
 30
0.0
 11
-230.30667481485861
 21
-47.896551838690769
 31
0.0
  0
LINE
  5
1A769
  8
KI
  6
CONTINUOUS
 62
     7
 10
-230.30667481485821
 20
-50.585486276968339
 30
0.0
 11
-230.30667481485821
 21
-44.835476276969032
 31
0.0
  0
LINE
  5
1A76A
  8
KI
  6
CONTINUOUS
 62
     7
 10
-231.10668081485869
 20
-53.83547627696813
 30
0.0
 11
-231.10668081485909
 21
-45.83547627696904
 31
0.0
  0
LINE
  5
1A76B
  8
KI
  6
CONTINUOUS
 62
     7
 10
-231.1066808148594
 20
-48.69655783869117
 30
0.0
 11
-230.9066808148589
 21
-48.49655783869089
 31
0.0
  0
LINE
  5
1A76C
  8
KI
  6
CONTINUOUS
 62
     7
 10
-230.9066808148589
 20
-49.39458345079764
 30
0.0
 11
-230.30667481485921
 21
-48.794577450797512
 31
0.0
  0
LINE
  5
1A76D
  8
KI
  6
CONTINUOUS
 62
     7
 10
-231.1066808148594
 20
-49.594583450798339
 30
0.0
 11
-230.9066808148589
 21
-49.39458345079764
 31
0.0
  0
LINE
  5
1A76E
  8
KI
  6
CONTINUOUS
 62
     7
 10
-230.90668081485791
 20
-50.292609062904781
 30
0.0
 11
-230.30667481485821
 21
-49.692603062904681
 31
0.0
  0
LINE
  5
1A76F
  8
KI
  6
CONTINUOUS
 62
     7
 10
-231.10668081485869
 20
-50.492609062905061
 30
0.0
 11
-230.90668081485839
 21
-50.292609062904781
 31
0.0
  0
LINE
  5
1A770
  8
KI
  6
CONTINUOUS
 62
     7
 10
-230.90668081485791
 20
-51.190634675011061
 30
0.0
 11
-230.551522416815
 21
-50.83547627696813
 31
0.0
  0
LINE
  5
1A771
  8
KI
  6
CONTINUOUS
 62
     7
 10
-230.551522416815
 20
-50.83547627696813
 30
0.0
 11
-230.32731028113969
 21
-50.611264141292821
 31
0.0
  0
LINE
  5
1A772
  8
KI
  6
CONTINUOUS
 62
     7
 10
-231.10668081485801
 20
-51.390634675011803
 30
0.0
 11
-230.90668081485839
 21
-51.19063467501153
 31
0.0
  0
LINE
  5
1A773
  8
KI
  6
CONTINUOUS
 62
     7
 10
-230.90668081485839
 20
-52.088660287118699
 30
0.0
 11
-230.30668081485879
 21
-51.488660287119252
 31
0.0
  0
LINE
  5
1A774
  8
KI
  6
CONTINUOUS
 62
     7
 10
-231.10668081485801
 20
-52.288660287118518
 30
0.0
 11
-230.90668081485839
 21
-52.088660287118699
 31
0.0
  0
LINE
  5
1A775
  8
KI
  6
CONTINUOUS
 62
     7
 10
-230.90668081485839
 20
-52.986685899225421
 30
0.0
 11
-230.30668081485831
 21
-52.386685899225512
 31
0.0
  0
LINE
  5
1A776
  8
KI
  6
CONTINUOUS
 62
     7
 10
-231.10668081485869
 20
-53.186685899225701
 30
0.0
 11
-230.90668081485839
 21
-52.986685899225421
 31
0.0
  0
LINE
  5
1A777
  8
KI
  6
CONTINUOUS
 62
     7
 10
-230.85744558049441
 20
-53.835476276967668
 30
0.0
 11
-230.30668081485831
 21
-53.284711511332212
 31
0.0
  0
LINE
  5
1A778
  8
KI
  6
CONTINUOUS
 62
     7
 10
-231.10668081485869
 20
-53.83547627696813
 30
0.0
 11
-230.30668081485831
 21
-53.83547627696813
 31
0.0
  0
LINE
  5
1A779
  8
KI
  6
CONTINUOUS
 62
     7
 10
-230.306680814858
 20
-54.847455029238041
 30
0.0
 11
-230.30668081485831
 21
-51.085486276968801
 31
0.0
  0
LINE
  5
1A77A
  8
KI
  6
CONTINUOUS
 62
     7
 10
-230.5066808148587
 20
-50.835486276968354
 30
0.0
 11
-230.30668081485831
 21
-50.585476276968592
 31
0.0
  0
LINE
  5
1A77B
  8
KI
  6
CONTINUOUS
 62
     7
 10
-230.5066748148588
 20
-50.835486276968354
 30
0.0
 11
-230.30668081485831
 21
-51.085486276968801
 31
0.0
  0
ARC
  5
1A77C
  8
KI
  6
CONTINUOUS
 62
     7
 10
-230.60668081485869
 20
-55.547455029238307
 30
0.0
 40
0.3
 50
180.00000000034751
 51
270.0000000000847
  0
LINE
  5
1A77D
  8
KI
  6
CONTINUOUS
 62
     7
 10
-230.30668081485831
 20
-55.84745502923802
 30
0.0
 11
-230.60668081485869
 21
-55.847455029238489
 31
0.0
  0
ARC
  5
1A77E
  8
KI
  6
CONTINUOUS
 62
     7
 10
-230.60668081486131
 20
-55.147455029238671
 30
0.0
 40
0.3
 50
90.000000000084668
 51
180.00000000034751
  0
LINE
  5
1A77F
  8
KI
  6
CONTINUOUS
 62
     7
 10
-230.9066808148589
 20
-55.547455029238307
 30
0.0
 11
-230.90668081486109
 21
-55.147455029238671
 31
0.0
  0
LINE
  5
1A780
  8
KI
  6
CONTINUOUS
 62
     7
 10
-230.60668081486131
 20
-54.847455029238489
 30
0.0
 11
-230.306680814858
 21
-54.847455029238041
 31
0.0
  0
LINE
  5
1A781
  8
KI
  6
CONTINUOUS
 62
     7
 10
-231.1066808148594
 20
-46.002481002370999
 30
0.0
 11
-230.93967608945559
 21
-45.835476276967221
 31
0.0
  0
LINE
  5
1A782
  8
KI
  6
CONTINUOUS
 62
     7
 10
-230.9066808148589
 20
-46.700506614476517
 30
0.0
 11
-230.30667481485861
 21
-46.100500614476879
 31
0.0
  0
LINE
  5
1A783
  8
KI
  6
CONTINUOUS
 62
     7
 10
-231.10668081485909
 20
-46.900506614477273
 30
0.0
 11
-230.9066808148589
 21
-46.700506614476993
 31
0.0
  0
LINE
  5
1A784
  8
KI
  6
CONTINUOUS
 62
     7
 10
-230.9066808148589
 20
-47.598532226584148
 30
0.0
 11
-230.30667481485861
 21
-46.998526226584062
 31
0.0
  0
LINE
  5
1A785
  8
KI
  6
CONTINUOUS
 62
     7
 10
-231.1066808148594
 20
-47.798532226584449
 30
0.0
 11
-230.9066808148589
 21
-47.598532226584148
 31
0.0
  0
LINE
  5
1A786
  8
KI
  6
CONTINUOUS
 62
     7
 10
-231.10668081485909
 20
-45.83547627696904
 30
0.0
 11
-230.30667481485821
 21
-45.835476276967647
 31
0.0
  0
ARC
  5
1A787
  8
KI
  6
CONTINUOUS
 62
     7
 10
-230.60668081486131
 20
-44.535476276968851
 30
0.0
 40
0.3
 50
180.00000000034751
 51
270.0000000000847
  0
ARC
  5
1A788
  8
KI
  6
CONTINUOUS
 62
     7
 10
-230.6066808148631
 20
-44.135476276969221
 30
0.0
 40
0.3
 50
90.000000000084668
 51
180.00000000034751
  0
LINE
  5
1A789
  8
KI
  6
CONTINUOUS
 62
     7
 10
-230.90668081486061
 20
-44.535476276968851
 30
0.0
 11
-230.90668081486319
 21
-44.135476276969221
 31
0.0
  0
LINE
  5
1A78A
  8
KI
  6
CONTINUOUS
 62
     7
 10
-230.30667481485821
 20
-44.835476276969032
 30
0.0
 11
-230.60668081486131
 21
-44.835476276969032
 31
0.0
  0
ARC
  5
1A78B
  8
KI
  6
CONTINUOUS
 62
     7
 10
-244.6274642799869
 20
-58.052067446918471
 30
0.0
 40
24.521586859558742
 50
356.28881364656843
 51
30.70307659906404
  0
ARC
  5
1A78C
  8
KI
  6
CONTINUOUS
 62
     7
 10
-244.6274642799869
 20
-58.052067446918471
 30
0.0
 40
23.321944298558741
 50
356.28881364656843
 51
31.58910060604277
  0
LINE
  5
1A78D
  8
KI
  6
CONTINUOUS
 62
     7
 10
-228.30671138354199
 20
-56.347299343027743
 30
0.0
 11
-228.30671138354199
 21
-46.33547627696813
 31
0.0
  0
LINE
  5
1A78E
  8
KI
  6
CONTINUOUS
 62
     7
 10
-227.49102238200311
 20
-59.392194683289262
 30
0.0
 11
-227.49102262310521
 21
-59.392194486861591
 31
0.0
  0
ARC
  5
1A78F
  8
KI
  6
CONTINUOUS
 62
     7
 10
-225.18921894447541
 20
-63.33915337155301
 30
0.0
 40
0.3
 50
163.7169370572291
 51
347.14909562687671
  0
ARC
  5
1A790
  8
KI
  6
CONTINUOUS
 62
     7
 10
-226.30467029563351
 20
-61.978322633060081
 30
0.0
 40
0.5
 50
49.327411972636412
 51
65.442606426039717
  0
ARC
  5
1A791
  8
KI
  6
CONTINUOUS
 62
     7
 10
-222.5226759386621
 20
-53.701459371536629
 30
0.0
 40
10.0
 50
250.1968242058378
 51
252.81541990369061
  0
ARC
  5
1A792
  8
KI
  6
CONTINUOUS
 62
     7
 10
-226.19127893429069
 20
-63.004219825319502
 30
0.0
 40
0.3
 50
157.61329912440891
 51
339.33735528098401
  0
ARC
  5
1A793
  8
KI
  6
CONTINUOUS
 62
     7
 10
-224.15394276406479
 20
-59.475450066397087
 30
0.0
 40
4.0
 50
334.29819125374348
 51
357.65265816413881
  0
ARC
  5
1A794
  8
KI
  6
CONTINUOUS
 62
     7
 10
-222.5226689008843
 20
-53.701459371527079
 30
0.0
 40
8.7999999999999972
 50
254.19808653013209
 51
254.2239622526468
  0
ARC
  5
1A795
  8
KI
  6
CONTINUOUS
 62
     7
 10
-220.689841148927
 20
-61.475450066396171
 30
0.0
 40
0.3
 50
237.85090437317311
 51
62.149095626860827
  0
ARC
  5
1A796
  8
KI
  6
CONTINUOUS
 62
     7
 10
-224.15394276406479
 20
-59.475450066397087
 30
0.0
 40
4.0
 50
319.29819125370523
 51
325.70180874629273
  0
ARC
  5
1A797
  8
KI
  6
CONTINUOUS
 62
     7
 10
-221.32551563931989
 20
-62.30387719114421
 30
0.0
 40
0.3
 50
222.8509043731234
 51
47.149095626853317
  0
ARC
  5
1A798
  8
KI
  6
CONTINUOUS
 62
     7
 10
-224.15394276406289
 20
-63.475450066397087
 30
0.0
 40
0.3
 50
177.85090437321941
 51
2.1490956268587862
  0
ARC
  5
1A799
  8
KI
  6
CONTINUOUS
 62
     7
 10
-223.11866658365221
 20
-63.339153371552541
 30
0.0
 40
0.3
 50
192.85090437317689
 51
17.149095626929501
  0
ARC
  5
1A79A
  8
KI
  6
CONTINUOUS
 62
     7
 10
-224.15394276406479
 20
-59.475450066397087
 30
0.0
 40
4.0
 50
289.29819125377401
 51
295.70180874626232
  0
ARC
  5
1A79B
  8
KI
  6
CONTINUOUS
 62
     7
 10
-222.1539427640657
 20
-62.939551681535207
 30
0.0
 40
0.3
 50
207.8509043731118
 51
32.149095626882911
  0
ARC
  5
1A79C
  8
KI
  6
CONTINUOUS
 62
     7
 10
-224.15394276406479
 20
-59.475450066397087
 30
0.0
 40
4.0
 50
304.29819125372239
 51
310.70180874624521
  0
ARC
  5
1A79D
  8
KI
  6
CONTINUOUS
 62
     7
 10
-224.15394276406479
 20
-59.475450066397087
 30
0.0
 40
4.0
 50
259.29819125371631
 51
265.7018087463
  0
ARC
  5
1A79E
  8
KI
  6
CONTINUOUS
 62
     7
 10
-224.15394276406479
 20
-59.475450066419363
 30
0.0
 40
4.0
 50
274.29819125375832
 51
280.7018087463199
  0
ARC
  5
1A79F
  8
KI
  6
CONTINUOUS
 62
     7
 10
-224.15394276406479
 20
-59.475450066397087
 30
0.0
 40
2.799999999999998
 50
229.327411972644
 51
357.65265816413881
  0
ARC
  5
1A7A0
  8
KI
  6
CONTINUOUS
 62
     7
 10
-221.05778830187691
 20
-56.312429380808652
 30
0.0
 40
7.2490069497939373
 50
180.2756114576494
 51
225.96157026527999
  0
ARC
  5
1A7A1
  8
KI
  6
CONTINUOUS
 62
     7
 10
-223.1132819654589
 20
-45.276318220054627
 30
0.0
 40
0.5
 50
116.01906736229191
 51
210.70307659906439
  0
ARC
  5
1A7A2
  8
KI
  6
CONTINUOUS
 62
     7
 10
-226.5245176892096
 20
-38.288151875417469
 30
0.0
 40
7.2763100519022599
 50
296.01906736229182
 51
331.88676723363909
  0
ARC
  5
1A7A3
  8
KI
  6
CONTINUOUS
 62
     7
 10
-226.5245176892096
 20
-38.288151875417469
 30
0.0
 40
5.776310051902259
 50
286.18682820039709
 51
331.88676723363909
  0
LINE
  5
1A7A4
  8
KI
  6
CONTINUOUS
 62
     7
 10
-228.3805820836298
 20
-43.835476276967661
 30
0.0
 11
-224.91425379790141
 21
-43.835476276969509
 31
0.0
  0
LINE
  5
1A7A5
  8
KI
  6
CONTINUOUS
 62
     7
 10
-227.8067113835418
 20
-45.83547627696813
 30
0.0
 11
-224.7612118389404
 21
-45.83547627696813
 31
0.0
  0
ARC
  5
1A7A6
  8
KI
  6
CONTINUOUS
 62
     7
 10
-227.8067113835418
 20
-46.33547627696813
 30
0.0
 40
0.5
 50
89.999999999996732
 51
180.0
  0
ARC
  5
1A7A7
  8
KI
  6
CONTINUOUS
 62
     7
 10
-220.8177435844469
 20
-41.456196877761563
 30
0.0
 40
0.7573354118943643
 50
339.86775998205133
 51
143.9057744852264
  0
LINE
  5
1A7A8
  8
SU
  6
CONTINUOUS
 62
     3
 10
-179.106679102648
 20
124.66064257049899
 30
0.0
 11
-134.60667910264661
 21
124.66064257049899
 31
0.0
  0
LINE
  5
1A7A9
  8
SU
  6
CONTINUOUS
 62
     3
 10
-137.60667910264669
 20
124.66064257049899
 30
0.0
 11
-137.60667910264669
 21
127.66064257049899
 31
0.0
  0
LINE
  5
1A7AA
  8
SU
  6
CONTINUOUS
 62
     3
 10
-137.60667910264669
 20
126.16064257049899
 30
0.0
 11
-152.6066791026478
 21
134.7298146557502
 31
0.0
  0
LINE
  5
1A7AB
  8
SU
  6
CONTINUOUS
 62
     3
 10
-152.6066791026478
 20
134.7298146557502
 30
0.0
 11
-152.6066791026478
 21
139.54314798908359
 31
0.0
  0
LINE
  5
1A7AC
  8
SU
  6
CONTINUOUS
 62
     3
 10
-174.6066791026478
 20
127.66064257049899
 30
0.0
 11
-134.60667910264661
 21
127.66064257049899
 31
0.0
  0
LINE
  5
1A7AD
  8
SU
  6
CONTINUOUS
 62
     3
 10
-137.60667910264669
 20
127.66064257049899
 30
0.0
 11
-137.60667910264669
 21
151.66064257049899
 31
0.0
  0
LINE
  5
1A7AE
  8
SU
  6
CONTINUOUS
 62
     3
 10
-128.606679102648
 20
141.66064257049899
 30
0.0
 11
-122.6066791026479
 21
151.66064257049899
 31
0.0
  0
LINE
  5
1A7AF
  8
SU
  6
CONTINUOUS
 62
     3
 10
-116.6066791026479
 20
141.66064257049899
 30
0.0
 11
-122.6066791026479
 21
151.66064257049899
 31
0.0
  0
LINE
  5
1A7B0
  8
SU
  6
CONTINUOUS
 62
     3
 10
-128.606679102648
 20
141.66064257049899
 30
0.0
 11
-116.6066791026479
 21
141.66064257049899
 31
0.0
  0
LINE
  5
1A7B1
  8
SU
  6
CONTINUOUS
 62
     3
 10
-174.6066791026478
 20
-63.835511272029592
 30
0.0
 11
-134.60667910264661
 21
-63.835511272029592
 31
0.0
  0
LINE
  5
1A7B2
  8
SU
  6
CONTINUOUS
 62
     3
 10
-137.60667910264669
 20
-63.835511272029592
 30
0.0
 11
-137.60667910264669
 21
-78.835514099913297
 31
0.0
  0
LINE
  5
1A7B3
  8
SU
  6
CONTINUOUS
 62
     3
 10
-137.60667910264669
 20
-58.83551127202962
 30
0.0
 11
-137.60667910264669
 21
-63.835511272029592
 31
0.0
  0
LINE
  5
1A7B4
  8
SU
  6
CONTINUOUS
 62
     3
 10
-128.606679102648
 20
-68.835514099913297
 30
0.0
 11
-122.6066791026479
 21
-78.835514099913297
 31
0.0
  0
LINE
  5
1A7B5
  8
SU
  6
CONTINUOUS
 62
     3
 10
-116.6066791026479
 20
-68.835514099913297
 30
0.0
 11
-122.6066791026479
 21
-78.835514099913297
 31
0.0
  0
LINE
  5
1A7B6
  8
SU
  6
CONTINUOUS
 62
     3
 10
-128.606679102648
 20
-68.835514099913297
 30
0.0
 11
-116.6066791026479
 21
-68.835514099913297
 31
0.0
  0
LINE
  5
1A7B7
  8
SU
  6
CONTINUOUS
 62
     3
 10
-179.10667910659751
 20
-58.835511272029592
 30
0.0
 11
-134.60667910264661
 21
-58.83551127202962
 31
0.0
  0
LINE
  5
1A7B8
  8
SU
  6
CONTINUOUS
 62
     3
 10
-137.60667910264669
 20
124.66064257049899
 30
0.0
 11
-137.60667910264669
 21
-58.83551127202962
 31
0.0
  0
LINE
  5
1A7B9
  8
SU
  6
CONTINUOUS
 62
     3
 10
-171.6066791026478
 20
151.66064257049899
 30
0.0
 11
-119.6066791026479
 21
151.66064257049899
 31
0.0
  0
LINE
  5
1A7BA
  8
SU
  6
CONTINUOUS
 62
     3
 10
-147.606679102648
 20
-78.835514099913297
 30
0.0
 11
-119.6066791026479
 21
-78.835514099913297
 31
0.0
  0
LINE
  5
1A7BB
  8
SU
  6
CONTINUOUS
 62
     3
 10
-122.6066791026479
 20
151.66064257049899
 30
0.0
 11
-122.6066791026479
 21
-78.835514099913297
 31
0.0
  0
LINE
  5
1A7BC
  8
KI
  6
CONTINUOUS
 62
     7
 10
263.6242157861895
 20
-91.492412942064803
 30
0.0
 11
263.6242157861895
 21
-31.49241122960316
 31
0.0
  0
LINE
  5
1A7BD
  8
KI
  6
CONTINUOUS
 62
     7
 10
266.1242157861895
 20
73.007587057935197
 30
0.0
 11
287.62421578618989
 21
73.007587057935197
 31
0.0
  0
LINE
  5
1A7BE
  8
KI
  6
CONTINUOUS
 62
     7
 10
266.1242157861895
 20
73.007587057935197
 30
0.0
 11
263.6242157861895
 21
70.507587057935197
 31
0.0
1001
GENIUS_GENFIL_13
1070
     0
1040
2.5
1040
2.5
1040
20.0
1040
0.0
1002
{
1002
}
1001
GENIUS_GENOBJ-N-CHA_13
1002
{
1000
OWNER
1000
GEN
1002
}
1001
GENIUS_GENODEF_13
1002
{
1000
HIER
1070
     0
1002
}
1002
{
1000
MANEDIT
1070
     0
1002
}
1002
{
1000
NOSEL
1070
     0
1002
}
1002
{
1000
BEHIND
1070
     0
1002
}
1002
{
1000
OTHER
1070
     0
1002
}
1002
{
1000
REACTOR
1002
}
  0
LINE
  5
1A7BF
  8
KI
  6
CONTINUOUS
 62
     7
 10
287.62421578618989
 20
73.007587057936533
 30
0.0
 11
287.62421578618989
 21
-93.992412942064803
 31
0.0
  0
LINE
  5
1A7C0
  8
KI
  6
CONTINUOUS
 62
     7
 10
287.62421578618989
 20
-93.992412942064803
 30
0.0
 11
266.1242157861895
 21
-93.992412942064803
 31
0.0
  0
LINE
  5
1A7C1
  8
KI
  6
CONTINUOUS
 62
     7
 10
266.1242157861895
 20
-93.992412942064803
 30
0.0
 11
263.6242157861895
 21
-91.492412942064803
 31
0.0
1001
GENIUS_GENFIL_13
1070
     0
1040
2.5
1040
2.5
1040
20.0
1040
0.0
1002
{
1002
}
1001
GENIUS_GENOBJ-N-CHA_13
1002
{
1000
OWNER
1000
GEN
1002
}
1001
GENIUS_GENODEF_13
1002
{
1000
HIER
1070
     0
1002
}
1002
{
1000
MANEDIT
1070
     0
1002
}
1002
{
1000
NOSEL
1070
     0
1002
}
1002
{
1000
BEHIND
1070
     0
1002
}
1002
{
1000
OTHER
1070
     0
1002
}
1002
{
1000
REACTOR
1002
}
  0
LINE
  5
1A7C2
  8
OS
  6
CONTINUOUS
 62
     2
 10
285.64992492250798
 20
-93.992412942064803
 30
0.0
 11
287.6242157861895
 21
-92.018122078383044
 31
0.0
  0
LINE
  5
1A7C3
  8
OS
  6
CONTINUOUS
 62
     2
 10
275.7504299858964
 20
-93.992412942064917
 30
0.0
 11
287.62421578618989
 21
-82.118627141771427
 31
0.0
  0
LINE
  5
1A7C4
  8
OS
  6
CONTINUOUS
 62
     2
 10
265.98757541773722
 20
-93.855772573612285
 30
0.0
 11
287.62421578618989
 21
-72.219132205159653
 31
0.0
  0
LINE
  5
1A7C5
  8
OS
  6
CONTINUOUS
 62
     2
 10
263.62421578619001
 20
-86.319637268548163
 30
0.0
 11
287.62421578618989
 21
-62.319637268548043
 31
0.0
  0
LINE
  5
1A7C6
  8
OS
  6
CONTINUOUS
 62
     2
 10
263.6242157861895
 20
-76.420142331936404
 30
0.0
 11
287.62421578618989
 21
-52.42014233193639
 31
0.0
  0
LINE
  5
1A7C7
  8
OS
  6
CONTINUOUS
 62
     2
 10
263.6242157861895
 20
-66.520647395324659
 30
0.0
 11
287.62421578618989
 21
-42.520647395324652
 31
0.0
  0
LINE
  5
1A7C8
  8
OS
  6
CONTINUOUS
 62
     2
 10
263.62421578619001
 20
-56.621152458713141
 30
0.0
 11
287.62421578618989
 21
-32.62115245871302
 31
0.0
  0
LINE
  5
1A7C9
  8
OS
  6
CONTINUOUS
 62
     2
 10
263.6242157861895
 20
-46.72165752210136
 30
0.0
 11
287.62421578618989
 21
-22.721657522101388
 31
0.0
  0
LINE
  5
1A7CA
  8
OS
  6
CONTINUOUS
 62
     2
 10
268.62421578618989
 20
-21.922667648878232
 30
0.0
 11
287.62421578618989
 21
-2.9226676488780181
 31
0.0
  0
LINE
  5
1A7CB
  8
OS
  6
CONTINUOUS
 62
     2
 10
265.15497479445543
 20
-15.492413704000819
 30
0.0
 11
287.62421578618989
 21
6.9768272877336122
 31
0.0
  0
LINE
  5
1A7CC
  8
OS
  6
CONTINUOUS
 62
     2
 10
263.6242157861895
 20
-7.1236777756546381
 30
0.0
 11
287.6242157861895
 21
16.876322224345241
 31
0.0
  0
LINE
  5
1A7CD
  8
OS
  6
CONTINUOUS
 62
     2
 10
263.6242157861895
 20
2.775817160956874
 30
0.0
 11
287.62421578618989
 21
26.77581716095699
 31
0.0
  0
LINE
  5
1A7CE
  8
OS
  6
CONTINUOUS
 62
     2
 10
263.6242157861895
 20
12.67531209756862
 30
0.0
 11
287.62421578618989
 21
36.675312097568622
 31
0.0
  0
LINE
  5
1A7CF
  8
OS
  6
CONTINUOUS
 62
     2
 10
263.6242157861895
 20
22.574807034180349
 30
0.0
 11
287.6242157861895
 21
46.574807034180253
 31
0.0
  0
LINE
  5
1A7D0
  8
OS
  6
CONTINUOUS
 62
     2
 10
263.6242157861895
 20
32.474301970791878
 30
0.0
 11
287.62421578618989
 21
56.474301970791998
 31
0.0
  0
LINE
  5
1A7D1
  8
OS
  6
CONTINUOUS
 62
     2
 10
263.6242157861895
 20
42.37379690740363
 30
0.0
 11
287.62421578618989
 21
66.37379690740363
 31
0.0
  0
LINE
  5
1A7D2
  8
OS
  6
CONTINUOUS
 62
     2
 10
263.6242157861895
 20
52.273291844015361
 30
0.0
 11
284.35851100010962
 21
73.007587057935226
 31
0.0
  0
LINE
  5
1A7D3
  8
OS
  6
CONTINUOUS
 62
     2
 10
263.6242157861895
 20
62.172786780626879
 30
0.0
 11
274.45901606349798
 21
73.007587057935069
 31
0.0
  0
LINE
  5
1A7D4
  8
OS
  6
CONTINUOUS
 62
     2
 10
263.6242157861895
 20
-36.822162585489671
 30
0.0
 11
287.6242157861895
 21
-12.82216258548976
 31
0.0
  0
LINE
  5
1A7D5
  8
KI
  6
CONTINUOUS
 62
     7
 10
268.62421578618989
 20
-31.49241122960316
 30
0.0
 11
268.62421578618989
 21
-15.492413704000819
 31
0.0
  0
LINE
  5
1A7D6
  8
KI
  6
CONTINUOUS
 62
     7
 10
263.6242157861895
 20
-15.492413704000819
 30
0.0
 11
268.62421578618989
 21
-15.492413704000819
 31
0.0
  0
LINE
  5
1A7D7
  8
KI
  6
CONTINUOUS
 62
     7
 10
268.62421578618989
 20
-31.49241122960316
 30
0.0
 11
263.6242157861895
 21
-31.49241122960316
 31
0.0
  0
LINE
  5
1A7D8
  8
KI
  6
CONTINUOUS
 62
     7
 10
263.6242157861895
 20
-15.492413704000819
 30
0.0
 11
263.6242157861895
 21
70.507587057935197
 31
0.0
  0
LINE
  5
1A7D9
  8
OS
  6
CONTINUOUS
 62
     2
 10
338.6242182362617
 20
-80.992412942064803
 30
0.0
 11
287.62421576907309
 21
-80.992412942064803
 31
0.0
  0
LINE
  5
1A7DA
  8
OS
  6
CONTINUOUS
 62
     2
 10
338.6242182362617
 20
-82.992412942064789
 30
0.0
 11
287.62421576907309
 21
-82.992412942064789
 31
0.0
  0
LINE
  5
1A7DB
  8
OS
  6
CONTINUOUS
 62
     2
 10
338.6242182362617
 20
-72.492412942064803
 30
0.0
 11
287.62421576907309
 21
-72.492412942064803
 31
0.0
  0
LINE
  5
1A7DC
  8
OS
  6
CONTINUOUS
 62
     2
 10
338.6242182362617
 20
-70.492412942064803
 30
0.0
 11
287.62421576907309
 21
-70.492412942064803
 31
0.0
  0
LINE
  5
1A7DD
  8
OS
  6
CONTINUOUS
 62
     2
 10
338.6242182362617
 20
3.507525279327437
 30
0.0
 11
292.6240784399634
 21
49.507644278394139
 31
0.0
  0
LINE
  5
1A7DE
  8
OS
  6
CONTINUOUS
 62
     2
 10
292.6240784399634
 20
-70.492355721605819
 30
0.0
 11
338.6242182362617
 21
-24.49229716445987
 31
0.0
  0
LINE
  5
1A7DF
  8
OS
  6
CONTINUOUS
 62
     2
 10
338.6242182362617
 20
51.507587057935183
 30
0.0
 11
287.62421576907309
 21
51.507587057935183
 31
0.0
  0
LINE
  5
1A7E0
  8
OS
  6
CONTINUOUS
 62
     2
 10
338.6242182362617
 20
49.507587057935183
 30
0.0
 11
287.62421576907309
 21
49.507587057935183
 31
0.0
  0
LINE
  5
1A7E1
  8
OS
  6
CONTINUOUS
 62
     2
 10
338.6242182362617
 20
60.007587057935183
 30
0.0
 11
287.62421576907309
 21
60.007587057935183
 31
0.0
  0
LINE
  5
1A7E2
  8
OS
  6
CONTINUOUS
 62
     2
 10
338.6242182362617
 20
62.007587057935183
 30
0.0
 11
287.62421576907309
 21
62.007587057935183
 31
0.0
  0
LINE
  5
1A7E3
  8
OS
  6
CONTINUOUS
 62
     2
 10
292.6242157690732
 20
49.507587057935183
 30
0.0
 11
292.6242157690732
 21
-70.492412942064803
 31
0.0
  0
LINE
  5
1A7E4
  8
OS
  6
CONTINUOUS
 62
     2
 10
287.6242615454334
 20
49.507594687329252
 30
0.0
 11
292.62426154543323
 21
-70.492412942064803
 31
0.0
  0
LINE
  5
1A7E5
  8
OS
  6
CONTINUOUS
 62
     2
 10
-13.37578668099988
 20
-80.992412942064803
 30
0.0
 11
37.624215786188472
 21
-80.992412942064803
 31
0.0
  0
LINE
  5
1A7E6
  8
OS
  6
CONTINUOUS
 62
     2
 10
-13.37578668099988
 20
-82.992412942064789
 30
0.0
 11
37.624215786188472
 21
-82.992412942064789
 31
0.0
  0
LINE
  5
1A7E7
  8
OS
  6
CONTINUOUS
 62
     2
 10
-13.37578668099988
 20
-72.492412942064803
 30
0.0
 11
37.624215786188472
 21
-72.492412942064803
 31
0.0
  0
LINE
  5
1A7E8
  8
OS
  6
CONTINUOUS
 62
     2
 10
-13.37578668099988
 20
-70.492412942064803
 30
0.0
 11
37.624215786188472
 21
-70.492412942064803
 31
0.0
  0
LINE
  5
1A7E9
  8
OS
  6
CONTINUOUS
 62
     2
 10
-13.37578668099988
 20
3.507525279327437
 30
0.0
 11
32.624353115298447
 21
49.507644278394139
 31
0.0
  0
LINE
  5
1A7EA
  8
OS
  6
CONTINUOUS
 62
     2
 10
32.624353115298447
 20
-70.492355721605819
 30
0.0
 11
-13.37578668099987
 21
-24.49229716445987
 31
0.0
  0
LINE
  5
1A7EB
  8
OS
  6
CONTINUOUS
 62
     2
 10
-13.37578668099988
 20
51.507587057935183
 30
0.0
 11
37.624215786188472
 21
51.507587057935183
 31
0.0
  0
LINE
  5
1A7EC
  8
OS
  6
CONTINUOUS
 62
     2
 10
-13.37578668099988
 20
49.507587057935183
 30
0.0
 11
37.624215786188472
 21
49.507587057935183
 31
0.0
  0
LINE
  5
1A7ED
  8
OS
  6
CONTINUOUS
 62
     2
 10
-13.37578668099988
 20
60.007587057935183
 30
0.0
 11
37.624215786188472
 21
60.007587057935183
 31
0.0
  0
LINE
  5
1A7EE
  8
OS
  6
CONTINUOUS
 62
     2
 10
-13.37578668099988
 20
62.007587057935183
 30
0.0
 11
37.624215786188472
 21
62.007587057935183
 31
0.0
  0
LINE
  5
1A7EF
  8
OS
  6
CONTINUOUS
 62
     2
 10
32.624215786188472
 20
49.507587057935183
 30
0.0
 11
32.624215786188472
 21
-70.492412942064803
 31
0.0
  0
LINE
  5
1A7F0
  8
OS
  6
CONTINUOUS
 62
     2
 10
37.624170009828447
 20
49.507594687329252
 30
0.0
 11
32.624170009828447
 21
-70.492412942064803
 31
0.0
  0
LINE
  5
1A7F1
  8
OS
  6
CONTINUOUS
 62
     2
 10
-316.10662569688589
 20
156.6605057182347
 30
0.0
 11
-229.70657218460551
 21
192.66064257049911
 31
0.0
  0
LINE
  5
1A7F2
  8
OS
  6
CONTINUOUS
 62
     2
 10
-196.106679102648
 20
156.66064257049911
 30
0.0
 11
-316.106679102648
 21
156.66064257049911
 31
0.0
  0
LINE
  5
1A7F3
  8
OS
  6
CONTINUOUS
 62
     2
 10
-196.10667147325381
 20
151.66068695731471
 30
0.0
 11
-316.106679102648
 21
156.66068739319201
 31
0.0
  0
LINE
  5
1A7F4
  8
OS
  6
CONTINUOUS
 62
     2
 10
-328.606679102648
 20
192.66064257049911
 30
0.0
 11
-328.606679102648
 21
151.66064257049899
 31
0.0
  0
LINE
  5
1A7F5
  8
OS
  6
CONTINUOUS
 62
     2
 10
-326.606679102648
 20
192.66064257049911
 30
0.0
 11
-326.606679102648
 21
151.66064257049899
 31
0.0
  0
LINE
  5
1A7F6
  8
OS
  6
CONTINUOUS
 62
     2
 10
-316.106679102648
 20
192.66064257049911
 30
0.0
 11
-316.106679102648
 21
151.66064257049899
 31
0.0
  0
LINE
  5
1A7F7
  8
OS
  6
CONTINUOUS
 62
     2
 10
-318.106679102648
 20
192.66064257049911
 30
0.0
 11
-318.106679102648
 21
151.66064257049899
 31
0.0
  0
LINE
  5
1A7F8
  8
OS
  6
CONTINUOUS
 62
     2
 10
-196.106679102648
 20
192.66064257049911
 30
0.0
 11
-196.106679102648
 21
151.66064257049899
 31
0.0
  0
LINE
  5
1A7F9
  8
OS
  6
CONTINUOUS
 62
     2
 10
-183.606679102648
 20
192.66064257049911
 30
0.0
 11
-183.606679102648
 21
151.66064257049899
 31
0.0
  0
LINE
  5
1A7FA
  8
OS
  6
CONTINUOUS
 62
     2
 10
-194.106679102648
 20
192.66064257049911
 30
0.0
 11
-194.106679102648
 21
151.66064257049899
 31
0.0
  0
LINE
  5
1A7FB
  8
OS
  6
CONTINUOUS
 62
     2
 10
-185.606679102648
 20
192.66064257049911
 30
0.0
 11
-185.606679102648
 21
151.66064257049899
 31
0.0
  0
LINE
  5
1A7FC
  8
KI
  6
CONTINUOUS
 62
     7
 10
61.624215786190689
 20
-91.492412942064803
 30
0.0
 11
61.624215786190689
 21
-31.49241122960316
 31
0.0
  0
LINE
  5
1A7FD
  8
KI
  6
CONTINUOUS
 62
     7
 10
59.124215786190689
 20
73.007587057935197
 30
0.0
 11
37.624215786190682
 21
73.007587057935197
 31
0.0
  0
LINE
  5
1A7FE
  8
KI
  6
CONTINUOUS
 62
     7
 10
59.124215786190689
 20
73.007587057935197
 30
0.0
 11
61.624215786190689
 21
70.507587057935197
 31
0.0
1001
GENIUS_GENFIL_13
1070
     0
1040
2.5
1040
2.5
1040
20.0
1040
0.0
1002
{
1002
}
1001
GENIUS_GENOBJ-N-CHA_13
1002
{
1000
OWNER
1000
GEN
1002
}
1001
GENIUS_GENODEF_13
1002
{
1000
HIER
1070
     0
1002
}
1002
{
1000
MANEDIT
1070
     0
1002
}
1002
{
1000
NOSEL
1070
     0
1002
}
1002
{
1000
BEHIND
1070
     0
1002
}
1002
{
1000
OTHER
1070
     0
1002
}
1002
{
1000
REACTOR
1002
}
  0
LINE
  5
1A7FF
  8
KI
  6
CONTINUOUS
 62
     7
 10
37.624215786190682
 20
73.007587057936533
 30
0.0
 11
37.624215786190682
 21
-93.992412942064803
 31
0.0
  0
LINE
  5
1A800
  8
KI
  6
CONTINUOUS
 62
     7
 10
37.624215786190682
 20
-93.992412942064803
 30
0.0
 11
59.124215786190689
 21
-93.992412942064803
 31
0.0
  0
LINE
  5
1A801
  8
KI
  6
CONTINUOUS
 62
     7
 10
59.124215786190689
 20
-93.992412942064803
 30
0.0
 11
61.624215786190689
 21
-91.492412942064803
 31
0.0
1001
GENIUS_GENFIL_13
1070
     0
1040
2.5
1040
2.5
1040
20.0
1040
0.0
1002
{
1002
}
1001
GENIUS_GENOBJ-N-CHA_13
1002
{
1000
OWNER
1000
GEN
1002
}
1001
GENIUS_GENODEF_13
1002
{
1000
HIER
1070
     0
1002
}
1002
{
1000
MANEDIT
1070
     0
1002
}
1002
{
1000
NOSEL
1070
     0
1002
}
1002
{
1000
BEHIND
1070
     0
1002
}
1002
{
1000
OTHER
1070
     0
1002
}
1002
{
1000
REACTOR
1002
}
  0
LINE
  5
1A802
  8
OS
  6
CONTINUOUS
 62
     2
 10
39.59850664987254
 20
-93.992412942064803
 30
0.0
 11
37.624215786190788
 21
-92.018122078383044
 31
0.0
  0
LINE
  5
1A803
  8
OS
  6
CONTINUOUS
 62
     2
 10
49.498001586484179
 20
-93.992412942064917
 30
0.0
 11
37.624215786190568
 21
-82.118627141771427
 31
0.0
  0
LINE
  5
1A804
  8
OS
  6
CONTINUOUS
 62
     2
 10
59.2608561546432
 20
-93.855772573612285
 30
0.0
 11
37.624215786190682
 21
-72.219132205159653
 31
0.0
  0
LINE
  5
1A805
  8
OS
  6
CONTINUOUS
 62
     2
 10
61.624215786190561
 20
-86.319637268548163
 30
0.0
 11
37.624215786190568
 21
-62.319637268548043
 31
0.0
  0
LINE
  5
1A806
  8
OS
  6
CONTINUOUS
 62
     2
 10
61.624215786190689
 20
-76.420142331936404
 30
0.0
 11
37.624215786190568
 21
-52.42014233193639
 31
0.0
  0
LINE
  5
1A807
  8
OS
  6
CONTINUOUS
 62
     2
 10
61.624215786190689
 20
-66.520647395324659
 30
0.0
 11
37.624215786190682
 21
-42.520647395324652
 31
0.0
  0
LINE
  5
1A808
  8
OS
  6
CONTINUOUS
 62
     2
 10
61.624215786190561
 20
-56.621152458713141
 30
0.0
 11
37.624215786190568
 21
-32.62115245871302
 31
0.0
  0
LINE
  5
1A809
  8
OS
  6
CONTINUOUS
 62
     2
 10
61.624215786190689
 20
-46.72165752210136
 30
0.0
 11
37.624215786190682
 21
-22.721657522101388
 31
0.0
  0
LINE
  5
1A80A
  8
OS
  6
CONTINUOUS
 62
     2
 10
56.624215786190689
 20
-21.922667648878232
 30
0.0
 11
37.624215786190568
 21
-2.9226676488780181
 31
0.0
  0
LINE
  5
1A80B
  8
OS
  6
CONTINUOUS
 62
     2
 10
60.093456777925162
 20
-15.492413704000819
 30
0.0
 11
37.624215786190682
 21
6.9768272877336122
 31
0.0
  0
LINE
  5
1A80C
  8
OS
  6
CONTINUOUS
 62
     2
 10
61.624215786190689
 20
-7.1236777756546381
 30
0.0
 11
37.624215786190788
 21
16.876322224345241
 31
0.0
  0
LINE
  5
1A80D
  8
OS
  6
CONTINUOUS
 62
     2
 10
61.624215786190689
 20
2.775817160956874
 30
0.0
 11
37.624215786190568
 21
26.77581716095699
 31
0.0
  0
LINE
  5
1A80E
  8
OS
  6
CONTINUOUS
 62
     2
 10
61.624215786190689
 20
12.67531209756862
 30
0.0
 11
37.624215786190682
 21
36.675312097568622
 31
0.0
  0
LINE
  5
1A80F
  8
OS
  6
CONTINUOUS
 62
     2
 10
61.624215786190689
 20
22.574807034180349
 30
0.0
 11
37.624215786190788
 21
46.574807034180253
 31
0.0
  0
LINE
  5
1A810
  8
OS
  6
CONTINUOUS
 62
     2
 10
61.624215786190689
 20
32.474301970791878
 30
0.0
 11
37.624215786190568
 21
56.474301970791998
 31
0.0
  0
LINE
  5
1A811
  8
OS
  6
CONTINUOUS
 62
     2
 10
61.624215786190689
 20
42.37379690740363
 30
0.0
 11
37.624215786190682
 21
66.37379690740363
 31
0.0
  0
LINE
  5
1A812
  8
OS
  6
CONTINUOUS
 62
     2
 10
61.624215786190689
 20
52.273291844015361
 30
0.0
 11
40.889920572270853
 21
73.007587057935226
 31
0.0
  0
LINE
  5
1A813
  8
OS
  6
CONTINUOUS
 62
     2
 10
61.624215786190689
 20
62.172786780626879
 30
0.0
 11
50.789415508882492
 21
73.007587057935069
 31
0.0
  0
LINE
  5
1A814
  8
OS
  6
CONTINUOUS
 62
     2
 10
61.624215786190689
 20
-36.822162585489671
 30
0.0
 11
37.624215786190788
 21
-12.82216258548976
 31
0.0
  0
LINE
  5
1A815
  8
KI
  6
CONTINUOUS
 62
     7
 10
56.624215786190689
 20
-31.49241122960316
 30
0.0
 11
56.624215786190689
 21
-15.492413704000819
 31
0.0
  0
LINE
  5
1A816
  8
KI
  6
CONTINUOUS
 62
     7
 10
61.624215786190689
 20
-15.492413704000819
 30
0.0
 11
56.624215786190689
 21
-15.492413704000819
 31
0.0
  0
LINE
  5
1A817
  8
KI
  6
CONTINUOUS
 62
     7
 10
56.624215786190689
 20
-31.49241122960316
 30
0.0
 11
61.624215786190689
 21
-31.49241122960316
 31
0.0
  0
LINE
  5
1A818
  8
KI
  6
CONTINUOUS
 62
     7
 10
61.624215786190689
 20
-15.492413704000819
 30
0.0
 11
61.624215786190689
 21
70.507587057935197
 31
0.0
  0
LINE
  5
1A819
  8
KI
  6
CONTINUOUS
 62
     7
 10
-251.22050240747279
 20
127.66064257049899
 30
0.0
 11
-334.10667910264772
 21
127.66064257049899
 31
0.0
  0
LINE
  5
1A81A
  8
KI
  6
CONTINUOUS
 62
     7
 10
-336.60667910264942
 20
151.66064257049899
 30
0.0
 11
-175.606679102648
 21
151.66064257049899
 31
0.0
  0
LINE
  5
1A81B
  8
KI
  6
CONTINUOUS
 62
     7
 10
-336.60667910264772
 20
130.16064257049891
 30
0.0
 11
-334.10667910264772
 21
127.66064257049899
 31
0.0
1001
GENIUS_GENFIL_13
1070
     0
1040
2.5
1040
2.5
1040
20.0
1040
0.0
1002
{
1002
}
1001
GENIUS_GENOBJ-N-CHA_13
1002
{
1000
OWNER
1000
GEN
1002
}
1001
GENIUS_GENODEF_13
1002
{
1000
HIER
1070
     0
1002
}
1002
{
1000
MANEDIT
1070
     0
1002
}
1002
{
1000
NOSEL
1070
     0
1002
}
1002
{
1000
BEHIND
1070
     0
1002
}
1002
{
1000
OTHER
1070
     0
1002
}
1002
{
1000
REACTOR
1002
}
  0
LINE
  5
1A81C
  8
KI
  6
CONTINUOUS
 62
     7
 10
-336.60667910264772
 20
130.16064257049891
 30
0.0
 11
-336.60667910264772
 21
151.66064257049899
 31
0.0
  0
LINE
  5
1A81D
  8
KI
  6
CONTINUOUS
 62
     7
 10
-178.106679102648
 20
127.66064257049899
 30
0.0
 11
-235.22050488187071
 21
127.66064257049899
 31
0.0
  0
LINE
  5
1A81E
  8
KI
  6
CONTINUOUS
 62
     7
 10
-175.606679102648
 20
130.16064257049891
 30
0.0
 11
-178.106679102648
 21
127.66064257049899
 31
0.0
1001
GENIUS_GENFIL_13
1070
     0
1040
2.5
1040
2.5
1040
20.0
1040
0.0
1002
{
1002
}
1001
GENIUS_GENOBJ-N-CHA_13
1002
{
1000
OWNER
1000
GEN
1002
}
1001
GENIUS_GENODEF_13
1002
{
1000
HIER
1070
     0
1002
}
1002
{
1000
MANEDIT
1070
     0
1002
}
1002
{
1000
NOSEL
1070
     0
1002
}
1002
{
1000
BEHIND
1070
     0
1002
}
1002
{
1000
OTHER
1070
     0
1002
}
1002
{
1000
REACTOR
1002
}
  0
LINE
  5
1A81F
  8
KI
  6
CONTINUOUS
 62
     7
 10
-175.606679102648
 20
151.66064257049899
 30
0.0
 11
-175.606679102648
 21
130.16064257049891
 31
0.0
  0
LINE
  5
1A820
  8
OS
  6
CONTINUOUS
 62
     2
 10
-336.60667910264772
 20
149.0684044260895
 30
0.0
 11
-334.01444095823831
 21
151.66064257049891
 31
0.0
  0
LINE
  5
1A821
  8
OS
  6
CONTINUOUS
 62
     2
 10
-336.60667910264772
 20
139.16890948947781
 30
0.0
 11
-324.11494602162691
 21
151.66064257049891
 31
0.0
  0
LINE
  5
1A822
  8
OS
  6
CONTINUOUS
 62
     2
 10
-336.16106509383161
 20
129.7150285616822
 30
0.0
 11
-314.2154510850151
 21
151.66064257049891
 31
0.0
  0
LINE
  5
1A823
  8
OS
  6
CONTINUOUS
 62
     2
 10
-328.31595614840347
 20
127.66064257049879
 30
0.0
 11
-304.31595614840347
 21
151.66064257049891
 31
0.0
  0
LINE
  5
1A824
  8
OS
  6
CONTINUOUS
 62
     2
 10
-318.4164612117919
 20
127.66064257049899
 30
0.0
 11
-294.41646121179201
 21
151.66064257049891
 31
0.0
  0
LINE
  5
1A825
  8
OS
  6
CONTINUOUS
 62
     2
 10
-308.51696627518021
 20
127.66064257049879
 30
0.0
 11
-284.5169662751801
 21
151.66064257049899
 31
0.0
  0
LINE
  5
1A826
  8
OS
  6
CONTINUOUS
 62
     2
 10
-298.61747133856852
 20
127.66064257049879
 30
0.0
 11
-274.61747133856841
 21
151.66064257049891
 31
0.0
  0
LINE
  5
1A827
  8
OS
  6
CONTINUOUS
 62
     2
 10
-288.71797640195689
 20
127.66064257049879
 30
0.0
 11
-264.717976401957
 21
151.66064257049891
 31
0.0
  0
LINE
  5
1A828
  8
OS
  6
CONTINUOUS
 62
     2
 10
-278.8184814653452
 20
127.66064257049879
 30
0.0
 11
-254.8184814653452
 21
151.66064257049899
 31
0.0
  0
LINE
  5
1A829
  8
OS
  6
CONTINUOUS
 62
     2
 10
-268.91898652873363
 20
127.66064257049899
 30
0.0
 11
-244.9189865287336
 21
151.66064257049899
 31
0.0
  0
LINE
  5
1A82A
  8
OS
  6
CONTINUOUS
 62
     2
 10
-259.01949159212199
 20
127.66064257049879
 30
0.0
 11
-235.0194915921218
 21
151.66064257049891
 31
0.0
  0
LINE
  5
1A82B
  8
OS
  6
CONTINUOUS
 62
     2
 10
-244.11999665550999
 20
132.66064257049891
 30
0.0
 11
-225.11999665551011
 21
151.66064257049899
 31
0.0
  0
LINE
  5
1A82C
  8
OS
  6
CONTINUOUS
 62
     2
 10
-219.10667765213771
 20
127.9754767640361
 30
0.0
 11
-195.42151184567521
 21
151.66064257049891
 31
0.0
  0
LINE
  5
1A82D
  8
OS
  6
CONTINUOUS
 62
     2
 10
-209.52201690906361
 20
127.66064257049899
 30
0.0
 11
-185.52201690906341
 21
151.66064257049899
 31
0.0
  0
LINE
  5
1A82E
  8
OS
  6
CONTINUOUS
 62
     2
 10
-199.62252197245181
 20
127.66064257049879
 30
0.0
 11
-175.62252197245181
 21
151.66064257049891
 31
0.0
  0
LINE
  5
1A82F
  8
OS
  6
CONTINUOUS
 62
     2
 10
-189.72302703584009
 20
127.66064257049899
 30
0.0
 11
-175.6066791026478
 21
141.77699050369111
 31
0.0
  0
LINE
  5
1A830
  8
OS
  6
CONTINUOUS
 62
     2
 10
-179.8235320992286
 20
127.66064257049899
 30
0.0
 11
-175.606679102648
 21
131.87749556707951
 31
0.0
  0
LINE
  5
1A831
  8
OS
  6
CONTINUOUS
 62
     2
 10
-235.22050488187071
 20
131.6606394075267
 30
0.0
 11
-215.2205017188987
 21
151.66064257049891
 31
0.0
  0
LINE
  5
1A832
  8
OS
  6
CONTINUOUS
 62
     2
 10
-229.3210067822865
 20
127.66064257049899
 30
0.0
 11
-205.3210067822869
 21
151.66064257049891
 31
0.0
  0
LINE
  5
1A833
  8
KI
  6
CONTINUOUS
 62
     7
 10
-235.22050488187071
 20
132.66064257049891
 30
0.0
 11
-235.22050488187071
 21
127.66064257049899
 31
0.0
  0
LINE
  5
1A834
  8
KI
  6
CONTINUOUS
 62
     7
 10
-251.22050240747279
 20
132.66064257049891
 30
0.0
 11
-251.22050240747279
 21
127.66064257049899
 31
0.0
  0
LINE
  5
1A835
  8
KI
  6
CONTINUOUS
 62
     7
 10
-235.22050488187071
 20
132.66064257049891
 30
0.0
 11
-251.22050240747279
 21
132.66064257049891
 31
0.0
  0
LINE
  5
1A836
  8
SU
  6
CONTINUOUS
 62
     3
 10
-33.37578668100798
 20
49.50758705793519
 30
0.0
 11
-33.375786681007959
 21
62.00758705793519
 31
0.0
  0
LINE
  5
1A837
  8
SU
  6
CONTINUOUS
 62
     3
 10
-33.375786681007959
 20
62.00758705793519
 30
0.0
 11
-33.375786681007959
 21
86.995234118523712
 31
0.0
  0
LINE
  5
1A838
  8
SU
  6
CONTINUOUS
 62
     3
 10
-14.37578668099192
 20
62.007587057935183
 30
0.0
 11
-51.375786681007988
 21
62.00758705793519
 31
0.0
  0
LINE
  5
1A839
  8
SU
  6
CONTINUOUS
 62
     3
 10
36.624215786190689
 20
73.007587057936533
 30
0.0
 11
-51.375786681007973
 21
73.007587057936561
 31
0.0
  0
LINE
  5
1A83A
  8
SU
  6
CONTINUOUS
 62
     3
 10
-48.375786681008002
 20
62.00758705793519
 30
0.0
 11
-48.375786681008002
 21
73.007587057936561
 31
0.0
  0
LINE
  5
1A83B
  8
SU
  6
CONTINUOUS
 62
     3
 10
-14.37578668099988
 20
-82.992412942064789
 30
0.0
 11
-51.375786681007973
 21
-82.992412942064789
 31
0.0
  0
LINE
  5
1A83C
  8
SU
  6
CONTINUOUS
 62
     3
 10
36.62421578619044
 20
-93.992413034355778
 30
0.0
 11
-51.375786681007973
 21
-93.992413034355778
 31
0.0
  0
LINE
  5
1A83D
  8
SU
  6
CONTINUOUS
 62
     3
 10
-48.375786681007959
 20
-82.992412942064789
 30
0.0
 11
-48.375786681007959
 21
-93.992413034355778
 31
0.0
  0
LINE
  5
1A83E
  8
SU
  6
CONTINUOUS
 62
     3
 10
-33.37578668100798
 20
-70.492412942064803
 30
0.0
 11
-33.37578668100798
 21
-82.992412942064789
 31
0.0
  0
LINE
  5
1A83F
  8
SU
  6
CONTINUOUS
 62
     3
 10
-33.37578668100798
 20
-82.992412942064789
 30
0.0
 11
-33.37578668100798
 21
-105.72389772401399
 31
0.0
  0
LINE
  5
1A840
  8
SU
  6
CONTINUOUS
 62
     3
 10
-14.37578668099988
 20
-70.492412942064803
 30
0.0
 11
-36.375786681008002
 21
-70.492412942064803
 31
0.0
  0
LINE
  5
1A841
  8
SU
  6
CONTINUOUS
 62
     3
 10
-14.375786681000021
 20
49.507586965644244
 30
0.0
 11
-36.375786681007952
 21
49.507586965644244
 31
0.0
  0
LINE
  5
1A842
  8
SU
  6
CONTINUOUS
 62
     3
 10
-33.375786681008002
 20
-70.492412942064803
 30
0.0
 11
-33.37578668100798
 21
49.507586965644244
 31
0.0
  0
LINE
  5
1A843
  8
SU
  6
CONTINUOUS
 62
     3
 10
-48.375786681007959
 20
62.00758705793519
 30
0.0
 11
-48.375786681007959
 21
-82.992412942064789
 31
0.0
  0
LINE
  5
1A844
  8
SU
  6
CONTINUOUS
 62
     3
 10
-196.106679102648
 20
212.66064257050701
 30
0.0
 11
-183.606679102648
 21
212.66064257050701
 31
0.0
  0
LINE
  5
1A845
  8
SU
  6
CONTINUOUS
 62
     3
 10
-183.606679102648
 20
212.66064257050701
 30
0.0
 11
-160.8751944129896
 21
212.66064257050701
 31
0.0
  0
LINE
  5
1A846
  8
SU
  6
CONTINUOUS
 62
     3
 10
-183.606679102648
 20
193.66064257049879
 30
0.0
 11
-183.606679102648
 21
230.66064257050701
 31
0.0
  0
LINE
  5
1A847
  8
SU
  6
CONTINUOUS
 62
     3
 10
-172.606679102648
 20
152.66064257049899
 30
0.0
 11
-172.606679102648
 21
230.66064257050701
 31
0.0
  0
LINE
  5
1A848
  8
SU
  6
CONTINUOUS
 62
     3
 10
-183.606679102648
 20
227.66064257050681
 30
0.0
 11
-172.606679102648
 21
227.66064257050681
 31
0.0
  0
LINE
  5
1A849
  8
SU
  6
CONTINUOUS
 62
     3
 10
263.6242157861904
 20
74.007586965644094
 30
0.0
 11
263.6242157861904
 21
96.007586965643981
 31
0.0
  0
LINE
  5
1A84A
  8
SU
  6
CONTINUOUS
 62
     3
 10
287.62421578619052
 20
74.007586965644194
 30
0.0
 11
287.62421578619052
 21
96.007586965643981
 31
0.0
  0
LINE
  5
1A84B
  8
SU
  6
CONTINUOUS
 62
     3
 10
263.6242157861904
 20
93.007586965643995
 30
0.0
 11
287.62421578619052
 21
93.007586965643995
 31
0.0
  0
LINE
  5
1A84C
  8
SU
  6
CONTINUOUS
 62
     3
 10
61.624215786190653
 20
74.007586965644094
 30
0.0
 11
61.624215786190653
 21
96.007586965643981
 31
0.0
  0
LINE
  5
1A84D
  8
SU
  6
CONTINUOUS
 62
     3
 10
37.624215786190589
 20
74.007586965644194
 30
0.0
 11
37.624215786190589
 21
96.007586965643981
 31
0.0
  0
LINE
  5
1A84E
  8
SU
  6
CONTINUOUS
 62
     3
 10
61.624215786190653
 20
93.007586965643995
 30
0.0
 11
37.624215786190589
 21
93.007586965643995
 31
0.0
  0
LINE
  5
1A84F
  8
SU
  6
CONTINUOUS
 62
     3
 10
-316.106679102648
 20
212.66064257050701
 30
0.0
 11
-328.606679102648
 21
212.66064257050701
 31
0.0
  0
LINE
  5
1A850
  8
SU
  6
CONTINUOUS
 62
     3
 10
-328.606679102648
 20
212.66064257050701
 30
0.0
 11
-353.59432620938202
 21
212.66064257050701
 31
0.0
  0
LINE
  5
1A851
  8
SU
  6
CONTINUOUS
 62
     3
 10
-316.106679102648
 20
193.66064257049879
 30
0.0
 11
-316.106679102648
 21
215.66064257050701
 31
0.0
  0
LINE
  5
1A852
  8
SU
  6
CONTINUOUS
 62
     3
 10
-196.106679102648
 20
193.66064257049879
 30
0.0
 11
-196.106679102648
 21
215.66064257050701
 31
0.0
  0
LINE
  5
1A853
  8
SU
  6
CONTINUOUS
 62
     3
 10
-316.106679102648
 20
212.66064257050701
 30
0.0
 11
-196.106679102648
 21
212.66064257050701
 31
0.0
  0
LINE
  5
1A854
  8
SU
  6
CONTINUOUS
 62
     3
 10
-183.606679102648
 20
227.66064257050681
 30
0.0
 11
-328.606679102648
 21
227.66064257050681
 31
0.0
  0
LINE
  5
1A855
  8
SU
  6
CONTINUOUS
 62
     3
 10
-328.606679102648
 20
193.66064257049879
 30
0.0
 11
-328.606679102648
 21
230.66064257050701
 31
0.0
  0
LINE
  5
1A856
  8
SU
  6
CONTINUOUS
 62
     3
 10
-339.606679102648
 20
152.66064257049899
 30
0.0
 11
-339.606679102648
 21
230.66064257050701
 31
0.0
  0
LINE
  5
1A857
  8
SU
  6
CONTINUOUS
 62
     3
 10
-328.606679102648
 20
227.66064257050681
 30
0.0
 11
-339.606679102648
 21
227.66064257050681
 31
0.0
  0
LINE
  5
1A858
  8
SU
  6
CONTINUOUS
 62
     3
 10
-340.60667910264772
 20
151.66064257049899
 30
0.0
 11
-362.606679102648
 21
151.66064257049899
 31
0.0
  0
LINE
  5
1A859
  8
SU
  6
CONTINUOUS
 62
     3
 10
-359.606679102648
 20
151.66064257049899
 30
0.0
 11
-359.606679102648
 21
127.66064257049879
 31
0.0
  0
TEXT
  5
1A85A
  8
SU
  6
CONTINUOUS
 62
     3
 10
-360.90667910264801
 20
136.4196901895464
 30
0.0
 40
4.0
  1
24
 50
90.0
 41
0.8299999999999999
  0
TEXT
  5
1A85B
  8
SU
  6
CONTINUOUS
 62
     3
 10
-337.03144100740991
 20
228.96064257050679
 30
0.0
 40
4.0
  1
11
 41
0.8299999999999999
  0
TEXT
  5
1A85C
  8
SU
  6
CONTINUOUS
 62
     3
 10
-261.08667910264802
 20
228.96064257050679
 30
0.0
 40
4.0
  1
145
 41
0.8299999999999999
  0
TEXT
  5
1A85D
  8
SU
  6
CONTINUOUS
 62
     3
 10
-261.08667910264802
 20
213.96064257050679
 30
0.0
 40
4.0
  1
120
 41
0.8299999999999999
  0
TEXT
  5
1A85E
  8
SU
  6
CONTINUOUS
 62
     3
 10
-353.24289763795321
 20
213.96064257050679
 30
0.0
 40
4.0
  1
12.5
 41
0.8299999999999999
  0
TEXT
  5
1A85F
  8
SU
  6
CONTINUOUS
 62
     3
 10
46.383263405238239
 20
94.307586965643964
 30
0.0
 40
4.0
  1
24
 41
0.8299999999999999
  0
TEXT
  5
1A860
  8
SU
  6
CONTINUOUS
 62
     3
 10
272.3832634052381
 20
94.307586965643964
 30
0.0
 40
4.0
  1
24
 41
0.8299999999999999
  0
TEXT
  5
1A861
  8
SU
  6
CONTINUOUS
 62
     3
 10
-181.03144100740991
 20
228.96064257050679
 30
0.0
 40
4.0
  1
11
 41
0.8299999999999999
  0
TEXT
  5
1A862
  8
SU
  6
CONTINUOUS
 62
     3
 10
-172.76757536537059
 20
213.96064257050679
 30
0.0
 40
4.0
  1
12.5
 41
0.8299999999999999
  0
TEXT
  5
1A863
  8
SU
  6
CONTINUOUS
 62
     3
 10
-49.675786681007921
 20
-15.47241294206481
 30
0.0
 40
4.0
  1
145
 50
90.0
 41
0.8299999999999999
  0
TEXT
  5
1A864
  8
SU
  6
CONTINUOUS
 62
     3
 10
-34.67578668100797
 20
-15.47241298821028
 30
0.0
 40
4.0
  1
120
 50
90.0
 41
0.8299999999999999
  0
TEXT
  5
1A865
  8
SU
  6
CONTINUOUS
 62
     3
 10
-34.67578668100797
 20
-105.37246915258559
 30
0.0
 40
4.0
  1
12.5
 50
90.0
 41
0.8299999999999999
  0
TEXT
  5
1A866
  8
SU
  6
CONTINUOUS
 62
     3
 10
-49.67578668100797
 20
-91.417174892972184
 30
0.0
 40
4.0
  1
11
 50
90.0
 41
0.8299999999999999
  0
TEXT
  5
1A867
  8
SU
  6
CONTINUOUS
 62
     3
 10
-49.675786681007999
 20
64.582825153173957
 30
0.0
 40
4.0
  1
11
 50
90.0
 41
0.8299999999999999
  0
TEXT
  5
1A868
  8
SU
  6
CONTINUOUS
 62
     3
 10
-34.67578668100797
 20
75.102853166142737
 30
0.0
 40
4.0
  1
12.5
 50
90.0
 41
0.8299999999999999
  0
TEXT
  5
1A869
  8
SU
  6
CONTINUOUS
 62
     3
 10
-123.9066791026479
 20
34.67351661624523
 30
0.0
 40
4.0
  1
H
 50
90.0
 41
0.8299999999999999
  0
TEXT
  5
1A86A
  8
SU
  6
CONTINUOUS
 62
     3
 10
-138.90667910264671
 20
11.93332755399658
 30
0.0
 40
4.0
  1
ドアH（DH）＝H－47
 50
90.0
 41
0.8299999999999999
  0
LINE
  5
1A86B
  8
SU
  6
CONTINUOUS
 62
     3
 10
-128.52731586938839
 20
-68.967786155345934
 30
0.0
 11
-116.6860423359075
 21
-68.967786155345934
 31
0.0
  0
LINE
  5
1A86C
  8
SU
  6
CONTINUOUS
 62
     3
 10
-128.40731586938841
 20
-69.167786155345937
 30
0.0
 11
-116.80604233590751
 21
-69.167786155345937
 31
0.0
  0
LINE
  5
1A86D
  8
SU
  6
CONTINUOUS
 62
     3
 10
-128.28731586938841
 20
-69.367786155345925
 30
0.0
 11
-116.9260423359075
 21
-69.367786155345925
 31
0.0
  0
LINE
  5
1A86E
  8
SU
  6
CONTINUOUS
 62
     3
 10
-128.1673158693884
 20
-69.567786155345942
 30
0.0
 11
-117.0460423359074
 21
-69.567786155345942
 31
0.0
  0
LINE
  5
1A86F
  8
SU
  6
CONTINUOUS
 62
     3
 10
-128.04731586938851
 20
-69.767786155345931
 30
0.0
 11
-117.16604233590751
 21
-69.767786155345931
 31
0.0
  0
LINE
  5
1A870
  8
SU
  6
CONTINUOUS
 62
     3
 10
-127.92731586938839
 20
-69.967786155345934
 30
0.0
 11
-117.2860423359076
 21
-69.967786155345934
 31
0.0
  0
LINE
  5
1A871
  8
SU
  6
CONTINUOUS
 62
     3
 10
-127.8073158693885
 20
-70.167786155345937
 30
0.0
 11
-117.4060423359076
 21
-70.167786155345937
 31
0.0
  0
LINE
  5
1A872
  8
SU
  6
CONTINUOUS
 62
     3
 10
-127.6873158693885
 20
-70.367786155345925
 30
0.0
 11
-117.52604233590731
 21
-70.367786155345925
 31
0.0
  0
LINE
  5
1A873
  8
SU
  6
CONTINUOUS
 62
     3
 10
-127.56731586938839
 20
-70.567786155345942
 30
0.0
 11
-117.64604233590759
 21
-70.567786155345942
 31
0.0
  0
LINE
  5
1A874
  8
SU
  6
CONTINUOUS
 62
     3
 10
-127.4473158693884
 20
-70.767786155345931
 30
0.0
 11
-117.7660423359075
 21
-70.767786155345931
 31
0.0
  0
LINE
  5
1A875
  8
SU
  6
CONTINUOUS
 62
     3
 10
-127.3273158693884
 20
-70.967786155345934
 30
0.0
 11
-117.8860423359075
 21
-70.967786155345934
 31
0.0
  0
LINE
  5
1A876
  8
SU
  6
CONTINUOUS
 62
     3
 10
-127.2073158693884
 20
-71.167786155345937
 30
0.0
 11
-118.0060423359073
 21
-71.167786155345937
 31
0.0
  0
LINE
  5
1A877
  8
SU
  6
CONTINUOUS
 62
     3
 10
-127.08731586938841
 20
-71.367786155345939
 30
0.0
 11
-118.1260423359075
 21
-71.367786155345939
 31
0.0
  0
LINE
  5
1A878
  8
SU
  6
CONTINUOUS
 62
     3
 10
-126.9673158693884
 20
-71.567786155345942
 30
0.0
 11
-118.2460423359074
 21
-71.567786155345942
 31
0.0
  0
LINE
  5
1A879
  8
SU
  6
CONTINUOUS
 62
     3
 10
-126.8473158693884
 20
-71.767786155345931
 30
0.0
 11
-118.36604233590739
 21
-71.767786155345931
 31
0.0
  0
LINE
  5
1A87A
  8
SU
  6
CONTINUOUS
 62
     3
 10
-126.72731586938841
 20
-71.967786155345934
 30
0.0
 11
-118.4860423359076
 21
-71.967786155345934
 31
0.0
  0
LINE
  5
1A87B
  8
SU
  6
CONTINUOUS
 62
     3
 10
-126.6073158693884
 20
-72.167786155345937
 30
0.0
 11
-118.6060423359075
 21
-72.167786155345937
 31
0.0
  0
LINE
  5
1A87C
  8
SU
  6
CONTINUOUS
 62
     3
 10
-126.4873158693884
 20
-72.367786155345925
 30
0.0
 11
-118.72604233590759
 21
-72.367786155345925
 31
0.0
  0
LINE
  5
1A87D
  8
SU
  6
CONTINUOUS
 62
     3
 10
-126.36731586938851
 20
-72.567786155345942
 30
0.0
 11
-118.8460423359076
 21
-72.567786155345942
 31
0.0
  0
LINE
  5
1A87E
  8
SU
  6
CONTINUOUS
 62
     3
 10
-126.2473158693885
 20
-72.767786155345931
 30
0.0
 11
-118.9660423359075
 21
-72.767786155345931
 31
0.0
  0
LINE
  5
1A87F
  8
SU
  6
CONTINUOUS
 62
     3
 10
-126.1273158693885
 20
-72.967786155345948
 30
0.0
 11
-119.08604233590761
 21
-72.967786155345948
 31
0.0
  0
LINE
  5
1A880
  8
SU
  6
CONTINUOUS
 62
     3
 10
-126.00731586938841
 20
-73.167786155345937
 30
0.0
 11
-119.2060423359075
 21
-73.167786155345937
 31
0.0
  0
LINE
  5
1A881
  8
SU
  6
CONTINUOUS
 62
     3
 10
-125.8873158693882
 20
-73.367786155345925
 30
0.0
 11
-119.3260423359076
 21
-73.367786155345925
 31
0.0
  0
LINE
  5
1A882
  8
SU
  6
CONTINUOUS
 62
     3
 10
-125.7673158693884
 20
-73.567786155345942
 30
0.0
 11
-119.44604233590751
 21
-73.567786155345942
 31
0.0
  0
LINE
  5
1A883
  8
SU
  6
CONTINUOUS
 62
     3
 10
-125.64731586938839
 20
-73.767786155345931
 30
0.0
 11
-119.5660423359075
 21
-73.767786155345931
 31
0.0
  0
LINE
  5
1A884
  8
SU
  6
CONTINUOUS
 62
     3
 10
-125.5273158693884
 20
-73.967786155345948
 30
0.0
 11
-119.6860423359074
 21
-73.967786155345948
 31
0.0
  0
LINE
  5
1A885
  8
SU
  6
CONTINUOUS
 62
     3
 10
-125.4073158693884
 20
-74.167786155345937
 30
0.0
 11
-119.80604233590751
 21
-74.167786155345937
 31
0.0
  0
LINE
  5
1A886
  8
SU
  6
CONTINUOUS
 62
     3
 10
-125.28731586938839
 20
-74.367786155345925
 30
0.0
 11
-119.9260423359076
 21
-74.367786155345925
 31
0.0
  0
LINE
  5
1A887
  8
SU
  6
CONTINUOUS
 62
     3
 10
-125.1673158693884
 20
-74.567786155345942
 30
0.0
 11
-120.0460423359074
 21
-74.567786155345942
 31
0.0
  0
LINE
  5
1A888
  8
SU
  6
CONTINUOUS
 62
     3
 10
-125.0473158693885
 20
-74.767786155345931
 30
0.0
 11
-120.16604233590751
 21
-74.767786155345931
 31
0.0
  0
LINE
  5
1A889
  8
SU
  6
CONTINUOUS
 62
     3
 10
-124.92731586938839
 20
-74.967786155345934
 30
0.0
 11
-120.2860423359076
 21
-74.967786155345934
 31
0.0
  0
LINE
  5
1A88A
  8
SU
  6
CONTINUOUS
 62
     3
 10
-124.8073158693885
 20
-75.167786155345937
 30
0.0
 11
-120.4060423359075
 21
-75.167786155345937
 31
0.0
  0
LINE
  5
1A88B
  8
SU
  6
CONTINUOUS
 62
     3
 10
-124.6873158693885
 20
-75.367786155345925
 30
0.0
 11
-120.5260423359076
 21
-75.367786155345925
 31
0.0
  0
LINE
  5
1A88C
  8
SU
  6
CONTINUOUS
 62
     3
 10
-124.56731586938839
 20
-75.567786155345942
 30
0.0
 11
-120.6460423359073
 21
-75.567786155345942
 31
0.0
  0
LINE
  5
1A88D
  8
SU
  6
CONTINUOUS
 62
     3
 10
-124.44731586938831
 20
-75.767786155345931
 30
0.0
 11
-120.7660423359075
 21
-75.767786155345931
 31
0.0
  0
LINE
  5
1A88E
  8
SU
  6
CONTINUOUS
 62
     3
 10
-124.3273158693884
 20
-75.967786155345948
 30
0.0
 11
-120.8860423359075
 21
-75.967786155345948
 31
0.0
  0
LINE
  5
1A88F
  8
SU
  6
CONTINUOUS
 62
     3
 10
-124.2073158693884
 20
-76.167786155345937
 30
0.0
 11
-121.0060423359073
 21
-76.167786155345937
 31
0.0
  0
LINE
  5
1A890
  8
SU
  6
CONTINUOUS
 62
     3
 10
-124.08731586938841
 20
-76.367786155345925
 30
0.0
 11
-121.1260423359076
 21
-76.367786155345925
 31
0.0
  0
LINE
  5
1A891
  8
SU
  6
CONTINUOUS
 62
     3
 10
-123.9673158693884
 20
-76.567786155345942
 30
0.0
 11
-121.2460423359075
 21
-76.567786155345942
 31
0.0
  0
LINE
  5
1A892
  8
SU
  6
CONTINUOUS
 62
     3
 10
-123.8473158693884
 20
-76.767786155345931
 30
0.0
 11
-121.36604233590739
 21
-76.767786155345931
 31
0.0
  0
LINE
  5
1A893
  8
SU
  6
CONTINUOUS
 62
     3
 10
-123.72731586938841
 20
-76.967786155345934
 30
0.0
 11
-121.4860423359076
 21
-76.967786155345934
 31
0.0
  0
LINE
  5
1A894
  8
SU
  6
CONTINUOUS
 62
     3
 10
-123.6073158693884
 20
-77.167786155345937
 30
0.0
 11
-121.6060423359075
 21
-77.167786155345937
 31
0.0
  0
LINE
  5
1A895
  8
SU
  6
CONTINUOUS
 62
     3
 10
-123.4873158693884
 20
-77.367786155345925
 30
0.0
 11
-121.72604233590759
 21
-77.367786155345925
 31
0.0
  0
LINE
  5
1A896
  8
SU
  6
CONTINUOUS
 62
     3
 10
-123.36731586938851
 20
-77.567786155345942
 30
0.0
 11
-121.8460423359075
 21
-77.567786155345942
 31
0.0
  0
LINE
  5
1A897
  8
SU
  6
CONTINUOUS
 62
     3
 10
-123.2473158693885
 20
-77.767786155345931
 30
0.0
 11
-121.9660423359075
 21
-77.767786155345931
 31
0.0
  0
LINE
  5
1A898
  8
SU
  6
CONTINUOUS
 62
     3
 10
-123.1273158693884
 20
-77.967786155345948
 30
0.0
 11
-122.08604233590751
 21
-77.967786155345948
 31
0.0
  0
LINE
  5
1A899
  8
SU
  6
CONTINUOUS
 62
     3
 10
-123.00731586938841
 20
-78.167786155345937
 30
0.0
 11
-122.2060423359075
 21
-78.167786155345937
 31
0.0
  0
LINE
  5
1A89A
  8
SU
  6
CONTINUOUS
 62
     3
 10
-122.8873158693884
 20
-78.367786155345925
 30
0.0
 11
-122.3260423359075
 21
-78.367786155345925
 31
0.0
  0
LINE
  5
1A89B
  8
SU
  6
CONTINUOUS
 62
     3
 10
-122.7673158693884
 20
-78.567786155345942
 30
0.0
 11
-122.44604233590751
 21
-78.567786155345942
 31
0.0
  0
LINE
  5
1A89C
  8
SU
  6
CONTINUOUS
 62
     3
 10
-122.64731586938839
 20
-78.767786155345931
 30
0.0
 11
-122.5660423359075
 21
-78.767786155345931
 31
0.0
  0
TEXT
  5
1A89D
  8
SU
  6
CONTINUOUS
 62
     3
 10
-138.90667910264671
 20
-62.916463652982017
 30
0.0
 40
4.0
  1
5
 50
90.0
 41
0.8299999999999999
  0
TEXT
  5
1A89E
  8
SU
  6
CONTINUOUS
 62
     3
 10
-138.90667910264671
 20
-74.734560305019059
 30
0.0
 40
4.0
  1
15
 50
90.0
 41
0.8299999999999999
  0
LINE
  5
1A89F
  8
SU
  6
CONTINUOUS
 62
     3
 10
-122.64731586938839
 20
151.59291462593171
 30
0.0
 11
-122.5660423359075
 21
151.59291462593171
 31
0.0
  0
LINE
  5
1A8A0
  8
SU
  6
CONTINUOUS
 62
     3
 10
-122.7673158693884
 20
151.39291462593141
 30
0.0
 11
-122.44604233590771
 21
151.39291462593141
 31
0.0
  0
LINE
  5
1A8A1
  8
SU
  6
CONTINUOUS
 62
     3
 10
-122.8873158693884
 20
151.19291462593171
 30
0.0
 11
-122.3260423359075
 21
151.19291462593171
 31
0.0
  0
LINE
  5
1A8A2
  8
SU
  6
CONTINUOUS
 62
     3
 10
-123.00731586938841
 20
150.99291462593169
 30
0.0
 11
-122.2060423359075
 21
150.99291462593169
 31
0.0
  0
LINE
  5
1A8A3
  8
SU
  6
CONTINUOUS
 62
     3
 10
-123.1273158693884
 20
150.79291462593139
 30
0.0
 11
-122.08604233590751
 21
150.79291462593139
 31
0.0
  0
LINE
  5
1A8A4
  8
SU
  6
CONTINUOUS
 62
     3
 10
-123.2473158693881
 20
150.59291462593171
 30
0.0
 11
-121.9660423359075
 21
150.59291462593171
 31
0.0
  0
LINE
  5
1A8A5
  8
SU
  6
CONTINUOUS
 62
     3
 10
-123.36731586938841
 20
150.39291462593141
 30
0.0
 11
-121.8460423359075
 21
150.39291462593141
 31
0.0
  0
LINE
  5
1A8A6
  8
SU
  6
CONTINUOUS
 62
     3
 10
-123.4873158693884
 20
150.19291462593171
 30
0.0
 11
-121.72604233590759
 21
150.19291462593171
 31
0.0
  0
LINE
  5
1A8A7
  8
SU
  6
CONTINUOUS
 62
     3
 10
-123.6073158693884
 20
149.99291462593141
 30
0.0
 11
-121.6060423359075
 21
149.99291462593141
 31
0.0
  0
LINE
  5
1A8A8
  8
SU
  6
CONTINUOUS
 62
     3
 10
-123.72731586938841
 20
149.79291462593139
 30
0.0
 11
-121.4860423359076
 21
149.79291462593139
 31
0.0
  0
LINE
  5
1A8A9
  8
SU
  6
CONTINUOUS
 62
     3
 10
-123.8473158693884
 20
149.59291462593171
 30
0.0
 11
-121.36604233590739
 21
149.59291462593171
 31
0.0
  0
LINE
  5
1A8AA
  8
SU
  6
CONTINUOUS
 62
     3
 10
-123.9673158693884
 20
149.39291462593141
 30
0.0
 11
-121.2460423359075
 21
149.39291462593141
 31
0.0
  0
LINE
  5
1A8AB
  8
SU
  6
CONTINUOUS
 62
     3
 10
-124.08731586938841
 20
149.19291462593171
 30
0.0
 11
-121.1260423359076
 21
149.19291462593171
 31
0.0
  0
LINE
  5
1A8AC
  8
SU
  6
CONTINUOUS
 62
     3
 10
-124.2073158693884
 20
148.99291462593141
 30
0.0
 11
-121.00604233590769
 21
148.99291462593141
 31
0.0
  0
LINE
  5
1A8AD
  8
SU
  6
CONTINUOUS
 62
     3
 10
-124.3273158693884
 20
148.79291462593139
 30
0.0
 11
-120.8860423359075
 21
148.79291462593139
 31
0.0
  0
LINE
  5
1A8AE
  8
SU
  6
CONTINUOUS
 62
     3
 10
-124.44731586938831
 20
148.59291462593171
 30
0.0
 11
-120.7660423359075
 21
148.59291462593171
 31
0.0
  0
LINE
  5
1A8AF
  8
SU
  6
CONTINUOUS
 62
     3
 10
-124.56731586938839
 20
148.39291462593141
 30
0.0
 11
-120.6460423359073
 21
148.39291462593141
 31
0.0
  0
LINE
  5
1A8B0
  8
SU
  6
CONTINUOUS
 62
     3
 10
-124.6873158693884
 20
148.19291462593171
 30
0.0
 11
-120.5260423359076
 21
148.19291462593171
 31
0.0
  0
LINE
  5
1A8B1
  8
SU
  6
CONTINUOUS
 62
     3
 10
-124.8073158693884
 20
147.99291462593141
 30
0.0
 11
-120.4060423359075
 21
147.99291462593141
 31
0.0
  0
LINE
  5
1A8B2
  8
SU
  6
CONTINUOUS
 62
     3
 10
-124.92731586938839
 20
147.7929146259315
 30
0.0
 11
-120.2860423359076
 21
147.7929146259315
 31
0.0
  0
LINE
  5
1A8B3
  8
SU
  6
CONTINUOUS
 62
     3
 10
-125.0473158693884
 20
147.59291462593171
 30
0.0
 11
-120.16604233590751
 21
147.59291462593171
 31
0.0
  0
LINE
  5
1A8B4
  8
SU
  6
CONTINUOUS
 62
     3
 10
-125.1673158693884
 20
147.39291462593141
 30
0.0
 11
-120.0460423359074
 21
147.39291462593141
 31
0.0
  0
LINE
  5
1A8B5
  8
SU
  6
CONTINUOUS
 62
     3
 10
-125.28731586938839
 20
147.19291462593171
 30
0.0
 11
-119.9260423359077
 21
147.19291462593171
 31
0.0
  0
LINE
  5
1A8B6
  8
SU
  6
CONTINUOUS
 62
     3
 10
-125.4073158693884
 20
146.99291462593141
 30
0.0
 11
-119.8060423359077
 21
146.99291462593141
 31
0.0
  0
LINE
  5
1A8B7
  8
SU
  6
CONTINUOUS
 62
     3
 10
-125.5273158693884
 20
146.7929146259315
 30
0.0
 11
-119.6860423359074
 21
146.7929146259315
 31
0.0
  0
LINE
  5
1A8B8
  8
SU
  6
CONTINUOUS
 62
     3
 10
-125.64731586938839
 20
146.59291462593171
 30
0.0
 11
-119.5660423359077
 21
146.59291462593171
 31
0.0
  0
LINE
  5
1A8B9
  8
SU
  6
CONTINUOUS
 62
     3
 10
-125.7673158693884
 20
146.39291462593141
 30
0.0
 11
-119.44604233590751
 21
146.39291462593141
 31
0.0
  0
LINE
  5
1A8BA
  8
SU
  6
CONTINUOUS
 62
     3
 10
-125.8873158693882
 20
146.19291462593171
 30
0.0
 11
-119.3260423359076
 21
146.19291462593171
 31
0.0
  0
LINE
  5
1A8BB
  8
SU
  6
CONTINUOUS
 62
     3
 10
-126.00731586938841
 20
145.99291462593141
 30
0.0
 11
-119.2060423359075
 21
145.99291462593141
 31
0.0
  0
LINE
  5
1A8BC
  8
SU
  6
CONTINUOUS
 62
     3
 10
-126.1273158693884
 20
145.7929146259315
 30
0.0
 11
-119.08604233590761
 21
145.7929146259315
 31
0.0
  0
LINE
  5
1A8BD
  8
SU
  6
CONTINUOUS
 62
     3
 10
-126.2473158693881
 20
145.59291462593171
 30
0.0
 11
-118.9660423359075
 21
145.59291462593171
 31
0.0
  0
LINE
  5
1A8BE
  8
SU
  6
CONTINUOUS
 62
     3
 10
-126.36731586938841
 20
145.39291462593141
 30
0.0
 11
-118.8460423359076
 21
145.39291462593141
 31
0.0
  0
LINE
  5
1A8BF
  8
SU
  6
CONTINUOUS
 62
     3
 10
-126.4873158693884
 20
145.19291462593171
 30
0.0
 11
-118.72604233590759
 21
145.19291462593171
 31
0.0
  0
LINE
  5
1A8C0
  8
SU
  6
CONTINUOUS
 62
     3
 10
-126.6073158693884
 20
144.99291462593141
 30
0.0
 11
-118.6060423359075
 21
144.99291462593141
 31
0.0
  0
LINE
  5
1A8C1
  8
SU
  6
CONTINUOUS
 62
     3
 10
-126.72731586938841
 20
144.7929146259315
 30
0.0
 11
-118.4860423359076
 21
144.7929146259315
 31
0.0
  0
LINE
  5
1A8C2
  8
SU
  6
CONTINUOUS
 62
     3
 10
-126.8473158693884
 20
144.59291462593171
 30
0.0
 11
-118.36604233590739
 21
144.59291462593171
 31
0.0
  0
LINE
  5
1A8C3
  8
SU
  6
CONTINUOUS
 62
     3
 10
-126.9673158693884
 20
144.39291462593141
 30
0.0
 11
-118.2460423359074
 21
144.39291462593141
 31
0.0
  0
LINE
  5
1A8C4
  8
SU
  6
CONTINUOUS
 62
     3
 10
-127.08731586938841
 20
144.19291462593171
 30
0.0
 11
-118.1260423359075
 21
144.19291462593171
 31
0.0
  0
LINE
  5
1A8C5
  8
SU
  6
CONTINUOUS
 62
     3
 10
-127.2073158693884
 20
143.99291462593141
 30
0.0
 11
-118.00604233590769
 21
143.99291462593141
 31
0.0
  0
LINE
  5
1A8C6
  8
SU
  6
CONTINUOUS
 62
     3
 10
-127.3273158693884
 20
143.79291462593159
 30
0.0
 11
-117.8860423359075
 21
143.79291462593159
 31
0.0
  0
LINE
  5
1A8C7
  8
SU
  6
CONTINUOUS
 62
     3
 10
-127.4473158693884
 20
143.59291462593171
 30
0.0
 11
-117.7660423359075
 21
143.59291462593171
 31
0.0
  0
LINE
  5
1A8C8
  8
SU
  6
CONTINUOUS
 62
     3
 10
-127.56731586938839
 20
143.39291462593141
 30
0.0
 11
-117.64604233590759
 21
143.39291462593141
 31
0.0
  0
LINE
  5
1A8C9
  8
SU
  6
CONTINUOUS
 62
     3
 10
-127.6873158693884
 20
143.19291462593171
 30
0.0
 11
-117.52604233590731
 21
143.19291462593171
 31
0.0
  0
LINE
  5
1A8CA
  8
SU
  6
CONTINUOUS
 62
     3
 10
-127.8073158693884
 20
142.99291462593141
 30
0.0
 11
-117.4060423359076
 21
142.99291462593141
 31
0.0
  0
LINE
  5
1A8CB
  8
SU
  6
CONTINUOUS
 62
     3
 10
-127.92731586938839
 20
142.7929146259315
 30
0.0
 11
-117.2860423359076
 21
142.7929146259315
 31
0.0
  0
LINE
  5
1A8CC
  8
SU
  6
CONTINUOUS
 62
     3
 10
-128.0473158693884
 20
142.59291462593171
 30
0.0
 11
-117.16604233590751
 21
142.59291462593171
 31
0.0
  0
LINE
  5
1A8CD
  8
SU
  6
CONTINUOUS
 62
     3
 10
-128.1673158693884
 20
142.39291462593141
 30
0.0
 11
-117.0460423359074
 21
142.39291462593141
 31
0.0
  0
LINE
  5
1A8CE
  8
SU
  6
CONTINUOUS
 62
     3
 10
-128.28731586938841
 20
142.19291462593171
 30
0.0
 11
-116.9260423359075
 21
142.19291462593171
 31
0.0
  0
LINE
  5
1A8CF
  8
SU
  6
CONTINUOUS
 62
     3
 10
-128.40731586938841
 20
141.99291462593141
 30
0.0
 11
-116.8060423359077
 21
141.99291462593141
 31
0.0
  0
LINE
  5
1A8D0
  8
SU
  6
CONTINUOUS
 62
     3
 10
-128.52731586938839
 20
141.7929146259315
 30
0.0
 11
-116.6860423359077
 21
141.7929146259315
 31
0.0
  0
TEXT
  5
1A8D1
  8
SU
  6
CONTINUOUS
 62
     3
 10
-138.90667910264679
 20
136.4196901895464
 30
0.0
 40
4.0
  1
24
 50
90.0
 41
0.8299999999999999
  0
TEXT
  5
1A8D2
  8
SU
  6
CONTINUOUS
 62
     3
 10
-153.9066791026479
 20
135.55552894146439
 30
0.0
 40
4.0
  1
3
 50
90.0
 41
0.8299999999999999
  0
TEXT
  5
1A8D3
  8
SU
  6
CONTINUOUS
 62
     3
 10
-234.08667922071439
 20
-97.53551409992113
 30
0.0
 40
4.0
  1
107
 41
0.8299999999999999
  0
TEXT
  5
1A8D4
  8
SU
  6
CONTINUOUS
 62
     3
 10
-375.90667910264801
 20
-64.497417447876259
 30
0.0
 40
4.0
  1
35
 50
90.0
 41
0.8299999999999999
  0
TEXT
  5
1A8D5
  8
SU
  6
CONTINUOUS
 62
     3
 10
-315.4685839213052
 20
-97.535514099921286
 30
0.0
 40
4.0
  1
57
 41
0.8299999999999999
  0
LINE
  5
1A8D6
  8
SU
  6
CONTINUOUS
 62
     3
 10
-282.60667921615101
 20
-98.835514099921284
 30
0.0
 11
-285.00667921615093
 21
-98.835514099921284
 31
0.0
  0
TEXT
  5
1A8D7
  8
SU
  6
CONTINUOUS
 62
     3
 10
-360.90667910264801
 20
-88.385037909437159
 30
0.0
 40
4.0
  1
15
 50
90.0
 41
0.8299999999999999
  0
TEXT
  5
1A8D8
  8
SU
  6
CONTINUOUS
 62
     3
 10
-360.90667910264801
 20
-56.9974160339344
 30
0.0
 40
4.0
  1
20
 50
90.0
 41
0.8299999999999999
  0
TEXT
  5
1A8D9
  8
SU
  6
CONTINUOUS
 62
     3
 10
-165.66572673082291
 20
-97.535514099920917
 30
0.0
 40
4.0
  1
3
 41
0.8299999999999999
  0
LINE
  5
1A8DA
  8
SU
  6
CONTINUOUS
 62
     3
 10
-175.6066792252785
 20
-98.835514099920942
 30
0.0
 11
-178.0066792252785
 21
-98.835514099920942
 31
0.0
  0
TEXT
  5
1A8DB
  8
SU
  6
CONTINUOUS
 62
     3
 10
-268.11239338836361
 20
72.460642570500184
 30
0.0
 40
4.0
  1
161
 41
0.8299999999999999
  0
TEXT
  5
1A8DC
  8
SU
  6
CONTINUOUS
 62
     3
 10
-246.34763195911489
 20
87.460642570500767
 30
0.0
 40
4.0
  1
24
 41
0.8299999999999999
  0
TEXT
  5
1A8DD
  8
SU
  6
CONTINUOUS
 62
     3
 10
-345.99429815026622
 20
72.460642570500184
 30
0.0
 40
4.0
  1
3
 41
0.8299999999999999
  0
TEXT
  5
1A8DE
  8
SU
  6
CONTINUOUS
 62
     3
 10
-301.39001205501421
 20
87.460642570500724
 30
0.0
 40
4.0
  1
81.5
 41
0.8299999999999999
  0
TEXT
  5
1A8DF
  8
SU
  6
CONTINUOUS
 62
     3
 10
-360.90667910264801
 20
111.74786440540571
 30
0.0
 40
4.0
  1
（20）
 50
90.0
 41
0.8299999999999999
  0
TEXT
  5
1A8E0
  8
SU
  6
CONTINUOUS
 62
     3
 10
-169.38096481693341
 20
72.460642570500426
 30
0.0
 40
4.0
  1
3
 41
0.8299999999999999
  0
TEXT
  5
1A8E1
  8
SU
  6
CONTINUOUS
 62
     3
 10
-203.26858472275879
 20
87.460642570500511
 30
0.0
 40
4.0
  1
40
 41
0.8299999999999999
  0
TEXT
  5
1A8E2
  8
SU
  6
CONTINUOUS
 62
     3
 10
-228.5314427199981
 20
87.460642570500653
 30
0.0
 40
4.0
  1
11
 41
0.8299999999999999
  0
TEXT
  5
1A8E3
  8
SU
  6
CONTINUOUS
 62
     3
 10
-172.3809648169335
 20
87.460642570500511
 30
0.0
 40
4.0
  1
4.5
 41
0.8299999999999999
  0
TEXT
  5
1A8E4
  8
SU
  6
CONTINUOUS
 62
     3
 10
-123.90667898914521
 20
-171.07795228590479
 30
0.0
 40
4.0
  1
H
 50
90.0
 41
0.8299999999999999
  0
TEXT
  5
1A8E5
  8
SU
  6
CONTINUOUS
 62
     3
 10
-138.9066789891437
 20
-177.43319038114311
 30
0.0
 40
4.0
  1
ドアH（DH）
 50
90.0
 41
0.8299999999999999
  0
LINE
  5
1A8E6
  8
SU
  6
CONTINUOUS
 62
     3
 10
-128.52731575588561
 20
-208.7952079004925
 30
0.0
 11
-116.68604222240469
 21
-208.7952079004925
 31
0.0
  0
LINE
  5
1A8E7
  8
SU
  6
CONTINUOUS
 62
     3
 10
-128.40731575588541
 20
-208.99520790049249
 30
0.0
 11
-116.8060422224047
 21
-208.99520790049249
 31
0.0
  0
LINE
  5
1A8E8
  8
SU
  6
CONTINUOUS
 62
     3
 10
-128.2873157558856
 20
-209.19520790049231
 30
0.0
 11
-116.9260422224047
 21
-209.19520790049231
 31
0.0
  0
LINE
  5
1A8E9
  8
SU
  6
CONTINUOUS
 62
     3
 10
-128.16731575588571
 20
-209.39520790049241
 30
0.0
 11
-117.04604222240479
 21
-209.39520790049241
 31
0.0
  0
LINE
  5
1A8EA
  8
SU
  6
CONTINUOUS
 62
     3
 10
-128.04731575588571
 20
-209.59520790049231
 30
0.0
 11
-117.1660422224048
 21
-209.59520790049231
 31
0.0
  0
LINE
  5
1A8EB
  8
SU
  6
CONTINUOUS
 62
     3
 10
-127.9273157558856
 20
-209.7952079004925
 30
0.0
 11
-117.2860422224047
 21
-209.7952079004925
 31
0.0
  0
LINE
  5
1A8EC
  8
SU
  6
CONTINUOUS
 62
     3
 10
-127.8073157558857
 20
-209.99520790049229
 30
0.0
 11
-117.40604222240481
 21
-209.99520790049229
 31
0.0
  0
LINE
  5
1A8ED
  8
SU
  6
CONTINUOUS
 62
     3
 10
-127.68731575588561
 20
-210.19520790049231
 30
0.0
 11
-117.5260422224047
 21
-210.19520790049231
 31
0.0
  0
LINE
  5
1A8EE
  8
SU
  6
CONTINUOUS
 62
     3
 10
-127.5673157558856
 20
-210.3952079004923
 30
0.0
 11
-117.6460422224048
 21
-210.3952079004923
 31
0.0
  0
LINE
  5
1A8EF
  8
SU
  6
CONTINUOUS
 62
     3
 10
-127.4473157558855
 20
-210.5952079004924
 30
0.0
 11
-117.76604222240481
 21
-210.5952079004924
 31
0.0
  0
LINE
  5
1A8F0
  8
SU
  6
CONTINUOUS
 62
     3
 10
-127.32731575588561
 20
-210.7952079004925
 30
0.0
 11
-117.8860422224048
 21
-210.7952079004925
 31
0.0
  0
LINE
  5
1A8F1
  8
SU
  6
CONTINUOUS
 62
     3
 10
-127.2073157558855
 20
-210.99520790049249
 30
0.0
 11
-118.0060422224048
 21
-210.99520790049249
 31
0.0
  0
LINE
  5
1A8F2
  8
SU
  6
CONTINUOUS
 62
     3
 10
-127.0873157558856
 20
-211.19520790049231
 30
0.0
 11
-118.12604222240481
 21
-211.19520790049231
 31
0.0
  0
LINE
  5
1A8F3
  8
SU
  6
CONTINUOUS
 62
     3
 10
-126.96731575588559
 20
-211.39520790049241
 30
0.0
 11
-118.2460422224048
 21
-211.39520790049241
 31
0.0
  0
LINE
  5
1A8F4
  8
SU
  6
CONTINUOUS
 62
     3
 10
-126.8473157558856
 20
-211.59520790049231
 30
0.0
 11
-118.3660422224048
 21
-211.59520790049231
 31
0.0
  0
LINE
  5
1A8F5
  8
SU
  6
CONTINUOUS
 62
     3
 10
-126.7273157558856
 20
-211.7952079004925
 30
0.0
 11
-118.48604222240471
 21
-211.7952079004925
 31
0.0
  0
LINE
  5
1A8F6
  8
SU
  6
CONTINUOUS
 62
     3
 10
-126.60731575588539
 20
-211.99520790049229
 30
0.0
 11
-118.6060422224048
 21
-211.99520790049229
 31
0.0
  0
LINE
  5
1A8F7
  8
SU
  6
CONTINUOUS
 62
     3
 10
-126.4873157558856
 20
-212.19520790049231
 30
0.0
 11
-118.7260422224047
 21
-212.19520790049231
 31
0.0
  0
LINE
  5
1A8F8
  8
SU
  6
CONTINUOUS
 62
     3
 10
-126.3673157558857
 20
-212.3952079004923
 30
0.0
 11
-118.8460422224048
 21
-212.3952079004923
 31
0.0
  0
LINE
  5
1A8F9
  8
SU
  6
CONTINUOUS
 62
     3
 10
-126.24731575588569
 20
-212.5952079004924
 30
0.0
 11
-118.96604222240479
 21
-212.5952079004924
 31
0.0
  0
LINE
  5
1A8FA
  8
SU
  6
CONTINUOUS
 62
     3
 10
-126.1273157558856
 20
-212.7952079004925
 30
0.0
 11
-119.0860422224047
 21
-212.7952079004925
 31
0.0
  0
LINE
  5
1A8FB
  8
SU
  6
CONTINUOUS
 62
     3
 10
-126.0073157558855
 20
-212.99520790049249
 30
0.0
 11
-119.2060422224048
 21
-212.99520790049249
 31
0.0
  0
LINE
  5
1A8FC
  8
SU
  6
CONTINUOUS
 62
     3
 10
-125.8873157558855
 20
-213.19520790049239
 30
0.0
 11
-119.32604222240479
 21
-213.19520790049239
 31
0.0
  0
LINE
  5
1A8FD
  8
SU
  6
CONTINUOUS
 62
     3
 10
-125.7673157558856
 20
-213.39520790049241
 30
0.0
 11
-119.4460422224048
 21
-213.39520790049241
 31
0.0
  0
LINE
  5
1A8FE
  8
SU
  6
CONTINUOUS
 62
     3
 10
-125.6473157558856
 20
-213.5952079004924
 30
0.0
 11
-119.5660422224048
 21
-213.5952079004924
 31
0.0
  0
LINE
  5
1A8FF
  8
SU
  6
CONTINUOUS
 62
     3
 10
-125.5273157558856
 20
-213.7952079004925
 30
0.0
 11
-119.68604222240479
 21
-213.7952079004925
 31
0.0
  0
LINE
  5
1A900
  8
SU
  6
CONTINUOUS
 62
     3
 10
-125.40731575588561
 20
-213.9952079004924
 30
0.0
 11
-119.8060422224047
 21
-213.9952079004924
 31
0.0
  0
LINE
  5
1A901
  8
SU
  6
CONTINUOUS
 62
     3
 10
-125.2873157558856
 20
-214.19520790049231
 30
0.0
 11
-119.9260422224047
 21
-214.19520790049231
 31
0.0
  0
LINE
  5
1A902
  8
SU
  6
CONTINUOUS
 62
     3
 10
-125.1673157558855
 20
-214.39520790049241
 30
0.0
 11
-120.04604222240479
 21
-214.39520790049241
 31
0.0
  0
LINE
  5
1A903
  8
SU
  6
CONTINUOUS
 62
     3
 10
-125.04731575588571
 20
-214.5952079004924
 30
0.0
 11
-120.1660422224047
 21
-214.5952079004924
 31
0.0
  0
LINE
  5
1A904
  8
SU
  6
CONTINUOUS
 62
     3
 10
-124.9273157558856
 20
-214.7952079004925
 30
0.0
 11
-120.2860422224047
 21
-214.7952079004925
 31
0.0
  0
LINE
  5
1A905
  8
SU
  6
CONTINUOUS
 62
     3
 10
-124.8073157558857
 20
-214.99520790049249
 30
0.0
 11
-120.40604222240481
 21
-214.99520790049249
 31
0.0
  0
LINE
  5
1A906
  8
SU
  6
CONTINUOUS
 62
     3
 10
-124.68731575588561
 20
-215.19520790049239
 30
0.0
 11
-120.5260422224047
 21
-215.19520790049239
 31
0.0
  0
LINE
  5
1A907
  8
SU
  6
CONTINUOUS
 62
     3
 10
-124.5673157558855
 20
-215.39520790049241
 30
0.0
 11
-120.6460422224048
 21
-215.39520790049241
 31
0.0
  0
LINE
  5
1A908
  8
SU
  6
CONTINUOUS
 62
     3
 10
-124.4473157558855
 20
-215.5952079004924
 30
0.0
 11
-120.76604222240481
 21
-215.5952079004924
 31
0.0
  0
LINE
  5
1A909
  8
SU
  6
CONTINUOUS
 62
     3
 10
-124.32731575588561
 20
-215.7952079004925
 30
0.0
 11
-120.8860422224048
 21
-215.7952079004925
 31
0.0
  0
LINE
  5
1A90A
  8
SU
  6
CONTINUOUS
 62
     3
 10
-124.2073157558855
 20
-215.9952079004924
 30
0.0
 11
-121.0060422224048
 21
-215.9952079004924
 31
0.0
  0
LINE
  5
1A90B
  8
SU
  6
CONTINUOUS
 62
     3
 10
-124.0873157558856
 20
-216.19520790049231
 30
0.0
 11
-121.12604222240481
 21
-216.19520790049231
 31
0.0
  0
LINE
  5
1A90C
  8
SU
  6
CONTINUOUS
 62
     3
 10
-123.96731575588559
 20
-216.39520790049241
 30
0.0
 11
-121.2460422224048
 21
-216.39520790049241
 31
0.0
  0
LINE
  5
1A90D
  8
SU
  6
CONTINUOUS
 62
     3
 10
-123.8473157558856
 20
-216.59520790049231
 30
0.0
 11
-121.3660422224048
 21
-216.59520790049231
 31
0.0
  0
LINE
  5
1A90E
  8
SU
  6
CONTINUOUS
 62
     3
 10
-123.7273157558856
 20
-216.7952079004925
 30
0.0
 11
-121.48604222240471
 21
-216.7952079004925
 31
0.0
  0
LINE
  5
1A90F
  8
SU
  6
CONTINUOUS
 62
     3
 10
-123.60731575588539
 20
-216.99520790049249
 30
0.0
 11
-121.6060422224048
 21
-216.99520790049249
 31
0.0
  0
LINE
  5
1A910
  8
SU
  6
CONTINUOUS
 62
     3
 10
-123.4873157558856
 20
-217.19520790049239
 30
0.0
 11
-121.7260422224047
 21
-217.19520790049239
 31
0.0
  0
LINE
  5
1A911
  8
SU
  6
CONTINUOUS
 62
     3
 10
-123.3673157558857
 20
-217.39520790049241
 30
0.0
 11
-121.8460422224048
 21
-217.39520790049241
 31
0.0
  0
LINE
  5
1A912
  8
SU
  6
CONTINUOUS
 62
     3
 10
-123.24731575588569
 20
-217.5952079004924
 30
0.0
 11
-121.96604222240479
 21
-217.5952079004924
 31
0.0
  0
LINE
  5
1A913
  8
SU
  6
CONTINUOUS
 62
     3
 10
-123.1273157558856
 20
-217.7952079004925
 30
0.0
 11
-122.0860422224048
 21
-217.7952079004925
 31
0.0
  0
LINE
  5
1A914
  8
SU
  6
CONTINUOUS
 62
     3
 10
-123.0073157558855
 20
-217.9952079004924
 30
0.0
 11
-122.2060422224048
 21
-217.9952079004924
 31
0.0
  0
LINE
  5
1A915
  8
SU
  6
CONTINUOUS
 62
     3
 10
-122.8873157558856
 20
-218.19520790049231
 30
0.0
 11
-122.32604222240479
 21
-218.19520790049231
 31
0.0
  0
LINE
  5
1A916
  8
SU
  6
CONTINUOUS
 62
     3
 10
-122.76731575588551
 20
-218.39520790049241
 30
0.0
 11
-122.4460422224048
 21
-218.39520790049241
 31
0.0
  0
LINE
  5
1A917
  8
SU
  6
CONTINUOUS
 62
     3
 10
-122.6473157558856
 20
-218.59520790049231
 30
0.0
 11
-122.5660422224048
 21
-218.59520790049231
 31
0.0
  0
TEXT
  5
1A918
  8
SU
  6
CONTINUOUS
 62
     3
 10
-123.90667898914521
 20
-228.06198346410781
 30
0.0
 40
4.0
  1
12
 50
90.0
 41
0.8299999999999999
  0
TEXT
  5
1A919
  8
SU
  6
CONTINUOUS
 62
     3
 10
-138.9066789891439
 20
-216.24388822601239
 30
0.0
 40
4.0
  1
8
 50
90.0
 41
0.8299999999999999
  0
TEXT
  5
1A91A
  8
SU
  6
CONTINUOUS
 62
     3
 10
100.3242157861899
 20
-26.733364847754132
 30
0.0
 40
4.0
  1
24
 50
90.0
 41
0.8299999999999999
  0
TEXT
  5
1A91B
  8
SU
  6
CONTINUOUS
 62
     3
 10
160.7270729290471
 20
-166.19241294205
 30
0.0
 40
4.0
  1
W
 41
0.8299999999999999
  0
TEXT
  5
1A91C
  8
SU
  6
CONTINUOUS
 62
     3
 10
252.77850148488881
 20
-136.19241294205
 30
0.0
 40
4.0
  1
4
 41
0.8299999999999999
  0
TEXT
  5
1A91D
  8
SU
  6
CONTINUOUS
 62
     3
 10
141.10745388142811
 20
-151.19241294204991
 30
0.0
 40
4.0
  1
ドアW（DW）＝W-56
 41
0.8299999999999999
  0
TEXT
  5
1A91E
  8
SU
  6
CONTINUOUS
 62
     3
 10
69.1499300874911
 20
-136.19241294205
 30
0.0
 40
4.0
  1
4
 41
0.8299999999999999
  0
TEXT
  5
1A91F
  8
SU
  6
CONTINUOUS
 62
     3
 10
46.383263413030967
 20
-151.19241294204991
 30
0.0
 40
4.0
  1
24
 41
0.8299999999999999
  0
LINE
  5
1A920
  8
SU
  6
CONTINUOUS
 62
     3
 10
37.691943730757252
 20
-167.5330497087902
 30
0.0
 11
37.691943730757252
 21
-167.4517761753095
 31
0.0
  0
LINE
  5
1A921
  8
SU
  6
CONTINUOUS
 62
     3
 10
37.891943730757248
 20
-167.65304970879001
 30
0.0
 11
37.891943730757248
 21
-167.33177617530961
 31
0.0
  0
LINE
  5
1A922
  8
SU
  6
CONTINUOUS
 62
     3
 10
38.091943730757272
 20
-167.77304970879041
 30
0.0
 11
38.091943730757272
 21
-167.21177617530961
 31
0.0
  0
LINE
  5
1A923
  8
SU
  6
CONTINUOUS
 62
     3
 10
38.291943730757261
 20
-167.8930497087903
 30
0.0
 11
38.291943730757261
 21
-167.0917761753096
 31
0.0
  0
LINE
  5
1A924
  8
SU
  6
CONTINUOUS
 62
     3
 10
38.491943730757249
 20
-168.01304970879031
 30
0.0
 11
38.491943730757249
 21
-166.9717761753096
 31
0.0
  0
LINE
  5
1A925
  8
SU
  6
CONTINUOUS
 62
     3
 10
38.691943730757266
 20
-168.13304970879031
 30
0.0
 11
38.691943730757266
 21
-166.85177617530951
 31
0.0
  0
LINE
  5
1A926
  8
SU
  6
CONTINUOUS
 62
     3
 10
38.891943730757241
 20
-168.2530497087904
 30
0.0
 11
38.891943730757241
 21
-166.73177617530951
 31
0.0
  0
LINE
  5
1A927
  8
SU
  6
CONTINUOUS
 62
     3
 10
39.091943730757272
 20
-168.3730497087904
 30
0.0
 11
39.091943730757272
 21
-166.61177617530959
 31
0.0
  0
LINE
  5
1A928
  8
SU
  6
CONTINUOUS
 62
     3
 10
39.291943730757268
 20
-168.49304970879041
 30
0.0
 11
39.291943730757268
 21
-166.49177617530961
 31
0.0
  0
LINE
  5
1A929
  8
SU
  6
CONTINUOUS
 62
     3
 10
39.491943730757249
 20
-168.6130497087903
 30
0.0
 11
39.491943730757249
 21
-166.37177617530961
 31
0.0
  0
LINE
  5
1A92A
  8
SU
  6
CONTINUOUS
 62
     3
 10
39.691943730757252
 20
-168.7330497087903
 30
0.0
 11
39.691943730757252
 21
-166.25177617530929
 31
0.0
  0
LINE
  5
1A92B
  8
SU
  6
CONTINUOUS
 62
     3
 10
39.891943730757241
 20
-168.85304970879039
 30
0.0
 11
39.891943730757241
 21
-166.1317761753096
 31
0.0
  0
LINE
  5
1A92C
  8
SU
  6
CONTINUOUS
 62
     3
 10
40.091943730757272
 20
-168.9730497087904
 30
0.0
 11
40.091943730757272
 21
-166.01177617530951
 31
0.0
  0
LINE
  5
1A92D
  8
SU
  6
CONTINUOUS
 62
     3
 10
40.291943730757282
 20
-169.09304970879009
 30
0.0
 11
40.291943730757282
 21
-165.8917761753095
 31
0.0
  0
LINE
  5
1A92E
  8
SU
  6
CONTINUOUS
 62
     3
 10
40.491943730757242
 20
-169.21304970879041
 30
0.0
 11
40.491943730757242
 21
-165.77177617530961
 31
0.0
  0
LINE
  5
1A92F
  8
SU
  6
CONTINUOUS
 62
     3
 10
40.691943730757266
 20
-169.3330497087903
 30
0.0
 11
40.691943730757266
 21
-165.65177617530961
 31
0.0
  0
LINE
  5
1A930
  8
SU
  6
CONTINUOUS
 62
     3
 10
40.891943730757241
 20
-169.4530497087903
 30
0.0
 11
40.891943730757241
 21
-165.5317761753096
 31
0.0
  0
LINE
  5
1A931
  8
SU
  6
CONTINUOUS
 62
     3
 10
41.091943730757272
 20
-169.57304970879031
 30
0.0
 11
41.091943730757272
 21
-165.41177617530951
 31
0.0
  0
LINE
  5
1A932
  8
SU
  6
CONTINUOUS
 62
     3
 10
41.291943730757247
 20
-169.6930497087904
 30
0.0
 11
41.291943730757247
 21
-165.29177617530951
 31
0.0
  0
LINE
  5
1A933
  8
SU
  6
CONTINUOUS
 62
     3
 10
41.491943730757249
 20
-169.8130497087904
 30
0.0
 11
41.491943730757249
 21
-165.1717761753095
 31
0.0
  0
LINE
  5
1A934
  8
SU
  6
CONTINUOUS
 62
     3
 10
41.691943730757252
 20
-169.93304970879041
 30
0.0
 11
41.691943730757252
 21
-165.05177617530961
 31
0.0
  0
LINE
  5
1A935
  8
SU
  6
CONTINUOUS
 62
     3
 10
41.891943730757241
 20
-170.05304970879041
 30
0.0
 11
41.891943730757241
 21
-164.93177617530961
 31
0.0
  0
LINE
  5
1A936
  8
SU
  6
CONTINUOUS
 62
     3
 10
42.091943730757272
 20
-170.1730497087903
 30
0.0
 11
42.091943730757272
 21
-164.8117761753096
 31
0.0
  0
LINE
  5
1A937
  8
SU
  6
CONTINUOUS
 62
     3
 10
42.291943730757268
 20
-170.29304970879039
 30
0.0
 11
42.291943730757268
 21
-164.6917761753096
 31
0.0
  0
LINE
  5
1A938
  8
SU
  6
CONTINUOUS
 62
     3
 10
42.491943730757249
 20
-170.4130497087904
 30
0.0
 11
42.491943730757249
 21
-164.57177617530959
 31
0.0
  0
LINE
  5
1A939
  8
SU
  6
CONTINUOUS
 62
     3
 10
42.691943730757252
 20
-170.5330497087904
 30
0.0
 11
42.691943730757252
 21
-164.4517761753095
 31
0.0
  0
LINE
  5
1A93A
  8
SU
  6
CONTINUOUS
 62
     3
 10
42.891943730757262
 20
-170.65304970879041
 30
0.0
 11
42.891943730757262
 21
-164.33177617530961
 31
0.0
  0
LINE
  5
1A93B
  8
SU
  6
CONTINUOUS
 62
     3
 10
43.091943730757272
 20
-170.77304970879041
 30
0.0
 11
43.091943730757272
 21
-164.21177617530961
 31
0.0
  0
LINE
  5
1A93C
  8
SU
  6
CONTINUOUS
 62
     3
 10
43.291943730757261
 20
-170.8930497087903
 30
0.0
 11
43.291943730757261
 21
-164.0917761753096
 31
0.0
  0
LINE
  5
1A93D
  8
SU
  6
CONTINUOUS
 62
     3
 10
43.491943730757242
 20
-171.01304970879031
 30
0.0
 11
43.491943730757242
 21
-163.9717761753096
 31
0.0
  0
LINE
  5
1A93E
  8
SU
  6
CONTINUOUS
 62
     3
 10
43.691943730757266
 20
-171.13304970879031
 30
0.0
 11
43.691943730757266
 21
-163.85177617530951
 31
0.0
  0
LINE
  5
1A93F
  8
SU
  6
CONTINUOUS
 62
     3
 10
43.891943730757241
 20
-171.2530497087904
 30
0.0
 11
43.891943730757241
 21
-163.73177617530951
 31
0.0
  0
LINE
  5
1A940
  8
SU
  6
CONTINUOUS
 62
     3
 10
44.091943730757272
 20
-171.3730497087904
 30
0.0
 11
44.091943730757272
 21
-163.61177617530959
 31
0.0
  0
LINE
  5
1A941
  8
SU
  6
CONTINUOUS
 62
     3
 10
44.291943730757261
 20
-171.49304970879041
 30
0.0
 11
44.291943730757261
 21
-163.49177617530961
 31
0.0
  0
LINE
  5
1A942
  8
SU
  6
CONTINUOUS
 62
     3
 10
44.491943730757249
 20
-171.6130497087903
 30
0.0
 11
44.491943730757249
 21
-163.37177617530961
 31
0.0
  0
LINE
  5
1A943
  8
SU
  6
CONTINUOUS
 62
     3
 10
44.691943730757238
 20
-171.7330497087903
 30
0.0
 11
44.691943730757238
 21
-163.2517761753096
 31
0.0
  0
LINE
  5
1A944
  8
SU
  6
CONTINUOUS
 62
     3
 10
44.891943730757248
 20
-171.85304970879039
 30
0.0
 11
44.891943730757248
 21
-163.1317761753096
 31
0.0
  0
LINE
  5
1A945
  8
SU
  6
CONTINUOUS
 62
     3
 10
45.091943730757272
 20
-171.97304970879031
 30
0.0
 11
45.091943730757272
 21
-163.01177617530951
 31
0.0
  0
LINE
  5
1A946
  8
SU
  6
CONTINUOUS
 62
     3
 10
45.291943730757239
 20
-172.0930497087904
 30
0.0
 11
45.291943730757239
 21
-162.89177617530939
 31
0.0
  0
LINE
  5
1A947
  8
SU
  6
CONTINUOUS
 62
     3
 10
45.491943730757242
 20
-172.21304970879041
 30
0.0
 11
45.491943730757242
 21
-162.77177617530961
 31
0.0
  0
LINE
  5
1A948
  8
SU
  6
CONTINUOUS
 62
     3
 10
45.691943730757266
 20
-172.3330497087903
 30
0.0
 11
45.691943730757266
 21
-162.65177617530961
 31
0.0
  0
LINE
  5
1A949
  8
SU
  6
CONTINUOUS
 62
     3
 10
45.891943730757241
 20
-172.4530497087903
 30
0.0
 11
45.891943730757241
 21
-162.5317761753096
 31
0.0
  0
LINE
  5
1A94A
  8
SU
  6
CONTINUOUS
 62
     3
 10
46.091943730757272
 20
-172.57304970879031
 30
0.0
 11
46.091943730757272
 21
-162.4117761753096
 31
0.0
  0
LINE
  5
1A94B
  8
SU
  6
CONTINUOUS
 62
     3
 10
46.291943730757247
 20
-172.6930497087904
 30
0.0
 11
46.291943730757247
 21
-162.29177617530951
 31
0.0
  0
LINE
  5
1A94C
  8
SU
  6
CONTINUOUS
 62
     3
 10
46.491943730757249
 20
-172.8130497087904
 30
0.0
 11
46.491943730757249
 21
-162.17177617530959
 31
0.0
  0
LINE
  5
1A94D
  8
SU
  6
CONTINUOUS
 62
     3
 10
46.691943730757252
 20
-172.93304970879041
 30
0.0
 11
46.691943730757252
 21
-162.05177617530961
 31
0.0
  0
LINE
  5
1A94E
  8
SU
  6
CONTINUOUS
 62
     3
 10
46.891943730757241
 20
-173.05304970879041
 30
0.0
 11
46.891943730757241
 21
-161.93177617530961
 31
0.0
  0
LINE
  5
1A94F
  8
SU
  6
CONTINUOUS
 62
     3
 10
47.091943730757272
 20
-173.1730497087903
 30
0.0
 11
47.091943730757272
 21
-161.8117761753094
 31
0.0
  0
LINE
  5
1A950
  8
SU
  6
CONTINUOUS
 62
     3
 10
47.291943730757239
 20
-173.29304970879031
 30
0.0
 11
47.291943730757239
 21
-161.6917761753096
 31
0.0
  0
LINE
  5
1A951
  8
SU
  6
CONTINUOUS
 62
     3
 10
47.491943730757249
 20
-173.41304970879031
 30
0.0
 11
47.491943730757249
 21
-161.57177617530959
 31
0.0
  0
TEXT
  5
1A952
  8
SU
  6
CONTINUOUS
 62
     3
 10
100.3242157861899
 20
-105.12288913254091
 30
0.0
 40
4.0
  1
7.5
 50
90.0
 41
0.8299999999999999
  0
TEXT
  5
1A953
  8
SU
  6
CONTINUOUS
 62
     3
 10
100.3242157861899
 20
-69.654316847730442
 30
0.0
 40
4.0
  1
40
 50
90.0
 41
0.8299999999999999
  0
TEXT
  5
1A954
  8
SU
  6
CONTINUOUS
 62
     3
 10
100.3242157861899
 20
-43.917173134364567
 30
0.0
 40
4.0
  1
11
 50
90.0
 41
0.8299999999999999
  0
TEXT
  5
1A955
  8
SU
  6
CONTINUOUS
 62
     3
 10
272.38326339744413
 20
-151.19241294204991
 30
0.0
 40
4.0
  1
24
 41
0.8299999999999999
  0
LINE
  5
1A956
  8
SU
  6
CONTINUOUS
 62
     3
 10
277.7564878416228
 20
-173.41304970879031
 30
0.0
 11
277.7564878416228
 21
-161.57177617530959
 31
0.0
  0
LINE
  5
1A957
  8
SU
  6
CONTINUOUS
 62
     3
 10
277.95648784162267
 20
-173.29304970879031
 30
0.0
 11
277.95648784162267
 21
-161.6917761753096
 31
0.0
  0
LINE
  5
1A958
  8
SU
  6
CONTINUOUS
 62
     3
 10
278.15648784162278
 20
-173.1730497087903
 30
0.0
 11
278.15648784162278
 21
-161.8117761753094
 31
0.0
  0
LINE
  5
1A959
  8
SU
  6
CONTINUOUS
 62
     3
 10
278.35648784162282
 20
-173.0530497087903
 30
0.0
 11
278.35648784162282
 21
-161.93177617530961
 31
0.0
  0
LINE
  5
1A95A
  8
SU
  6
CONTINUOUS
 62
     3
 10
278.55648784162281
 20
-172.93304970879001
 30
0.0
 11
278.55648784162281
 21
-162.0517761753097
 31
0.0
  0
LINE
  5
1A95B
  8
SU
  6
CONTINUOUS
 62
     3
 10
278.75648784162269
 20
-172.81304970879029
 30
0.0
 11
278.75648784162269
 21
-162.1717761753097
 31
0.0
  0
LINE
  5
1A95C
  8
SU
  6
CONTINUOUS
 62
     3
 10
278.95648784162279
 20
-172.6930497087904
 30
0.0
 11
278.95648784162279
 21
-162.29177617530971
 31
0.0
  0
LINE
  5
1A95D
  8
SU
  6
CONTINUOUS
 62
     3
 10
279.15648784162278
 20
-172.57304970879031
 30
0.0
 11
279.15648784162278
 21
-162.4117761753096
 31
0.0
  0
LINE
  5
1A95E
  8
SU
  6
CONTINUOUS
 62
     3
 10
279.35648784162288
 20
-172.4530497087903
 30
0.0
 11
279.35648784162288
 21
-162.5317761753096
 31
0.0
  0
LINE
  5
1A95F
  8
SU
  6
CONTINUOUS
 62
     3
 10
279.55648784162281
 20
-172.3330497087903
 30
0.0
 11
279.55648784162281
 21
-162.65177617530961
 31
0.0
  0
LINE
  5
1A960
  8
SU
  6
CONTINUOUS
 62
     3
 10
279.7564878416228
 20
-172.21304970879041
 30
0.0
 11
279.7564878416228
 21
-162.77177617530961
 31
0.0
  0
LINE
  5
1A961
  8
SU
  6
CONTINUOUS
 62
     3
 10
279.95648784162262
 20
-172.0930497087904
 30
0.0
 11
279.95648784162262
 21
-162.89177617530939
 31
0.0
  0
LINE
  5
1A962
  8
SU
  6
CONTINUOUS
 62
     3
 10
280.15648784162278
 20
-171.97304970879031
 30
0.0
 11
280.15648784162278
 21
-163.01177617530951
 31
0.0
  0
LINE
  5
1A963
  8
SU
  6
CONTINUOUS
 62
     3
 10
280.35648784162282
 20
-171.85304970879039
 30
0.0
 11
280.35648784162282
 21
-163.1317761753096
 31
0.0
  0
LINE
  5
1A964
  8
SU
  6
CONTINUOUS
 62
     3
 10
280.55648784162281
 20
-171.7330497087903
 30
0.0
 11
280.55648784162281
 21
-163.2517761753096
 31
0.0
  0
LINE
  5
1A965
  8
SU
  6
CONTINUOUS
 62
     3
 10
280.75648784162269
 20
-171.6130497087903
 30
0.0
 11
280.75648784162269
 21
-163.37177617530961
 31
0.0
  0
LINE
  5
1A966
  8
SU
  6
CONTINUOUS
 62
     3
 10
280.95648784162279
 20
-171.49304970879001
 30
0.0
 11
280.95648784162279
 21
-163.49177617530961
 31
0.0
  0
LINE
  5
1A967
  8
SU
  6
CONTINUOUS
 62
     3
 10
281.15648784162278
 20
-171.37304970879029
 30
0.0
 11
281.15648784162278
 21
-163.6117761753097
 31
0.0
  0
LINE
  5
1A968
  8
SU
  6
CONTINUOUS
 62
     3
 10
281.35648784162288
 20
-171.2530497087902
 30
0.0
 11
281.35648784162288
 21
-163.7317761753097
 31
0.0
  0
LINE
  5
1A969
  8
SU
  6
CONTINUOUS
 62
     3
 10
281.55648784162281
 20
-171.13304970879031
 30
0.0
 11
281.55648784162281
 21
-163.85177617530971
 31
0.0
  0
LINE
  5
1A96A
  8
SU
  6
CONTINUOUS
 62
     3
 10
281.7564878416228
 20
-171.01304970879031
 30
0.0
 11
281.7564878416228
 21
-163.97177617530971
 31
0.0
  0
LINE
  5
1A96B
  8
SU
  6
CONTINUOUS
 62
     3
 10
281.95648784162279
 20
-170.8930497087903
 30
0.0
 11
281.95648784162279
 21
-164.09177617530969
 31
0.0
  0
LINE
  5
1A96C
  8
SU
  6
CONTINUOUS
 62
     3
 10
282.15648784162278
 20
-170.7730497087903
 30
0.0
 11
282.15648784162278
 21
-164.21177617530961
 31
0.0
  0
LINE
  5
1A96D
  8
SU
  6
CONTINUOUS
 62
     3
 10
282.35648784162282
 20
-170.65304970879001
 30
0.0
 11
282.35648784162282
 21
-164.33177617530961
 31
0.0
  0
LINE
  5
1A96E
  8
SU
  6
CONTINUOUS
 62
     3
 10
282.55648784162281
 20
-170.53304970879
 30
0.0
 11
282.55648784162281
 21
-164.4517761753097
 31
0.0
  0
LINE
  5
1A96F
  8
SU
  6
CONTINUOUS
 62
     3
 10
282.75648784162269
 20
-170.4130497087904
 30
0.0
 11
282.75648784162269
 21
-164.57177617530971
 31
0.0
  0
LINE
  5
1A970
  8
SU
  6
CONTINUOUS
 62
     3
 10
282.95648784162262
 20
-170.29304970879039
 30
0.0
 11
282.95648784162262
 21
-164.6917761753096
 31
0.0
  0
LINE
  5
1A971
  8
SU
  6
CONTINUOUS
 62
     3
 10
283.15648784162278
 20
-170.1730497087903
 30
0.0
 11
283.15648784162278
 21
-164.8117761753096
 31
0.0
  0
LINE
  5
1A972
  8
SU
  6
CONTINUOUS
 62
     3
 10
283.35648784162288
 20
-170.0530497087903
 30
0.0
 11
283.35648784162288
 21
-164.93177617530961
 31
0.0
  0
LINE
  5
1A973
  8
SU
  6
CONTINUOUS
 62
     3
 10
283.55648784162281
 20
-169.93304970879029
 30
0.0
 11
283.55648784162281
 21
-165.0517761753097
 31
0.0
  0
LINE
  5
1A974
  8
SU
  6
CONTINUOUS
 62
     3
 10
283.7564878416228
 20
-169.81304970879029
 30
0.0
 11
283.7564878416228
 21
-165.1717761753097
 31
0.0
  0
LINE
  5
1A975
  8
SU
  6
CONTINUOUS
 62
     3
 10
283.95648784162262
 20
-169.6930497087904
 30
0.0
 11
283.95648784162262
 21
-165.29177617530971
 31
0.0
  0
LINE
  5
1A976
  8
SU
  6
CONTINUOUS
 62
     3
 10
284.15648784162278
 20
-169.57304970879031
 30
0.0
 11
284.15648784162278
 21
-165.41177617530951
 31
0.0
  0
LINE
  5
1A977
  8
SU
  6
CONTINUOUS
 62
     3
 10
284.35648784162282
 20
-169.4530497087903
 30
0.0
 11
284.35648784162282
 21
-165.5317761753096
 31
0.0
  0
LINE
  5
1A978
  8
SU
  6
CONTINUOUS
 62
     3
 10
284.55648784162281
 20
-169.3330497087903
 30
0.0
 11
284.55648784162281
 21
-165.65177617530961
 31
0.0
  0
LINE
  5
1A979
  8
SU
  6
CONTINUOUS
 62
     3
 10
284.75648784162269
 20
-169.21304970879041
 30
0.0
 11
284.75648784162269
 21
-165.77177617530961
 31
0.0
  0
LINE
  5
1A97A
  8
SU
  6
CONTINUOUS
 62
     3
 10
284.95648784162262
 20
-169.09304970879001
 30
0.0
 11
284.95648784162262
 21
-165.8917761753095
 31
0.0
  0
LINE
  5
1A97B
  8
SU
  6
CONTINUOUS
 62
     3
 10
285.15648784162278
 20
-168.9730497087904
 30
0.0
 11
285.15648784162278
 21
-166.01177617530951
 31
0.0
  0
LINE
  5
1A97C
  8
SU
  6
CONTINUOUS
 62
     3
 10
285.35648784162282
 20
-168.85304970879039
 30
0.0
 11
285.35648784162282
 21
-166.1317761753096
 31
0.0
  0
LINE
  5
1A97D
  8
SU
  6
CONTINUOUS
 62
     3
 10
285.5564878416227
 20
-168.7330497087903
 30
0.0
 11
285.5564878416227
 21
-166.25177617530929
 31
0.0
  0
LINE
  5
1A97E
  8
SU
  6
CONTINUOUS
 62
     3
 10
285.7564878416228
 20
-168.6130497087903
 30
0.0
 11
285.7564878416228
 21
-166.37177617530961
 31
0.0
  0
LINE
  5
1A97F
  8
SU
  6
CONTINUOUS
 62
     3
 10
285.95648784162262
 20
-168.4930497087901
 30
0.0
 11
285.95648784162262
 21
-166.4917761753097
 31
0.0
  0
LINE
  5
1A980
  8
SU
  6
CONTINUOUS
 62
     3
 10
286.15648784162278
 20
-168.37304970879029
 30
0.0
 11
286.15648784162278
 21
-166.6117761753097
 31
0.0
  0
LINE
  5
1A981
  8
SU
  6
CONTINUOUS
 62
     3
 10
286.35648784162282
 20
-168.2530497087902
 30
0.0
 11
286.35648784162282
 21
-166.73177617530951
 31
0.0
  0
LINE
  5
1A982
  8
SU
  6
CONTINUOUS
 62
     3
 10
286.55648784162281
 20
-168.13304970879031
 30
0.0
 11
286.55648784162281
 21
-166.85177617530971
 31
0.0
  0
LINE
  5
1A983
  8
SU
  6
CONTINUOUS
 62
     3
 10
286.7564878416228
 20
-168.01304970879031
 30
0.0
 11
286.7564878416228
 21
-166.97177617530971
 31
0.0
  0
LINE
  5
1A984
  8
SU
  6
CONTINUOUS
 62
     3
 10
286.95648784162262
 20
-167.8930497087903
 30
0.0
 11
286.95648784162262
 21
-167.09177617530969
 31
0.0
  0
LINE
  5
1A985
  8
SU
  6
CONTINUOUS
 62
     3
 10
287.15648784162278
 20
-167.7730497087903
 30
0.0
 11
287.15648784162278
 21
-167.21177617530961
 31
0.0
  0
LINE
  5
1A986
  8
SU
  6
CONTINUOUS
 62
     3
 10
287.35648784162282
 20
-167.65304970879001
 30
0.0
 11
287.35648784162282
 21
-167.33177617530961
 31
0.0
  0
LINE
  5
1A987
  8
SU
  6
CONTINUOUS
 62
     3
 10
287.5564878416227
 20
-167.5330497087902
 30
0.0
 11
287.5564878416227
 21
-167.4517761753097
 31
0.0
  0
TEXT
  5
1A988
  8
SU
  6
CONTINUOUS
 62
     3
 10
114.3242182347195
 20
-28.19152535785086
 30
0.0
 40
4.0
  1
167
 50
90.0
 41
0.8299999999999999
  0
TEXT
  5
1A989
  8
SU
  6
CONTINUOUS
 62
     3
 10
247.7114538814281
 20
94.307593131811345
 30
0.0
 40
4.0
  1
（20）
 41
0.8299999999999999
  0
TEXT
  5
1A98A
  8
SU
  6
CONTINUOUS
 62
     3
 10
65.711453881428497
 20
94.307593131811231
 30
0.0
 40
4.0
  1
（20）
 41
0.8299999999999999
  0
TEXT
  5
1A98B
  8
SU
  6
CONTINUOUS
 62
     3
 10
100.32421578619051
 20
25.22425329748831
 30
0.0
 40
4.0
  1
84.5
 50
90.0
 41
0.8299999999999999
  0
ARC
  5
1A98C
  8
SU
  6
CONTINUOUS
 62
     3
 10
101.6242157861904
 20
73.00758696564408
 30
0.0
 40
0.2999999999999971
 50
270.0
 51
90.0
  0
ARC
  5
1A98D
  8
SU
  6
CONTINUOUS
 62
     3
 10
101.6242157861904
 20
73.00758696564408
 30
0.0
 40
0.2999999999999971
 50
90.0
 51
270.0
  0
ARC
  5
1A98E
  8
SU
  6
CONTINUOUS
 62
     3
 10
81.624215786190078
 20
93.007593131811262
 30
0.0
 40
0.2999999999999971
 50
180.0
 51
0.0
  0
ARC
  5
1A98F
  8
SU
  6
CONTINUOUS
 62
     3
 10
81.624215786190078
 20
93.007593131811262
 30
0.0
 40
0.2999999999999971
 50
0.0
 51
180.0
  0
ARC
  5
1A990
  8
SU
  6
CONTINUOUS
 62
     3
 10
243.62421578618989
 20
93.007593131811348
 30
0.0
 40
0.3000000000000114
 50
0.0
 51
180.0
  0
ARC
  5
1A991
  8
SU
  6
CONTINUOUS
 62
     3
 10
243.62421578618989
 20
93.007593131811348
 30
0.0
 40
0.3000000000000114
 50
180.0
 51
0.0
  0
ARC
  5
1A992
  8
SU
  6
CONTINUOUS
 62
     3
 10
115.62421823471961
 20
73.00758696564408
 30
0.0
 40
0.2999999999999971
 50
270.0
 51
90.0
  0
ARC
  5
1A993
  8
SU
  6
CONTINUOUS
 62
     3
 10
115.62421823471961
 20
73.00758696564408
 30
0.0
 40
0.2999999999999971
 50
90.0
 51
270.0
  0
ARC
  5
1A994
  8
SU
  6
CONTINUOUS
 62
     3
 10
115.62421823471961
 20
-93.992412942064831
 30
0.0
 40
0.2999999999999971
 50
90.0
 51
270.0
  0
ARC
  5
1A995
  8
SU
  6
CONTINUOUS
 62
     3
 10
115.62421823471961
 20
-93.992412942064831
 30
0.0
 40
0.2999999999999971
 50
270.0
 51
90.0
  0
ARC
  5
1A996
  8
SU
  6
CONTINUOUS
 62
     3
 10
287.62421578618989
 20
-152.49241294205001
 30
0.0
 40
0.3000000000000114
 50
180.0
 51
0.0
  0
ARC
  5
1A997
  8
SU
  6
CONTINUOUS
 62
     3
 10
287.62421578618989
 20
-152.49241294205001
 30
0.0
 40
0.3000000000000114
 50
0.0
 51
180.0
  0
ARC
  5
1A998
  8
SU
  6
CONTINUOUS
 62
     3
 10
101.62421578619011
 20
-46.492411229602709
 30
0.0
 40
0.2999999999999971
 50
90.0
 51
270.0
  0
ARC
  5
1A999
  8
SU
  6
CONTINUOUS
 62
     3
 10
101.62421578619011
 20
-46.492411229602709
 30
0.0
 40
0.2999999999999971
 50
270.0
 51
90.0
  0
ARC
  5
1A99A
  8
SU
  6
CONTINUOUS
 62
     3
 10
101.62421578619011
 20
-35.492411229602702
 30
0.0
 40
0.2999999999999971
 50
270.0
 51
90.0
  0
ARC
  5
1A99B
  8
SU
  6
CONTINUOUS
 62
     3
 10
101.62421578619011
 20
-35.492411229602702
 30
0.0
 40
0.2999999999999971
 50
90.0
 51
270.0
  0
ARC
  5
1A99C
  8
SU
  6
CONTINUOUS
 62
     3
 10
101.62421578619011
 20
-86.492412942048659
 30
0.0
 40
0.2999999999999971
 50
90.0
 51
270.0
  0
ARC
  5
1A99D
  8
SU
  6
CONTINUOUS
 62
     3
 10
101.62421578619011
 20
-86.492412942048659
 30
0.0
 40
0.2999999999999971
 50
270.0
 51
90.0
  0
ARC
  5
1A99E
  8
SU
  6
CONTINUOUS
 62
     3
 10
101.62421578619011
 20
-86.492412942048659
 30
0.0
 40
0.2999999999999971
 50
270.0
 51
90.0
  0
ARC
  5
1A99F
  8
SU
  6
CONTINUOUS
 62
     3
 10
101.62421578619011
 20
-86.492412942048659
 30
0.0
 40
0.2999999999999971
 50
90.0
 51
270.0
  0
ARC
  5
1A9A0
  8
SU
  6
CONTINUOUS
 62
     3
 10
101.62421578619011
 20
-93.992412942064831
 30
0.0
 40
0.2999999999999971
 50
90.0
 51
270.0
  0
ARC
  5
1A9A1
  8
SU
  6
CONTINUOUS
 62
     3
 10
101.62421578619011
 20
-93.992412942064831
 30
0.0
 40
0.2999999999999971
 50
270.0
 51
90.0
  0
ARC
  5
1A9A2
  8
SU
  6
CONTINUOUS
 62
     3
 10
37.624215786189879
 20
-152.49241294205001
 30
0.0
 40
0.2999999999999971
 50
0.0
 51
180.0
  0
ARC
  5
1A9A3
  8
SU
  6
CONTINUOUS
 62
     3
 10
37.624215786189879
 20
-152.49241294205001
 30
0.0
 40
0.2999999999999971
 50
180.0
 51
0.0
  0
ARC
  5
1A9A4
  8
SU
  6
CONTINUOUS
 62
     3
 10
65.624215801776813
 20
-152.49241294205001
 30
0.0
 40
0.2999999999999971
 50
180.0
 51
0.0
  0
ARC
  5
1A9A5
  8
SU
  6
CONTINUOUS
 62
     3
 10
65.624215801776813
 20
-152.49241294205001
 30
0.0
 40
0.2999999999999971
 50
0.0
 51
180.0
  0
ARC
  5
1A9A6
  8
SU
  6
CONTINUOUS
 62
     3
 10
61.624215786189922
 20
-152.49241294205001
 30
0.0
 40
0.2999999999999971
 50
0.0
 51
180.0
  0
ARC
  5
1A9A7
  8
SU
  6
CONTINUOUS
 62
     3
 10
61.624215786189922
 20
-152.49241294205001
 30
0.0
 40
0.2999999999999971
 50
180.0
 51
0.0
  0
ARC
  5
1A9A8
  8
SU
  6
CONTINUOUS
 62
     3
 10
259.62421577060309
 20
-152.49241294205001
 30
0.0
 40
0.3000000000000114
 50
180.0
 51
0.0
  0
ARC
  5
1A9A9
  8
SU
  6
CONTINUOUS
 62
     3
 10
259.62421577060309
 20
-152.49241294205001
 30
0.0
 40
0.3000000000000114
 50
0.0
 51
180.0
  0
ARC
  5
1A9AA
  8
SU
  6
CONTINUOUS
 62
     3
 10
65.624215801777041
 20
-152.49241294205001
 30
0.0
 40
0.2999999999999971
 50
0.0
 51
180.0
  0
ARC
  5
1A9AB
  8
SU
  6
CONTINUOUS
 62
     3
 10
65.624215801777041
 20
-152.49241294205001
 30
0.0
 40
0.2999999999999971
 50
180.0
 51
0.0
  0
ARC
  5
1A9AC
  8
SU
  6
CONTINUOUS
 62
     3
 10
259.62421577060309
 20
-152.49241294205001
 30
0.0
 40
0.3000000000000114
 50
0.0
 51
180.0
  0
ARC
  5
1A9AD
  8
SU
  6
CONTINUOUS
 62
     3
 10
259.62421577060309
 20
-152.49241294205001
 30
0.0
 40
0.3000000000000114
 50
180.0
 51
0.0
  0
ARC
  5
1A9AE
  8
SU
  6
CONTINUOUS
 62
     3
 10
263.62421578619001
 20
-152.49241294205001
 30
0.0
 40
0.3000000000000114
 50
180.0
 51
0.0
  0
ARC
  5
1A9AF
  8
SU
  6
CONTINUOUS
 62
     3
 10
263.62421578619001
 20
-152.49241294205001
 30
0.0
 40
0.3000000000000114
 50
0.0
 51
180.0
  0
ARC
  5
1A9B0
  8
SU
  6
CONTINUOUS
 62
     3
 10
101.62421578619011
 20
-11.49241370400083
 30
0.0
 40
0.3000000000000007
 50
270.0
 51
90.0
  0
ARC
  5
1A9B1
  8
SU
  6
CONTINUOUS
 62
     3
 10
101.62421578619011
 20
-11.49241370400083
 30
0.0
 40
0.3000000000000007
 50
90.0
 51
270.0
  0
ARC
  5
1A9B2
  8
SU
  6
CONTINUOUS
 62
     3
 10
-137.6066789891438
 20
-218.66293584505999
 30
0.0
 40
0.3000000000000114
 50
90.0
 51
270.0
  0
ARC
  5
1A9B3
  8
SU
  6
CONTINUOUS
 62
     3
 10
-137.6066789891438
 20
-218.66293584505999
 30
0.0
 40
0.3000000000000114
 50
270.0
 51
90.0
  0
ARC
  5
1A9B4
  8
SU
  6
CONTINUOUS
 62
     3
 10
-122.60667898914519
 20
-230.66293584505999
 30
0.0
 40
0.3000000000000114
 50
90.0
 51
270.0
  0
ARC
  5
1A9B5
  8
SU
  6
CONTINUOUS
 62
     3
 10
-122.60667898914519
 20
-230.66293584505999
 30
0.0
 40
0.3000000000000114
 50
270.0
 51
90.0
  0
ARC
  5
1A9B6
  8
SU
  6
CONTINUOUS
 62
     3
 10
-137.6066789891438
 20
-210.66293584505999
 30
0.0
 40
0.3000000000000114
 50
90.0
 51
270.0
  0
ARC
  5
1A9B7
  8
SU
  6
CONTINUOUS
 62
     3
 10
-137.6066789891438
 20
-210.66293584505999
 30
0.0
 40
0.3000000000000114
 50
270.0
 51
90.0
  0
ARC
  5
1A9B8
  8
SU
  6
CONTINUOUS
 62
     3
 10
-180.106679102648
 20
86.160642570500514
 30
0.0
 40
0.3000000000000114
 50
0.0
 51
180.0
  0
ARC
  5
1A9B9
  8
SU
  6
CONTINUOUS
 62
     3
 10
-180.106679102648
 20
86.160642570500514
 30
0.0
 40
0.3000000000000114
 50
180.0
 51
0.0
  0
ARC
  5
1A9BA
  8
SU
  6
CONTINUOUS
 62
     3
 10
-175.606679102648
 20
86.160642570500514
 30
0.0
 40
0.3000000000000114
 50
180.0
 51
0.0
  0
ARC
  5
1A9BB
  8
SU
  6
CONTINUOUS
 62
     3
 10
-175.606679102648
 20
86.160642570500514
 30
0.0
 40
0.3000000000000114
 50
0.0
 51
180.0
  0
ARC
  5
1A9BC
  8
SU
  6
CONTINUOUS
 62
     3
 10
-220.10668081511031
 20
86.160642570500656
 30
0.0
 40
0.3000000000000114
 50
180.0
 51
0.0
  0
ARC
  5
1A9BD
  8
SU
  6
CONTINUOUS
 62
     3
 10
-220.10668081511031
 20
86.160642570500656
 30
0.0
 40
0.3000000000000114
 50
0.0
 51
180.0
  0
ARC
  5
1A9BE
  8
SU
  6
CONTINUOUS
 62
     3
 10
-231.1066808153621
 20
86.160642570500656
 30
0.0
 40
0.3000000000000114
 50
0.0
 51
180.0
  0
ARC
  5
1A9BF
  8
SU
  6
CONTINUOUS
 62
     3
 10
-231.1066808153621
 20
86.160642570500656
 30
0.0
 40
0.3000000000000114
 50
180.0
 51
0.0
  0
ARC
  5
1A9C0
  8
SU
  6
CONTINUOUS
 62
     3
 10
-180.10667910659751
 20
86.160642570500514
 30
0.0
 40
0.3000000000000114
 50
180.0
 51
0.0
  0
ARC
  5
1A9C1
  8
SU
  6
CONTINUOUS
 62
     3
 10
-180.10667910659751
 20
86.160642570500514
 30
0.0
 40
0.3000000000000114
 50
0.0
 51
180.0
  0
ARC
  5
1A9C2
  8
SU
  6
CONTINUOUS
 62
     3
 10
-220.10668081511031
 20
86.160642570500514
 30
0.0
 40
0.3000000000000114
 50
0.0
 51
180.0
  0
ARC
  5
1A9C3
  8
SU
  6
CONTINUOUS
 62
     3
 10
-220.10668081511031
 20
86.160642570500514
 30
0.0
 40
0.3000000000000114
 50
180.0
 51
0.0
  0
ARC
  5
1A9C4
  8
SU
  6
CONTINUOUS
 62
     3
 10
-172.606679102648
 20
71.160642570500428
 30
0.0
 40
0.3000000000000114
 50
180.0
 51
0.0
  0
ARC
  5
1A9C5
  8
SU
  6
CONTINUOUS
 62
     3
 10
-172.606679102648
 20
71.160642570500428
 30
0.0
 40
0.3000000000000114
 50
0.0
 51
180.0
  0
ARC
  5
1A9C6
  8
SU
  6
CONTINUOUS
 62
     3
 10
-359.606679102648
 20
127.66064257049879
 30
0.0
 40
0.2999999999999971
 50
270.0
 51
90.0
  0
ARC
  5
1A9C7
  8
SU
  6
CONTINUOUS
 62
     3
 10
-359.606679102648
 20
127.66064257049879
 30
0.0
 40
0.2999999999999971
 50
90.0
 51
270.0
  0
ARC
  5
1A9C8
  8
SU
  6
CONTINUOUS
 62
     3
 10
-359.606679102648
 20
107.66061004983661
 30
0.0
 40
0.2999999999999971
 50
90.0
 51
270.0
  0
ARC
  5
1A9C9
  8
SU
  6
CONTINUOUS
 62
     3
 10
-359.606679102648
 20
107.66061004983661
 30
0.0
 40
0.2999999999999971
 50
270.0
 51
90.0
  0
ARC
  5
1A9CA
  8
SU
  6
CONTINUOUS
 62
     3
 10
-255.10667834071251
 20
86.160642570500684
 30
0.0
 40
0.3000000000000114
 50
180.0
 51
0.0
  0
ARC
  5
1A9CB
  8
SU
  6
CONTINUOUS
 62
     3
 10
-255.10667834071251
 20
86.160642570500684
 30
0.0
 40
0.3000000000000114
 50
0.0
 51
180.0
  0
ARC
  5
1A9CC
  8
SU
  6
CONTINUOUS
 62
     3
 10
-336.60667910264903
 20
86.160642570500684
 30
0.0
 40
0.3000000000000114
 50
0.0
 51
180.0
  0
ARC
  5
1A9CD
  8
SU
  6
CONTINUOUS
 62
     3
 10
-336.60667910264903
 20
86.160642570500684
 30
0.0
 40
0.3000000000000114
 50
180.0
 51
0.0
  0
ARC
  5
1A9CE
  8
SU
  6
CONTINUOUS
 62
     3
 10
-339.60667910264692
 20
71.160642570500187
 30
0.0
 40
0.3000000000000114
 50
0.0
 51
180.0
  0
ARC
  5
1A9CF
  8
SU
  6
CONTINUOUS
 62
     3
 10
-339.60667910264692
 20
71.160642570500187
 30
0.0
 40
0.3000000000000114
 50
180.0
 51
0.0
  0
ARC
  5
1A9D0
  8
SU
  6
CONTINUOUS
 62
     3
 10
-231.1066808153621
 20
86.160642570500798
 30
0.0
 40
0.3000000000000114
 50
180.0
 51
0.0
  0
ARC
  5
1A9D1
  8
SU
  6
CONTINUOUS
 62
     3
 10
-231.1066808153621
 20
86.160642570500798
 30
0.0
 40
0.3000000000000114
 50
0.0
 51
180.0
  0
ARC
  5
1A9D2
  8
SU
  6
CONTINUOUS
 62
     3
 10
-255.1066783409635
 20
86.160642570500798
 30
0.0
 40
0.3000000000000114
 50
0.0
 51
180.0
  0
ARC
  5
1A9D3
  8
SU
  6
CONTINUOUS
 62
     3
 10
-255.1066783409635
 20
86.160642570500798
 30
0.0
 40
0.3000000000000114
 50
180.0
 51
0.0
  0
ARC
  5
1A9D4
  8
SU
  6
CONTINUOUS
 62
     3
 10
-175.606679102648
 20
71.160642570500187
 30
0.0
 40
0.3000000000000114
 50
180.0
 51
0.0
  0
ARC
  5
1A9D5
  8
SU
  6
CONTINUOUS
 62
     3
 10
-175.606679102648
 20
71.160642570500187
 30
0.0
 40
0.3000000000000114
 50
0.0
 51
180.0
  0
ARC
  5
1A9D6
  8
SU
  6
CONTINUOUS
 62
     3
 10
-336.60667910264903
 20
71.160642570500187
 30
0.0
 40
0.3000000000000114
 50
0.0
 51
180.0
  0
ARC
  5
1A9D7
  8
SU
  6
CONTINUOUS
 62
     3
 10
-336.60667910264903
 20
71.160642570500187
 30
0.0
 40
0.3000000000000114
 50
180.0
 51
0.0
  0
ARC
  5
1A9D8
  8
SU
  6
CONTINUOUS
 62
     3
 10
-175.6066792252785
 20
-98.835514099920942
 30
0.0
 40
0.3000000000000114
 50
180.0
 51
0.0
  0
ARC
  5
1A9D9
  8
SU
  6
CONTINUOUS
 62
     3
 10
-175.6066792252785
 20
-98.835514099920942
 30
0.0
 40
0.3000000000000114
 50
0.0
 51
180.0
  0
ARC
  5
1A9DA
  8
SU
  6
CONTINUOUS
 62
     3
 10
-172.60667911177541
 20
-98.835514099920942
 30
0.0
 40
0.3000000000000114
 50
0.0
 51
180.0
  0
ARC
  5
1A9DB
  8
SU
  6
CONTINUOUS
 62
     3
 10
-172.60667911177541
 20
-98.835514099920942
 30
0.0
 40
0.3000000000000114
 50
180.0
 51
0.0
  0
ARC
  5
1A9DC
  8
SU
  6
CONTINUOUS
 62
     3
 10
-359.606679102648
 20
-63.835511272029592
 30
0.0
 40
0.3000000000000043
 50
90.0
 51
270.0
  0
ARC
  5
1A9DD
  8
SU
  6
CONTINUOUS
 62
     3
 10
-359.606679102648
 20
-63.835511272029592
 30
0.0
 40
0.2999999999999971
 50
270.0
 51
90.0
  0
ARC
  5
1A9DE
  8
SU
  6
CONTINUOUS
 62
     3
 10
-359.606679102648
 20
-43.835511272029578
 30
0.0
 40
0.2999999999999971
 50
270.0
 51
90.0
  0
ARC
  5
1A9DF
  8
SU
  6
CONTINUOUS
 62
     3
 10
-359.606679102648
 20
-43.835511272029578
 30
0.0
 40
0.2999999999999971
 50
90.0
 51
270.0
  0
ARC
  5
1A9E0
  8
SU
  6
CONTINUOUS
 62
     3
 10
-359.606679102648
 20
-63.835511272029592
 30
0.0
 40
0.2999999999999971
 50
270.0
 51
90.0
  0
ARC
  5
1A9E1
  8
SU
  6
CONTINUOUS
 62
     3
 10
-359.606679102648
 20
-63.835511272029592
 30
0.0
 40
0.3000000000000043
 50
90.0
 51
270.0
  0
ARC
  5
1A9E2
  8
SU
  6
CONTINUOUS
 62
     3
 10
-359.606679102648
 20
-78.835514099913297
 30
0.0
 40
0.2999999999999971
 50
90.0
 51
270.0
  0
ARC
  5
1A9E3
  8
SU
  6
CONTINUOUS
 62
     3
 10
-359.606679102648
 20
-78.835514099913297
 30
0.0
 40
0.2999999999999971
 50
270.0
 51
90.0
  0
ARC
  5
1A9E4
  8
SU
  6
CONTINUOUS
 62
     3
 10
-282.60667921615101
 20
-98.835514099921284
 30
0.0
 40
0.3000000000000114
 50
180.0
 51
0.0
  0
ARC
  5
1A9E5
  8
SU
  6
CONTINUOUS
 62
     3
 10
-282.60667921615101
 20
-98.835514099921284
 30
0.0
 40
0.3000000000000114
 50
0.0
 51
180.0
  0
ARC
  5
1A9E6
  8
SU
  6
CONTINUOUS
 62
     3
 10
-339.60667910264999
 20
-98.835514099921284
 30
0.0
 40
0.3000000000000114
 50
0.0
 51
180.0
  0
ARC
  5
1A9E7
  8
SU
  6
CONTINUOUS
 62
     3
 10
-339.60667910264999
 20
-98.835514099921284
 30
0.0
 40
0.3000000000000114
 50
180.0
 51
0.0
  0
ARC
  5
1A9E8
  8
SU
  6
CONTINUOUS
 62
     3
 10
-374.606679102648
 20
-78.835514099913297
 30
0.0
 40
0.2999999999999971
 50
90.0
 51
270.0
  0
ARC
  5
1A9E9
  8
SU
  6
CONTINUOUS
 62
     3
 10
-374.606679102648
 20
-78.835514099913297
 30
0.0
 40
0.2999999999999971
 50
270.0
 51
90.0
  0
ARC
  5
1A9EA
  8
SU
  6
CONTINUOUS
 62
     3
 10
-374.606679102648
 20
-43.835511272029571
 30
0.0
 40
0.2999999999999971
 50
270.0
 51
90.0
  0
ARC
  5
1A9EB
  8
SU
  6
CONTINUOUS
 62
     3
 10
-374.606679102648
 20
-43.835511272029571
 30
0.0
 40
0.2999999999999971
 50
90.0
 51
270.0
  0
ARC
  5
1A9EC
  8
SU
  6
CONTINUOUS
 62
     3
 10
-282.60667921615101
 20
-98.835514099921156
 30
0.0
 40
0.3000000000000114
 50
0.0
 51
180.0
  0
ARC
  5
1A9ED
  8
SU
  6
CONTINUOUS
 62
     3
 10
-282.60667921615101
 20
-98.835514099921156
 30
0.0
 40
0.3000000000000114
 50
180.0
 51
0.0
  0
ARC
  5
1A9EE
  8
SU
  6
CONTINUOUS
 62
     3
 10
-175.6066792252785
 20
-98.835514099921156
 30
0.0
 40
0.3000000000000114
 50
180.0
 51
0.0
  0
ARC
  5
1A9EF
  8
SU
  6
CONTINUOUS
 62
     3
 10
-175.6066792252785
 20
-98.835514099921156
 30
0.0
 40
0.3000000000000114
 50
0.0
 51
180.0
  0
ARC
  5
1A9F0
  8
SU
  6
CONTINUOUS
 62
     3
 10
-137.60667910264669
 20
124.66064257049899
 30
0.0
 40
0.2999999999999971
 50
90.0
 51
270.0
  0
ARC
  5
1A9F1
  8
SU
  6
CONTINUOUS
 62
     3
 10
-137.60667910264669
 20
124.66064257049899
 30
0.0
 40
0.2999999999999971
 50
270.0
 51
90.0
  0
ARC
  5
1A9F2
  8
SU
  6
CONTINUOUS
 62
     3
 10
-137.60667910264669
 20
127.66064257049899
 30
0.0
 40
0.2999999999999971
 50
270.0
 51
90.0
  0
ARC
  5
1A9F3
  8
SU
  6
CONTINUOUS
 62
     3
 10
-137.60667910264669
 20
127.66064257049899
 30
0.0
 40
0.2999999999999971
 50
90.0
 51
270.0
  0
ARC
  5
1A9F4
  8
SU
  6
CONTINUOUS
 62
     3
 10
-137.60667910264669
 20
127.66064257049899
 30
0.0
 40
0.2999999999999971
 50
90.0
 51
270.0
  0
ARC
  5
1A9F5
  8
SU
  6
CONTINUOUS
 62
     3
 10
-137.60667910264669
 20
127.66064257049899
 30
0.0
 40
0.2999999999999971
 50
270.0
 51
90.0
  0
ARC
  5
1A9F6
  8
SU
  6
CONTINUOUS
 62
     3
 10
-137.60667910264669
 20
151.66064257049899
 30
0.0
 40
0.3000000000000114
 50
270.0
 51
90.0
  0
ARC
  5
1A9F7
  8
SU
  6
CONTINUOUS
 62
     3
 10
-137.60667910264669
 20
151.66064257049899
 30
0.0
 40
0.3000000000000114
 50
90.0
 51
270.0
  0
ARC
  5
1A9F8
  8
SU
  6
CONTINUOUS
 62
     3
 10
-137.60667910264669
 20
-78.835514099913297
 30
0.0
 40
0.2999999999999971
 50
90.0
 51
270.0
  0
ARC
  5
1A9F9
  8
SU
  6
CONTINUOUS
 62
     3
 10
-137.60667910264669
 20
-78.835514099913297
 30
0.0
 40
0.2999999999999971
 50
270.0
 51
90.0
  0
ARC
  5
1A9FA
  8
SU
  6
CONTINUOUS
 62
     3
 10
-137.60667910264669
 20
-63.83551127202962
 30
0.0
 40
0.3000000000000043
 50
90.0
 51
270.0
  0
ARC
  5
1A9FB
  8
SU
  6
CONTINUOUS
 62
     3
 10
-137.60667910264669
 20
-63.83551127202962
 30
0.0
 40
0.2999999999999971
 50
270.0
 51
90.0
  0
ARC
  5
1A9FC
  8
SU
  6
CONTINUOUS
 62
     3
 10
-137.60667910264669
 20
-58.83551127202962
 30
0.0
 40
0.2999999999999971
 50
90.0
 51
270.0
  0
ARC
  5
1A9FD
  8
SU
  6
CONTINUOUS
 62
     3
 10
-137.60667910264669
 20
-58.83551127202962
 30
0.0
 40
0.2999999999999971
 50
270.0
 51
90.0
  0
ARC
  5
1A9FE
  8
SU
  6
CONTINUOUS
 62
     3
 10
-33.375786681007959
 20
62.00758705793519
 30
0.0
 40
0.2999999999999971
 50
270.0
 51
90.0
  0
ARC
  5
1A9FF
  8
SU
  6
CONTINUOUS
 62
     3
 10
-33.375786681007959
 20
62.00758705793519
 30
0.0
 40
0.2999999999999971
 50
90.0
 51
270.0
  0
ARC
  5
1AA00
  8
SU
  6
CONTINUOUS
 62
     3
 10
-48.375786681008002
 20
62.00758705793519
 30
0.0
 40
0.2999999999999971
 50
90.0
 51
270.0
  0
ARC
  5
1AA01
  8
SU
  6
CONTINUOUS
 62
     3
 10
-48.375786681008002
 20
62.00758705793519
 30
0.0
 40
0.2999999999999971
 50
270.0
 51
90.0
  0
ARC
  5
1AA02
  8
SU
  6
CONTINUOUS
 62
     3
 10
-48.375786681008002
 20
73.007587057936561
 30
0.0
 40
0.2999999999999971
 50
270.0
 51
90.0
  0
ARC
  5
1AA03
  8
SU
  6
CONTINUOUS
 62
     3
 10
-48.375786681008002
 20
73.007587057936561
 30
0.0
 40
0.2999999999999971
 50
90.0
 51
270.0
  0
ARC
  5
1AA04
  8
SU
  6
CONTINUOUS
 62
     3
 10
-48.375786681007959
 20
-82.992412942064789
 30
0.0
 40
0.2999999999999971
 50
270.0
 51
90.0
  0
ARC
  5
1AA05
  8
SU
  6
CONTINUOUS
 62
     3
 10
-48.375786681007959
 20
-82.992412942064789
 30
0.0
 40
0.2999999999999971
 50
90.0
 51
270.0
  0
ARC
  5
1AA06
  8
SU
  6
CONTINUOUS
 62
     3
 10
-48.375786681007959
 20
-93.992413034355778
 30
0.0
 40
0.2999999999999971
 50
90.0
 51
270.0
  0
ARC
  5
1AA07
  8
SU
  6
CONTINUOUS
 62
     3
 10
-48.375786681007959
 20
-93.992413034355778
 30
0.0
 40
0.2999999999999971
 50
270.0
 51
90.0
  0
ARC
  5
1AA08
  8
SU
  6
CONTINUOUS
 62
     3
 10
-33.37578668100798
 20
-82.992412942064789
 30
0.0
 40
0.2999999999999971
 50
90.0
 51
270.0
  0
ARC
  5
1AA09
  8
SU
  6
CONTINUOUS
 62
     3
 10
-33.37578668100798
 20
-82.992412942064789
 30
0.0
 40
0.2999999999999971
 50
270.0
 51
90.0
  0
ARC
  5
1AA0A
  8
SU
  6
CONTINUOUS
 62
     3
 10
-33.375786681008002
 20
-70.492412942064803
 30
0.0
 40
0.2999999999999971
 50
90.0
 51
270.0
  0
ARC
  5
1AA0B
  8
SU
  6
CONTINUOUS
 62
     3
 10
-33.375786681008002
 20
-70.492412942064803
 30
0.0
 40
0.2999999999999971
 50
270.0
 51
90.0
  0
ARC
  5
1AA0C
  8
SU
  6
CONTINUOUS
 62
     3
 10
-33.37578668100798
 20
49.507586965644244
 30
0.0
 40
0.2999999999999971
 50
270.0
 51
90.0
  0
ARC
  5
1AA0D
  8
SU
  6
CONTINUOUS
 62
     3
 10
-33.37578668100798
 20
49.507586965644244
 30
0.0
 40
0.2999999999999971
 50
90.0
 51
270.0
  0
ARC
  5
1AA0E
  8
SU
  6
CONTINUOUS
 62
     3
 10
-183.606679102648
 20
212.66064257050701
 30
0.0
 40
0.3000000000000114
 50
180.0
 51
0.0
  0
ARC
  5
1AA0F
  8
SU
  6
CONTINUOUS
 62
     3
 10
-183.606679102648
 20
212.66064257050701
 30
0.0
 40
0.3000000000000114
 50
0.0
 51
180.0
  0
ARC
  5
1AA10
  8
SU
  6
CONTINUOUS
 62
     3
 10
-183.606679102648
 20
227.66064257050681
 30
0.0
 40
0.3000000000000114
 50
0.0
 51
180.0
  0
ARC
  5
1AA11
  8
SU
  6
CONTINUOUS
 62
     3
 10
-183.606679102648
 20
227.66064257050681
 30
0.0
 40
0.3000000000000114
 50
180.0
 51
0.0
  0
ARC
  5
1AA12
  8
SU
  6
CONTINUOUS
 62
     3
 10
-172.606679102648
 20
227.66064257050681
 30
0.0
 40
0.3000000000000114
 50
180.0
 51
0.0
  0
ARC
  5
1AA13
  8
SU
  6
CONTINUOUS
 62
     3
 10
-172.606679102648
 20
227.66064257050681
 30
0.0
 40
0.3000000000000114
 50
0.0
 51
180.0
  0
ARC
  5
1AA14
  8
SU
  6
CONTINUOUS
 62
     3
 10
263.6242157861904
 20
93.007586965643995
 30
0.0
 40
0.3000000000000114
 50
0.0
 51
180.0
  0
ARC
  5
1AA15
  8
SU
  6
CONTINUOUS
 62
     3
 10
263.6242157861904
 20
93.007586965643995
 30
0.0
 40
0.3000000000000114
 50
180.0
 51
0.0
  0
ARC
  5
1AA16
  8
SU
  6
CONTINUOUS
 62
     3
 10
287.62421578619052
 20
93.007586965643995
 30
0.0
 40
0.3000000000000114
 50
180.0
 51
0.0
  0
ARC
  5
1AA17
  8
SU
  6
CONTINUOUS
 62
     3
 10
287.62421578619052
 20
93.007586965643995
 30
0.0
 40
0.3000000000000114
 50
0.0
 51
180.0
  0
ARC
  5
1AA18
  8
SU
  6
CONTINUOUS
 62
     3
 10
61.624215786190653
 20
93.007586965643995
 30
0.0
 40
0.2999999999999971
 50
180.0
 51
0.0
  0
ARC
  5
1AA19
  8
SU
  6
CONTINUOUS
 62
     3
 10
61.624215786190653
 20
93.007586965643995
 30
0.0
 40
0.2999999999999971
 50
0.0
 51
180.0
  0
ARC
  5
1AA1A
  8
SU
  6
CONTINUOUS
 62
     3
 10
37.624215786190589
 20
93.007586965643995
 30
0.0
 40
0.2999999999999971
 50
0.0
 51
180.0
  0
ARC
  5
1AA1B
  8
SU
  6
CONTINUOUS
 62
     3
 10
37.624215786190589
 20
93.007586965643995
 30
0.0
 40
0.2999999999999971
 50
180.0
 51
0.0
  0
ARC
  5
1AA1C
  8
SU
  6
CONTINUOUS
 62
     3
 10
-328.606679102648
 20
212.66064257050701
 30
0.0
 40
0.3000000000000114
 50
0.0
 51
180.0
  0
ARC
  5
1AA1D
  8
SU
  6
CONTINUOUS
 62
     3
 10
-328.606679102648
 20
212.66064257050701
 30
0.0
 40
0.3000000000000114
 50
180.0
 51
0.0
  0
ARC
  5
1AA1E
  8
SU
  6
CONTINUOUS
 62
     3
 10
-316.106679102648
 20
212.66064257050701
 30
0.0
 40
0.3000000000000114
 50
0.0
 51
180.0
  0
ARC
  5
1AA1F
  8
SU
  6
CONTINUOUS
 62
     3
 10
-316.106679102648
 20
212.66064257050701
 30
0.0
 40
0.3000000000000114
 50
180.0
 51
0.0
  0
ARC
  5
1AA20
  8
SU
  6
CONTINUOUS
 62
     3
 10
-196.106679102648
 20
212.66064257050701
 30
0.0
 40
0.3000000000000114
 50
180.0
 51
0.0
  0
ARC
  5
1AA21
  8
SU
  6
CONTINUOUS
 62
     3
 10
-196.106679102648
 20
212.66064257050701
 30
0.0
 40
0.3000000000000114
 50
0.0
 51
180.0
  0
ARC
  5
1AA22
  8
SU
  6
CONTINUOUS
 62
     3
 10
-328.606679102648
 20
227.66064257050681
 30
0.0
 40
0.3000000000000114
 50
180.0
 51
0.0
  0
ARC
  5
1AA23
  8
SU
  6
CONTINUOUS
 62
     3
 10
-328.606679102648
 20
227.66064257050681
 30
0.0
 40
0.3000000000000114
 50
0.0
 51
180.0
  0
ARC
  5
1AA24
  8
SU
  6
CONTINUOUS
 62
     3
 10
-339.606679102648
 20
227.66064257050681
 30
0.0
 40
0.3000000000000114
 50
0.0
 51
180.0
  0
ARC
  5
1AA25
  8
SU
  6
CONTINUOUS
 62
     3
 10
-339.606679102648
 20
227.66064257050681
 30
0.0
 40
0.3000000000000114
 50
180.0
 51
0.0
  0
ARC
  5
1AA26
  8
SU
  6
CONTINUOUS
 62
     3
 10
-359.606679102648
 20
151.66064257049899
 30
0.0
 40
0.3000000000000114
 50
270.0
 51
90.0
  0
ARC
  5
1AA27
  8
SU
  6
CONTINUOUS
 62
     3
 10
-359.606679102648
 20
151.66064257049899
 30
0.0
 40
0.3000000000000114
 50
90.0
 51
270.0
  0
ENDSEC
  0
EOF
