  0
SECTION
  2
HEADER
  9
$ACADVER
  1
AC1009
  9
$INSBASE
 10
0.0
 20
0.0
 30
0.0
  9
$EXTMIN
 10
-375.40844531847227
 20
-269.33518848444231
 30
-0.0000000000112498
  9
$EXTMAX
 10
338.66717711797349
 20
263.54216133167751
 30
0.0000000000002956
  9
$LIMMIN
 10
-410.0
 20
-286.0
  9
$LIMMAX
 10
408.99999999999989
 20
279.0
  9
$ORTHOMODE
 70
     1
  9
$REGENMODE
 70
     1
  9
$FILLMODE
 70
     1
  9
$QTEXTMODE
 70
     0
  9
$MIRRTEXT
 70
     0
  9
$DRAGMODE
 70
     2
  9
$LTSCALE
 40
1.0
  9
$OSMODE
 70
     0
  9
$ATTMODE
 70
     1
  9
$TEXTSIZE
 40
2.5
  9
$TRACEWID
 40
1.0
  9
$TEXTSTYLE
  7
STANDARD
  9
$CLAYER
  8
0
  9
$CELTYPE
  6
BYLAYER
  9
$CECOLOR
 62
   256
  9
$DIMSCALE
 40
1.0
  9
$DIMASZ
 40
1.5
  9
$DIMEXO
 40
3.0
  9
$DIMDLI
 40
7.0
  9
$DIMRND
 40
0.0
  9
$DIMDLE
 40
0.0
  9
$DIMEXE
 40
1.0
  9
$DIMTP
 40
0.1
  9
$DIMTM
 40
0.1
  9
$DIMTXT
 40
10.0
  9
$DIMCEN
 40
0.0
  9
$DIMTSZ
 40
0.0
  9
$DIMTOL
 70
     0
  9
$DIMLIM
 70
     0
  9
$DIMTIH
 70
     0
  9
$DIMTOH
 70
     0
  9
$DIMSE1
 70
     0
  9
$DIMSE2
 70
     0
  9
$DIMTAD
 70
     1
  9
$DIMZIN
 70
     0
  9
$DIMBLK
  1
DOTSMALL
  9
$DIMASO
 70
     1
  9
$DIMSHO
 70
     1
  9
$DIMPOST
  1

  9
$DIMAPOST
  1
"
  9
$DIMALT
 70
     0
  9
$DIMALTD
 70
     2
  9
$DIMALTF
 40
0.0393701
  9
$DIMLFAC
 40
1.0
  9
$DIMTOFL
 70
     1
  9
$DIMTVP
 40
0.0
  9
$DIMTIX
 70
     0
  9
$DIMSOXD
 70
     0
  9
$DIMSAH
 70
     0
  9
$DIMBLK1
  1

  9
$DIMBLK2
  1

  9
$DIMSTYLE
  2
SANKYO
  9
$DIMCLRD
 70
   256
  9
$DIMCLRE
 70
   256
  9
$DIMCLRT
 70
   256
  9
$DIMTFAC
 40
0.71
  9
$DIMGAP
 40
0.5
  9
$LUNITS
 70
     2
  9
$LUPREC
 70
     4
  9
$SKETCHINC
 40
1.0
  9
$FILLETRAD
 40
0.5
  9
$AUNITS
 70
     0
  9
$AUPREC
 70
     0
  9
$MENU
  1
.
  9
$ELEVATION
 40
0.0
  9
$PELEVATION
 40
0.0
  9
$THICKNESS
 40
0.0
  9
$LIMCHECK
 70
     0
  9
$BLIPMODE
 70
     0
  9
$CHAMFERA
 40
10.0
  9
$CHAMFERB
 40
10.0
  9
$SKPOLY
 70
     0
  9
$TDCREATE
 40
2452388.6082117362
  9
$TDUPDATE
 40
2456027.612605093
  9
$TDINDWG
 40
1.6785049190000001
  9
$TDUSRTIMER
 40
1.6785046875
  9
$USRTIMER
 70
     1
  9
$ANGBASE
 50
0.0
  9
$ANGDIR
 70
     0
  9
$PDMODE
 70
     0
  9
$PDSIZE
 40
0.0
  9
$PLINEWID
 40
0.0
  9
$COORDS
 70
     1
  9
$SPLFRAME
 70
     0
  9
$SPLINETYPE
 70
     6
  9
$SPLINESEGS
 70
     8
  9
$ATTDIA
 70
     0
  9
$ATTREQ
 70
     1
  9
$HANDLING
 70
-16383
  9
$HANDSEED
  5
1A162
  9
$SURFTAB1
 70
     6
  9
$SURFTAB2
 70
     6
  9
$SURFTYPE
 70
     6
  9
$SURFU
 70
     6
  9
$SURFV
 70
     6
  9
$UCSNAME
  2

  9
$UCSORG
 10
0.0
 20
0.0
 30
0.0
  9
$UCSXDIR
 10
1.0
 20
0.0
 30
0.0
  9
$UCSYDIR
 10
0.0
 20
1.0
 30
0.0
  9
$PUCSNAME
  2

  9
$PUCSORG
 10
0.0
 20
0.0
 30
0.0
  9
$PUCSXDIR
 10
1.0
 20
0.0
 30
0.0
  9
$PUCSYDIR
 10
0.0
 20
1.0
 30
0.0
  9
$USERI1
 70
     0
  9
$USERI2
 70
     1
  9
$USERI3
 70
     0
  9
$USERI4
 70
     0
  9
$USERI5
 70
     0
  9
$USERR1
 40
0.0
  9
$USERR2
 40
0.0
  9
$USERR3
 40
0.0
  9
$USERR4
 40
0.0
  9
$USERR5
 40
0.0
  9
$WORLDVIEW
 70
     1
  9
$SHADEDGE
 70
     3
  9
$SHADEDIF
 70
    70
  9
$TILEMODE
 70
     1
  9
$MAXACTVP
 70
    48
  9
$PLIMCHECK
 70
     0
  9
$PEXTMIN
 10
1.0000000000000000E+020
 20
1.0000000000000000E+020
 30
1.0000000000000000E+020
  9
$PEXTMAX
 10
-1.0000000000000000E+020
 20
-1.0000000000000000E+020
 30
-1.0000000000000000E+020
  9
$PLIMMIN
 10
0.0
 20
0.0
  9
$PLIMMAX
 10
420.0
 20
297.0
  9
$UNITMODE
 70
     0
  9
$VISRETAIN
 70
     1
  9
$PLINEGEN
 70
     0
  9
$PSLTSCALE
 70
     1
  0
ENDSEC
  0
SECTION
  2
TABLES
  0
TABLE
  2
VPORT
 70
     2
  0
VPORT
  2
*ACTIVE
 70
     0
 10
0.0
 20
0.0
 11
1.0
 21
1.0
 12
-18.370634100249418
 22
-2.8965135763824028
 13
0.0
 23
0.0
 14
2.5
 24
2.5
 15
10.0
 25
10.0
 16
0.0
 26
0.0
 36
1.0
 17
0.0
 27
0.0
 37
0.0
 40
537.23329545494369
 41
1.3969986357435189
 42
50.0
 43
0.0
 44
0.0
 50
0.0
 51
0.0
 71
    16
 72
   100
 73
     1
 74
     0
 75
     0
 76
     0
 77
     0
 78
     0
  0
ENDTAB
  0
TABLE
  2
LTYPE
 70
    17
  0
LTYPE
  2
CONTINUOUS
 70
     0
  3
Solid line
 72
    65
 73
     0
 40
0.0
  0
LTYPE
  2
CENTER2
 70
     0
  3
Center (.5x) ___ _ ___ _ ___ _ ___ _ ___ _ ___
 72
    65
 73
     4
 40
28.574999999999989
 49
19.050000000000001
 49
-3.174999999999998
 49
3.174999999999998
 49
-3.174999999999998
  0
LTYPE
  2
DASHED2
 70
     0
  3
Dashed (.5x) _ _ _ _ _ _ _ _ _ _ _ _ _ _ _ _ _
 72
    65
 73
     2
 40
9.5249999999999986
 49
6.349999999999997
 49
-3.174999999999998
  0
ENDTAB
  0
TABLE
  2
LAYER
 70
     4
  0
LAYER
  2
0
 70
     0
 62
     7
  6
CONTINUOUS
  0
LAYER
  2
SU
 70
     0
 62
     7
  6
CONTINUOUS
  0
LAYER
  2
KI
 70
     0
 62
     7
  6
CONTINUOUS
  0
LAYER
  2
OS
 70
     0
 62
     7
  6
CONTINUOUS
  0
ENDTAB
  0
TABLE
  2
STYLE
 70
     4
  0
STYLE
  2
STANDARD
 70
     0
 40
0.0
 41
0.8299999999999999
 50
0.0
 71
     0
 42
2.5
  3
txt.shx
  4
extfont.shx
  0
ENDTAB
  0
TABLE
  2
VIEW
 70
     6
  0
VIEW
  2
AM_VIEW1
 70
     0
 40
148.9999998536185
 10
126.61001776470241
 20
223.4999997804278
 41
253.2200355294051
 11
0.0
 21
0.0
 31
1.0
 12
0.0
 22
0.0
 32
0.0
 42
50.0
 43
0.0
 44
0.0
 50
0.0
 71
    16
  0
VIEW
  2
AM_VIEW2
 70
     0
 40
148.9999998536185
 10
294.38998139545481
 20
223.4999997804278
 41
253.2200355294051
 11
0.0
 21
0.0
 31
1.0
 12
0.0
 22
0.0
 32
0.0
 42
50.0
 43
0.0
 44
0.0
 50
0.0
 71
    16
  0
VIEW
  2
AM_VIEW3
 70
     0
 40
148.9999998536185
 10
126.61001776470241
 20
74.499999926809267
 41
253.2200355294051
 11
0.0
 21
0.0
 31
1.0
 12
0.0
 22
0.0
 32
0.0
 42
50.0
 43
0.0
 44
0.0
 50
0.0
 71
    16
  0
VIEW
  2
AM_VIEW4
 70
     0
 40
148.9999998536185
 10
294.38998139545481
 20
74.499999926809267
 41
253.2200355294051
 11
0.0
 21
0.0
 31
1.0
 12
0.0
 22
0.0
 32
0.0
 42
50.0
 43
0.0
 44
0.0
 50
0.0
 71
    16
  0
VIEW
  2
AM_VIEW5
 70
     0
 40
148.9999998536185
 10
210.49999958007871
 20
148.9999998536185
 41
253.2200355294051
 11
0.0
 21
0.0
 31
1.0
 12
0.0
 22
0.0
 32
0.0
 42
50.0
 43
0.0
 44
0.0
 50
0.0
 71
    16
  0
VIEW
  2
AM_VIEW6
 70
     0
 40
297.99701970723982
 10
210.49999958007871
 20
148.9999998536185
 41
506.43500665810018
 11
0.0
 21
0.0
 31
1.0
 12
0.0
 22
0.0
 32
0.0
 42
50.0
 43
0.0
 44
0.0
 50
0.0
 71
    16
  0
ENDTAB
  0
TABLE
  2
UCS
 70
     0
  0
ENDTAB
  0
TABLE
  2
APPID
 70
    22
  0
APPID
  2
ACAD
 70
     0
  0
APPID
  2
MCAD_NO_VIS
 70
     0
  0
APPID
  2
ACAD_TEMP_GRAPHIC
 70
     0
  0
APPID
  2
ACATTRIBSERVICES
 70
     0
  0
APPID
  2
GENIUS_GENDIMSH_14
 70
     0
  0
APPID
  2
GENIUS_GENOLIS_13
 70
     0
  0
APPID
  2
GENIUS_GENOENT_13
 70
     0
  0
APPID
  2
GENIUS_GENODEF_13
 70
     0
  0
APPID
  2
GENIUS_GENOBJ-N-TIT_13
 70
     0
  0
APPID
  2
GENIUS_GENTITLE_13
 70
     0
  0
APPID
  2
GENIUS_GENOREF_13
 70
     0
  0
APPID
  2
GENIUS_GENSCREG_15
 70
     0
  0
APPID
  2
GENIUS_GENOBJ-N-SDF_13
 70
     0
  0
APPID
  2
GENIUS_GENOBJ-N-FIL_13
 70
     0
  0
APPID
  2
GENIUS_GENREC_14
 70
     0
  0
APPID
  2
GENIUS_GENOBJ-N-REC_13
 70
     0
  0
APPID
  2
GENIUS_GENDTOL_13
 70
     0
  0
APPID
  2
GENIUS_GENOBJ-N-CEN_13
 70
     0
  0
APPID
  2
GENIUS_GENOBJ-N-HTC_13
 70
     0
  0
APPID
  2
GENIUS_GENHATCH_13
 70
     0
  0
APPID
  2
GENIUS_GENFIL_13
 70
     0
  0
APPID
  2
GENIUS_GENOBJ-N-CHA_13
 70
     0
  0
ENDTAB
  0
TABLE
  2
DIMSTYLE
 70
     7
  0
DIMSTYLE
  2
SANKYO
 70
     0
  3

  4
"
  5

  6

  7

 40
1.0
 41
2.399999999999999
 42
3.0
 43
7.0
 44
3.0
 45
0.0
 46
0.0
 47
0.1
 48
0.1
140
4.0
141
0.0
142
0.0
143
0.0393701
144
1.0
145
0.0
146
0.71
147
1.3
 71
     0
 72
     0
 73
     0
 74
     0
 75
     0
 76
     0
 77
     1
 78
     8
170
     0
171
     2
172
     1
173
     0
174
     0
175
     0
176
   256
177
   256
178
   256
  0
ENDTAB
  0
ENDSEC
  0
SECTION
  2
BLOCKS
  0
BLOCK
  8
0
  2
$MODEL_SPACE
 70
     0
 10
0.0
 20
0.0
 30
0.0
  3
$MODEL_SPACE
  1

  0
ENDBLK
  5
19BD3
  8
0
  0
BLOCK
 67
     1
  8
0
  2
$PAPER_SPACE
 70
     0
 10
0.0
 20
0.0
 30
0.0
  3
$PAPER_SPACE
  1

  0
ENDBLK
  5
19BCF
 67
     1
  8
0
  0
BLOCK
  8
0
  2
_DOTSMALL
 70
     0
 10
0.0
 20
0.0
 30
0.0
  3
_DOTSMALL
  1

  0
POLYLINE
  5
19C1B
  8
0
  6
BYBLOCK
 62
     0
 66
     1
 10
0.0
 20
0.0
 30
0.0
 70
     1
 40
1.0
 41
1.0
  0
VERTEX
  5
19C1C
  8
0
  6
BYBLOCK
 62
     0
 10
-0.125
 20
0.0
 30
0.0
 42
1.0
  0
VERTEX
  5
19C1D
  8
0
  6
BYBLOCK
 62
     0
 10
0.125
 20
0.0
 30
0.0
 42
1.0
  0
SEQEND
  5
19C1E
  8
0
  6
BYBLOCK
 62
     0
  0
ENDBLK
  5
19C1F
  8
0
  0
ENDSEC
  0
SECTION
  2
ENTITIES
  0
TEXT
  5
19C24
  8
KI
  6
CONTINUOUS
 62
     7
 10
217.70790036644311
 20
-269.30914795167661
 30
0.0
 40
7.0
  1
dt05a007
 41
0.84552428
  0
LINE
  5
19C25
  8
KI
  6
CONTINUOUS
 62
     7
 10
-335.09164836061569
 20
157.79402491078719
 30
0.0
 11
-332.09164836061558
 21
157.79402491078719
 31
0.0
  0
LINE
  5
19C26
  8
KI
  6
CONTINUOUS
 62
     7
 10
-186.09164836061569
 20
157.79402491078719
 30
0.0
 11
-183.09164836061541
 21
157.79402491078719
 31
0.0
  0
TEXT
  5
19C27
  8
KI
  6
CONTINUOUS
 62
     7
 10
218.6672664069456
 20
-251.36442957220399
 30
0.0
 40
7.0
  1
高断熱・高気密ドア
 41
0.84552428
  0
TEXT
  5
19C28
  8
KI
  6
CONTINUOUS
 62
     7
 10
218.6672664069456
 20
-260.36442957220402
 30
0.0
 40
7.0
  1
薄壁枠（ノンケーシング枠）
 41
0.84552428
  0
TEXT
  5
19C29
  8
KI
  6
CONTINUOUS
 62
     7
 10
218.6672664069456
 20
-242.4411371107378
 30
0.0
 40
7.0
  1
D TOS多機能商品シリーズ
 41
0.84552428
  0
TEXT
  5
19C2A
  8
KI
  6
CONTINUOUS
 62
     7
 10
-356.77132033063748
 20
256.50205585984912
 30
0.0
 40
7.0
  1
●標準たて枠
 41
0.84552428
  0
LINE
  5
19C2B
  8
KI
  6
CONTINUOUS
 62
     7
 10
-240.59165007307831
 20
-52.702128931741463
 30
0.0
 11
-240.59165007307871
 21
35.545946575576238
 31
0.0
  0
LINE
  5
19C2C
  8
KI
  6
CONTINUOUS
 62
     7
 10
-190.5916483645652
 20
-52.702128931741463
 30
0.0
 11
-190.5916483645654
 21
35.545946575576238
 31
0.0
  0
LINE
  5
19C2D
  8
KI
  6
CONTINUOUS
 62
     7
 10
-251.5916500733295
 20
-37.702128931741449
 30
0.0
 11
-251.59165007332999
 21
35.545946575576238
 31
0.0
  0
LINE
  5
19C2E
  8
KI
  6
CONTINUOUS
 62
     7
 10
-275.5916475989315
 20
35.545946575576238
 30
0.0
 11
-275.59164759893122
 21
-37.702128931741449
 31
0.0
  0
LINE
  5
19C2F
  8
KI
  6
CONTINUOUS
 62
     7
 10
-183.09164836061711
 20
35.545946575580771
 30
0.0
 11
-183.09164836061541
 21
-60.702131759625161
 31
0.0
  0
LINE
  5
19C30
  8
KI
  6
CONTINUOUS
 62
     7
 10
-335.09164836061791
 20
35.545946575580771
 30
0.0
 11
-335.09164836061649
 21
-60.70213175962607
 31
0.0
  0
LINE
  5
19C31
  8
OS
  6
CONTINUOUS
 62
     2
 10
-293.09164836061569
 20
-60.702131759629481
 30
0.0
 11
-356.09164836061649
 21
-60.702131759625161
 31
0.0
  0
LINE
  5
19C32
  8
OS
  6
CONTINUOUS
 62
     2
 10
-293.09164836061569
 20
-69.702131759629481
 30
0.0
 11
-356.09164836061649
 21
-69.70213175961814
 31
0.0
  0
LINE
  5
19C33
  8
OS
  6
CONTINUOUS
 62
     2
 10
-293.09164836061569
 20
-63.702131759629481
 30
0.0
 11
-356.09164836061649
 21
-63.702131759625161
 31
0.0
  0
LINE
  5
19C34
  8
OS
  6
CONTINUOUS
 62
     2
 10
-293.09164836061569
 20
-66.702131759629481
 30
0.0
 11
-356.09164836061649
 21
-66.702131759625161
 31
0.0
  0
LINE
  5
19C35
  8
SU
  6
CONTINUOUS
 62
     3
 10
-296.35641226305671
 20
-32.155159927795701
 30
0.0
 11
-284.99053869615273
 21
-45.700480541577271
 31
0.0
  0
LINE
  5
19C36
  8
KI
  6
DASHED2
 62
     7
 10
-335.09164836061649
 20
-60.70213175962607
 30
0.0
 11
-335.09164836061649
 21
-72.702131759617885
 31
0.0
  0
LINE
  5
19C37
  8
OS
  6
CONTINUOUS
 62
     2
 10
-293.09164836061569
 20
-72.702131759625161
 30
0.0
 11
-293.09164836061569
 21
-60.702131759633559
 31
0.0
  0
LINE
  5
19C38
  8
KI
  6
CONTINUOUS
 62
     7
 10
-240.59165007307831
 20
-52.702128931741463
 30
0.0
 11
-190.5916483645652
 21
-52.702128931741463
 31
0.0
  0
LINE
  5
19C39
  8
OS
  6
CONTINUOUS
 62
     2
 10
-186.09164836061569
 20
-72.702131759625161
 30
0.0
 11
-186.09164836061569
 21
-60.702131759633559
 31
0.0
  0
LINE
  5
19C3A
  8
KI
  6
DASHED2
 62
     7
 10
-183.09164836061541
 20
-60.702131759625161
 30
0.0
 11
-183.09164836061541
 21
-72.702131759616989
 31
0.0
  0
LINE
  5
19C3B
  8
KI
  6
CONTINUOUS
 62
     7
 10
-335.09164836061649
 20
37.545946575572238
 30
0.0
 11
-335.09164836061422
 21
157.79402491078719
 31
0.0
  0
LINE
  5
19C3C
  8
KI
  6
CONTINUOUS
 62
     7
 10
-275.59164759893122
 20
113.7939923901247
 30
0.0
 11
-275.5916475989315
 21
37.545946575579428
 31
0.0
  0
LINE
  5
19C3D
  8
KI
  6
CONTINUOUS
 62
     7
 10
-251.59165007332999
 20
37.545946575579428
 30
0.0
 11
-251.5916500733295
 21
113.7939923901247
 31
0.0
  0
LINE
  5
19C3E
  8
KI
  6
CONTINUOUS
 62
     7
 10
-240.59165007307831
 20
130.79399239012471
 30
0.0
 11
-240.5916500730784
 21
37.545946575579428
 31
0.0
  0
LINE
  5
19C3F
  8
KI
  6
CONTINUOUS
 62
     7
 10
-190.5916483645652
 20
130.79399239012471
 30
0.0
 11
-190.5916483645654
 21
37.545946575579428
 31
0.0
  0
LINE
  5
19C40
  8
KI
  6
CONTINUOUS
 62
     7
 10
-183.09164836061541
 20
157.79402491078719
 30
0.0
 11
-183.09164836061711
 21
37.545946575572238
 31
0.0
  0
LINE
  5
19C41
  8
KI
  6
CONTINUOUS
 62
     7
 10
-190.5916483645652
 20
130.79399239012471
 30
0.0
 11
-240.59165007307831
 21
130.79399239012471
 31
0.0
  0
LINE
  5
19C42
  8
SU
  6
CONTINUOUS
 62
     3
 10
-333.99229696828991
 20
-32.155159927795701
 30
0.0
 11
-296.35641226305671
 21
-32.155159927795701
 31
0.0
  0
LINE
  5
19C43
  8
OS
  6
CONTINUOUS
 62
     2
 10
-159.09164778841111
 20
-72.702131759625161
 30
0.0
 11
-356.09164836061649
 21
-72.702131759625161
 31
0.0
  0
LINE
  5
19C44
  8
OS
  6
CONTINUOUS
 62
     2
 10
-159.09164778841111
 20
-60.702131759625161
 30
0.0
 11
-186.09164836061569
 21
-60.702131759625161
 31
0.0
  0
LINE
  5
19C45
  8
OS
  6
CONTINUOUS
 62
     2
 10
-159.09164778841111
 20
-69.702131759625161
 30
0.0
 11
-186.09164836061569
 21
-69.702131759625161
 31
0.0
  0
LINE
  5
19C46
  8
OS
  6
CONTINUOUS
 62
     2
 10
-159.09164778841111
 20
-66.702131759625161
 30
0.0
 11
-186.09164836061569
 21
-66.702131759625161
 31
0.0
  0
LINE
  5
19C47
  8
OS
  6
CONTINUOUS
 62
     2
 10
-159.09164778841111
 20
-63.702131759625161
 30
0.0
 11
-186.09164836061569
 21
-63.702131759625161
 31
0.0
  0
LINE
  5
19C48
  8
SU
  6
CONTINUOUS
 62
     3
 10
-310.06186804123621
 20
-236.79068132732709
 30
0.0
 11
-255.602776952407
 21
-236.79068132732709
 31
0.0
  0
LINE
  5
19C49
  8
OS
  6
CONTINUOUS
 62
     2
 10
-159.09164778841111
 20
-221.52955350477191
 30
0.0
 11
-356.09164836061768
 21
-221.52955350477191
 31
0.0
  0
LINE
  5
19C4A
  8
OS
  6
CONTINUOUS
 62
     2
 10
-159.09164778841111
 20
-218.52955350477191
 30
0.0
 11
-356.09164836061768
 21
-218.52955350477191
 31
0.0
  0
LINE
  5
19C4B
  8
OS
  6
CONTINUOUS
 62
     2
 10
-159.09164778841111
 20
-215.52955350477191
 30
0.0
 11
-356.09164836061768
 21
-215.52955350477191
 31
0.0
  0
LINE
  5
19C4C
  8
OS
  6
CONTINUOUS
 62
     2
 10
-159.09164778841111
 20
-212.5295535047718
 30
0.0
 11
-356.09164836061768
 21
-212.5295535047718
 31
0.0
  0
LINE
  5
19C4D
  8
OS
  6
CONTINUOUS
 62
     2
 10
-159.09164778841111
 20
-224.52955350477191
 30
0.0
 11
-356.09164836061768
 21
-224.52955350477191
 31
0.0
  0
LINE
  5
19C4E
  8
KI
  6
CONTINUOUS
 62
     7
 10
-335.09164836061768
 20
-113.88149114836639
 30
0.0
 11
-335.09164836061768
 21
-212.5295535047718
 31
0.0
  0
LINE
  5
19C4F
  8
KI
  6
DASHED2
 62
     7
 10
-335.09164836061768
 20
-212.5295535047718
 30
0.0
 11
-335.09164836061768
 21
-224.52955350476361
 31
0.0
  0
LINE
  5
19C50
  8
KI
  6
CONTINUOUS
 62
     7
 10
-226.84164921882191
 20
-155.77955350477191
 30
0.0
 11
-226.84164921882191
 21
-204.52955350477191
 31
0.0
  0
LINE
  5
19C51
  8
KI
  6
CONTINUOUS
 62
     7
 10
-204.34164921882191
 20
-155.77955350477191
 30
0.0
 11
-204.34164921882191
 21
-204.52955350477191
 31
0.0
  0
LINE
  5
19C52
  8
KI
  6
CONTINUOUS
 62
     7
 10
-251.5916500733295
 20
-212.5295535047718
 30
0.0
 11
-251.59165007332999
 21
-113.88149114836639
 31
0.0
  0
LINE
  5
19C53
  8
KI
  6
CONTINUOUS
 62
     7
 10
-275.5916475989315
 20
-113.88149114836639
 30
0.0
 11
-275.59164759893122
 21
-212.5295535047718
 31
0.0
  0
LINE
  5
19C54
  8
KI
  6
CONTINUOUS
 62
     7
 10
-240.59165007307831
 20
-204.52955350477191
 30
0.0
 11
-240.5916500730784
 21
-113.88149114836639
 31
0.0
  0
LINE
  5
19C55
  8
KI
  6
CONTINUOUS
 62
     7
 10
-190.5916483645652
 20
-204.52955350477191
 30
0.0
 11
-190.5916483645654
 21
-113.88149114836639
 31
0.0
  0
LINE
  5
19C56
  8
KI
  6
CONTINUOUS
 62
     7
 10
-183.09164836061541
 20
-113.88149114836639
 30
0.0
 11
-183.09164836061541
 21
-212.5295535047718
 31
0.0
  0
LINE
  5
19C57
  8
SU
  6
CONTINUOUS
 62
     3
 10
-255.602776952407
 20
-236.79068132732709
 30
0.0
 11
-226.84164921882191
 21
-208.02955350477191
 31
0.0
  0
LINE
  5
19C58
  8
KI
  6
DASHED2
 62
     7
 10
-183.09164836061541
 20
-212.5295535047718
 30
0.0
 11
-183.09164836061541
 21
-224.52955350476361
 31
0.0
  0
LINE
  5
19C59
  8
KI
  6
CONTINUOUS
 62
     7
 10
-208.09164921882191
 20
-204.52955350477191
 30
0.0
 11
-190.5916483645652
 21
-204.52955350477191
 31
0.0
  0
LINE
  5
19C5A
  8
KI
  6
CONTINUOUS
 62
     7
 10
-223.09164921882191
 20
-204.52955350477191
 30
0.0
 11
-223.09164921882191
 21
-174.02955350477191
 31
0.0
  0
LINE
  5
19C5B
  8
KI
  6
CONTINUOUS
 62
     7
 10
-208.09164921882191
 20
-204.52955350477191
 30
0.0
 11
-208.09164921882191
 21
-174.02955350477191
 31
0.0
  0
LINE
  5
19C5C
  8
KI
  6
CONTINUOUS
 62
     7
 10
-240.59165007307831
 20
-204.52955350477191
 30
0.0
 11
-223.09164921882191
 21
-204.52955350477191
 31
0.0
  0
LINE
  5
19C5D
  8
KI
  6
CONTINUOUS
 62
     7
 10
-208.09164921882191
 20
-174.02955350477191
 30
0.0
 11
-223.09164921882191
 21
-174.02955350477191
 31
0.0
  0
ARC
  5
19C5E
  8
KI
  6
CONTINUOUS
 62
     7
 10
-215.59164921882191
 20
-155.77955350477191
 30
0.0
 40
11.25
 50
0.0
 51
180.0
  0
LINE
  5
19C5F
  8
KI
  6
CONTINUOUS
 62
     7
 10
259.6242157861904
 20
-16.773274343993641
 30
0.0
 11
163.6242157861904
 21
-16.773274343993641
 31
0.0
  0
LINE
  5
19C60
  8
KI
  6
CONTINUOUS
 62
     7
 10
259.6242157861904
 20
-66.773276052506716
 30
0.0
 11
163.6242157861904
 21
-66.773276052506716
 31
0.0
  0
LINE
  5
19C61
  8
KI
  6
CONTINUOUS
 62
     7
 10
161.6242157861904
 20
-5.7732743439936467
 30
0.0
 11
81.624215786190618
 21
-5.7732743439936414
 31
0.0
  0
LINE
  5
19C62
  8
KI
  6
CONTINUOUS
 62
     7
 10
67.624223916356129
 20
-16.773274343993641
 30
0.0
 11
161.6242157861904
 21
-16.773274343993641
 31
0.0
  0
LINE
  5
19C63
  8
KI
  6
CONTINUOUS
 62
     7
 10
65.624221206301115
 20
-66.773276052506716
 30
0.0
 11
161.6242157861904
 21
-66.773276052506716
 31
0.0
  0
LINE
  5
19C64
  8
KI
  6
CONTINUOUS
 62
     7
 10
65.624221206301115
 20
-66.773276052506716
 30
0.0
 11
67.624223916356129
 21
-16.773274343993641
 31
0.0
  0
LINE
  5
19C65
  8
KI
  6
CONTINUOUS
 62
     7
 10
163.6242157861904
 20
-5.7732743439936467
 30
0.0
 11
243.6242157861904
 21
-5.7732743439936467
 31
0.0
  0
LINE
  5
19C66
  8
KI
  6
CONTINUOUS
 62
     7
 10
259.6242157861904
 20
-16.773274343993641
 30
0.0
 11
259.6242157861904
 21
-66.773276052506716
 31
0.0
  0
LINE
  5
19C67
  8
KI
  6
CONTINUOUS
 62
     7
 10
81.624215786190618
 20
18.226723181608222
 30
0.0
 11
161.6242157861904
 21
18.226723181608222
 31
0.0
  0
LINE
  5
19C68
  8
KI
  6
CONTINUOUS
 62
     7
 10
243.6242157861904
 20
18.226723181608222
 30
0.0
 11
163.6242157861904
 21
18.226723181608222
 31
0.0
  0
LINE
  5
19C69
  8
KI
  6
CONTINUOUS
 62
     7
 10
263.6242157861904
 20
35.726723943544243
 30
0.0
 11
163.6242157861904
 21
35.726723943544243
 31
0.0
  0
LINE
  5
19C6A
  8
KI
  6
CONTINUOUS
 62
     7
 10
61.624215786190632
 20
35.726723943544243
 30
0.0
 11
161.6242157861904
 21
35.726723943544243
 31
0.0
  0
LINE
  5
19C6B
  8
KI
  6
CONTINUOUS
 62
     7
 10
263.6242157861904
 20
35.726723943544243
 30
0.0
 11
163.6242157861904
 21
35.726723943544243
 31
0.0
  0
LINE
  5
19C6C
  8
KI
  6
CONTINUOUS
 62
     7
 10
61.624215786190632
 20
35.726723943544243
 30
0.0
 11
161.6242157861904
 21
35.726723943544243
 31
0.0
  0
LINE
  5
19C6D
  8
KI
  6
CONTINUOUS
 62
     7
 10
256.81603256421761
 20
-71.273276056455771
 30
0.0
 11
163.6242157861904
 21
-71.273276056455771
 31
0.0
  0
LINE
  5
19C6E
  8
KI
  6
CONTINUOUS
 62
     7
 10
61.624215786190632
 20
-71.273276056455771
 30
0.0
 11
161.6242157861904
 21
-71.273276056455771
 31
0.0
  0
LINE
  5
19C6F
  8
KI
  6
CONTINUOUS
 62
     7
 10
261.32421578619022
 20
-71.273276056455771
 30
0.0
 11
259.13007649192349
 21
-71.273276056455771
 31
0.0
  0
LINE
  5
19C70
  8
KI
  6
CONTINUOUS
 62
     7
 10
263.6242157861904
 20
22.226723943544211
 30
0.0
 11
163.6242157861904
 21
22.226723943544211
 31
0.0
  0
LINE
  5
19C71
  8
KI
  6
CONTINUOUS
 62
     7
 10
263.6242157861904
 20
22.226723943544211
 30
0.0
 11
163.6242157861904
 21
22.226723943544211
 31
0.0
  0
LINE
  5
19C72
  8
KI
  6
CONTINUOUS
 62
     7
 10
61.624215786190632
 20
22.226723943544211
 30
0.0
 11
161.6242157861904
 21
22.226723943544211
 31
0.0
  0
LINE
  5
19C73
  8
KI
  6
CONTINUOUS
 62
     7
 10
61.624215786190632
 20
22.226723943544211
 30
0.0
 11
161.6242157861904
 21
22.226723943544211
 31
0.0
  0
LINE
  5
19C74
  8
OS
  6
CONTINUOUS
 62
     2
 10
-293.09164957975543
 20
-60.908193094118197
 30
0.0
 11
-269.88558599121041
 21
-37.702129505574888
 31
0.0
  0
LINE
  5
19C75
  8
OS
  6
CONTINUOUS
 62
     2
 10
-195.99114451636709
 20
-72.702132333458451
 30
0.0
 11
-186.09164957975511
 21
-62.802637396846698
 31
0.0
  0
LINE
  5
19C76
  8
OS
  6
CONTINUOUS
 62
     2
 10
-205.89063945297869
 20
-72.702132333458565
 30
0.0
 11
-190.89063662509469
 21
-57.702129505574852
 31
0.0
  0
LINE
  5
19C77
  8
OS
  6
CONTINUOUS
 62
     2
 10
-225.68962932620221
 20
-72.702132333458493
 30
0.0
 11
-210.68962649831849
 21
-57.702129505574852
 31
0.0
  0
LINE
  5
19C78
  8
OS
  6
CONTINUOUS
 62
     2
 10
-235.5891242628139
 20
-72.70213233345855
 30
0.0
 11
-220.58912143492989
 21
-57.702129505574852
 31
0.0
  0
LINE
  5
19C79
  8
OS
  6
CONTINUOUS
 62
     2
 10
-255.3881141360371
 20
-72.702132333458451
 30
0.0
 11
-240.38811130815361
 21
-57.702129505574852
 31
0.0
  0
LINE
  5
19C7A
  8
OS
  6
CONTINUOUS
 62
     2
 10
-245.4886191994257
 20
-72.702132333458565
 30
0.0
 11
-230.48861637154181
 21
-57.702129505574852
 31
0.0
  0
LINE
  5
19C7B
  8
OS
  6
CONTINUOUS
 62
     2
 10
-215.79013438959041
 20
-72.702132333458451
 30
0.0
 11
-200.79013156170669
 21
-57.702129505574888
 31
0.0
  0
LINE
  5
19C7C
  8
OS
  6
CONTINUOUS
 62
     2
 10
-275.18710400926022
 20
-72.702132333458351
 30
0.0
 11
-251.5916522260041
 21
-49.106680550202199
 31
0.0
  0
LINE
  5
19C7D
  8
OS
  6
CONTINUOUS
 62
     2
 10
-265.28760907264871
 20
-72.702132333458493
 30
0.0
 11
-250.28760624476479
 21
-57.702129505574852
 31
0.0
  0
LINE
  5
19C7E
  8
OS
  6
CONTINUOUS
 62
     2
 10
-285.08659894587203
 20
-72.702132333458451
 30
0.0
 11
-251.5916522260041
 21
-39.207185613590511
 31
0.0
  0
LINE
  5
19C7F
  8
OS
  6
CONTINUOUS
 62
     2
 10
-293.09164957975543
 20
-70.807688030730034
 30
0.0
 11
-259.98609105459991
 21
-37.702129505574852
 31
0.0
  0
LINE
  5
19C80
  8
KI
  6
CONTINUOUS
 62
     7
 10
-279.59165222600382
 20
-37.702129505574852
 30
0.0
 11
-251.5916522260041
 21
-37.702129505574852
 31
0.0
  0
LINE
  5
19C81
  8
KI
  6
CONTINUOUS
 62
     7
 10
-293.09164957975543
 20
-57.702129505574852
 30
0.0
 11
-279.59165222600382
 21
-37.702129505574852
 31
0.0
  0
LINE
  5
19C82
  8
KI
  6
CONTINUOUS
 62
     7
 10
-293.09164957975543
 20
-57.702129505574852
 30
0.0
 11
-293.09164957975543
 21
-72.702132333458565
 31
0.0
  0
LINE
  5
19C83
  8
KI
  6
CONTINUOUS
 62
     7
 10
-251.5916522260041
 20
-57.702129505574852
 30
0.0
 11
-186.09164957975511
 21
-57.702129505574852
 31
0.0
  0
LINE
  5
19C84
  8
KI
  6
CONTINUOUS
 62
     7
 10
-251.5916522260041
 20
-57.702129505574852
 30
0.0
 11
-251.5916522260041
 21
-37.702129505574852
 31
0.0
  0
LINE
  5
19C85
  8
KI
  6
CONTINUOUS
 62
     7
 10
-186.09164957975511
 20
-57.702129505574852
 30
0.0
 11
-186.09164957975511
 21
-72.702132333458565
 31
0.0
  0
LINE
  5
19C86
  8
KI
  6
CONTINUOUS
 62
     7
 10
-293.09164957975543
 20
-72.702132333458565
 30
0.0
 11
-186.09164957975511
 21
-72.702132333458565
 31
0.0
  0
LINE
  5
19C87
  8
KI
  6
CONTINUOUS
 62
     7
 10
-251.0916462257521
 20
-37.702094510514307
 30
0.0
 11
-248.86555349452351
 21
-37.702094510513852
 31
0.0
  0
ARC
  5
19C88
  8
KI
  6
CONTINUOUS
 62
     7
 10
-241.58362317609661
 20
-49.26297040066418
 30
0.0
 40
9.2190722294335075
 50
182.80468734044729
 51
234.37413182448421
  0
LINE
  5
19C89
  8
KI
  6
CONTINUOUS
 62
     7
 10
-251.3916522257523
 20
-42.363176072236172
 30
0.0
 11
-250.7916462257524
 21
-41.763170072236008
 31
0.0
  0
LINE
  5
19C8A
  8
KI
  6
CONTINUOUS
 62
     7
 10
-250.7916462257518
 20
-44.452104510513607
 30
0.0
 11
-250.7916462257518
 21
-38.702094510514307
 31
0.0
  0
LINE
  5
19C8B
  8
KI
  6
CONTINUOUS
 62
     7
 10
-251.59165222575211
 20
-47.702094510513383
 30
0.0
 11
-251.5916522257528
 21
-39.702094510514307
 31
0.0
  0
LINE
  5
19C8C
  8
KI
  6
CONTINUOUS
 62
     7
 10
-251.59165222575311
 20
-42.563176072236431
 30
0.0
 11
-251.3916522257523
 21
-42.363176072236172
 31
0.0
  0
LINE
  5
19C8D
  8
KI
  6
CONTINUOUS
 62
     7
 10
-251.3916522257523
 20
-43.261201684342893
 30
0.0
 11
-250.7916462257528
 21
-42.661195684342772
 31
0.0
  0
LINE
  5
19C8E
  8
KI
  6
CONTINUOUS
 62
     7
 10
-251.59165222575311
 20
-43.4612016843436
 30
0.0
 11
-251.3916522257523
 21
-43.261201684342893
 31
0.0
  0
LINE
  5
19C8F
  8
KI
  6
CONTINUOUS
 62
     7
 10
-251.39165222575161
 20
-44.159227296450062
 30
0.0
 11
-250.7916462257518
 21
-43.559221296449927
 31
0.0
  0
LINE
  5
19C90
  8
KI
  6
CONTINUOUS
 62
     7
 10
-251.59165222575211
 20
-44.359227296450321
 30
0.0
 11
-251.3916522257519
 21
-44.159227296450062
 31
0.0
  0
LINE
  5
19C91
  8
KI
  6
CONTINUOUS
 62
     7
 10
-251.39165222575161
 20
-45.057252908556322
 30
0.0
 11
-251.0364938277084
 21
-44.70209451051339
 31
0.0
  0
LINE
  5
19C92
  8
KI
  6
CONTINUOUS
 62
     7
 10
-251.0364938277084
 20
-44.70209451051339
 30
0.0
 11
-250.8122816920332
 21
-44.47788237483806
 31
0.0
  0
LINE
  5
19C93
  8
KI
  6
CONTINUOUS
 62
     7
 10
-251.59165222575169
 20
-45.257252908557057
 30
0.0
 11
-251.3916522257519
 21
-45.057252908556777
 31
0.0
  0
LINE
  5
19C94
  8
KI
  6
CONTINUOUS
 62
     7
 10
-251.3916522257519
 20
-45.955278520663953
 30
0.0
 11
-250.79165222575261
 21
-45.355278520664513
 31
0.0
  0
LINE
  5
19C95
  8
KI
  6
CONTINUOUS
 62
     7
 10
-251.59165222575169
 20
-46.155278520663778
 30
0.0
 11
-251.3916522257519
 21
-45.955278520663953
 31
0.0
  0
LINE
  5
19C96
  8
KI
  6
CONTINUOUS
 62
     7
 10
-251.3916522257519
 20
-46.853304132770688
 30
0.0
 11
-250.7916522257521
 21
-46.253304132770779
 31
0.0
  0
LINE
  5
19C97
  8
KI
  6
CONTINUOUS
 62
     7
 10
-251.59165222575211
 20
-47.053304132770961
 30
0.0
 11
-251.3916522257519
 21
-46.853304132770688
 31
0.0
  0
LINE
  5
19C98
  8
KI
  6
CONTINUOUS
 62
     7
 10
-251.34241699138781
 20
-47.70209451051295
 30
0.0
 11
-250.7916522257521
 21
-47.151329744877501
 31
0.0
  0
LINE
  5
19C99
  8
KI
  6
CONTINUOUS
 62
     7
 10
-251.59165222575211
 20
-47.702094510513383
 30
0.0
 11
-250.7916522257521
 21
-47.702094510513383
 31
0.0
  0
LINE
  5
19C9A
  8
KI
  6
CONTINUOUS
 62
     7
 10
-250.79165222575159
 20
-48.714073262783302
 30
0.0
 11
-250.7916522257521
 21
-44.952104510514062
 31
0.0
  0
LINE
  5
19C9B
  8
KI
  6
CONTINUOUS
 62
     7
 10
-250.99165222575229
 20
-44.7021045105136
 30
0.0
 11
-250.7916522257521
 21
-44.452094510513852
 31
0.0
  0
LINE
  5
19C9C
  8
KI
  6
CONTINUOUS
 62
     7
 10
-250.99164622575239
 20
-44.7021045105136
 30
0.0
 11
-250.7916522257521
 21
-44.952104510514062
 31
0.0
  0
ARC
  5
19C9D
  8
KI
  6
CONTINUOUS
 62
     7
 10
-251.09165222575211
 20
-49.414073262783567
 30
0.0
 40
0.3
 50
180.00000000034751
 51
270.0000000000847
  0
LINE
  5
19C9E
  8
KI
  6
CONTINUOUS
 62
     7
 10
-250.7916522257521
 20
-49.714073262783302
 30
0.0
 11
-251.09165222575211
 21
-49.714073262783756
 31
0.0
  0
ARC
  5
19C9F
  8
KI
  6
CONTINUOUS
 62
     7
 10
-251.09165222575501
 20
-49.014073262783938
 30
0.0
 40
0.3
 50
90.000000000084668
 51
180.00000000034751
  0
LINE
  5
19CA0
  8
KI
  6
CONTINUOUS
 62
     7
 10
-251.3916522257523
 20
-49.414073262783567
 30
0.0
 11
-251.39165222575471
 21
-49.014073262783938
 31
0.0
  0
LINE
  5
19CA1
  8
KI
  6
CONTINUOUS
 62
     7
 10
-251.09165222575501
 20
-48.714073262783756
 30
0.0
 11
-250.79165222575159
 21
-48.714073262783302
 31
0.0
  0
LINE
  5
19CA2
  8
KI
  6
CONTINUOUS
 62
     7
 10
-251.59165222575311
 20
-39.869099235916281
 30
0.0
 11
-251.42464750034921
 21
-39.70209451051246
 31
0.0
  0
LINE
  5
19CA3
  8
KI
  6
CONTINUOUS
 62
     7
 10
-251.3916522257523
 20
-40.56712484802182
 30
0.0
 11
-250.7916462257524
 21
-39.967118848022132
 31
0.0
  0
LINE
  5
19CA4
  8
KI
  6
CONTINUOUS
 62
     7
 10
-251.5916522257528
 20
-40.76712484802254
 30
0.0
 11
-251.3916522257523
 21
-40.567124848022253
 31
0.0
  0
LINE
  5
19CA5
  8
KI
  6
CONTINUOUS
 62
     7
 10
-251.3916522257523
 20
-41.46515046012945
 30
0.0
 11
-250.7916462257524
 21
-40.865144460129329
 31
0.0
  0
LINE
  5
19CA6
  8
KI
  6
CONTINUOUS
 62
     7
 10
-251.59165222575311
 20
-41.665150460129688
 30
0.0
 11
-251.3916522257523
 21
-41.46515046012945
 31
0.0
  0
LINE
  5
19CA7
  8
KI
  6
CONTINUOUS
 62
     7
 10
-251.5916522257528
 20
-39.702094510514307
 30
0.0
 11
-250.7916462257518
 21
-39.702094510512943
 31
0.0
  0
ARC
  5
19CA8
  8
KI
  6
CONTINUOUS
 62
     7
 10
-251.09165222575501
 20
-38.402094510514132
 30
0.0
 40
0.3
 50
180.00000000034751
 51
270.0000000000847
  0
ARC
  5
19CA9
  8
KI
  6
CONTINUOUS
 62
     7
 10
-251.0916522257568
 20
-38.002094510514489
 30
0.0
 40
0.3
 50
90.000000000084668
 51
180.00000000034751
  0
LINE
  5
19CAA
  8
KI
  6
CONTINUOUS
 62
     7
 10
-251.39165222575431
 20
-38.402094510514132
 30
0.0
 11
-251.39165222575701
 21
-38.002094510514489
 31
0.0
  0
LINE
  5
19CAB
  8
KI
  6
CONTINUOUS
 62
     7
 10
-250.7916462257518
 20
-38.702094510514307
 30
0.0
 11
-251.09165222575501
 21
-38.702094510514307
 31
0.0
  0
ARC
  5
19CAC
  8
KI
  6
CONTINUOUS
 62
     7
 10
-265.11243569088032
 20
-51.918685680463717
 30
0.0
 40
24.521586859558742
 50
356.28881364656843
 51
30.70307659906474
  0
ARC
  5
19CAD
  8
KI
  6
CONTINUOUS
 62
     7
 10
-265.11243569088032
 20
-51.918685680463717
 30
0.0
 40
23.321944298558741
 50
356.28881364656843
 51
31.58910060604207
  0
LINE
  5
19CAE
  8
KI
  6
CONTINUOUS
 62
     7
 10
-248.7916827944355
 20
-50.21391757657301
 30
0.0
 11
-248.7916827944355
 21
-40.202094510513369
 31
0.0
  0
LINE
  5
19CAF
  8
KI
  6
CONTINUOUS
 62
     7
 10
-247.97599379289679
 20
-53.258812916834543
 30
0.0
 11
-247.9759940339988
 21
-53.258812720406837
 31
0.0
  0
ARC
  5
19CB0
  8
KI
  6
CONTINUOUS
 62
     7
 10
-245.67419035536909
 20
-57.205771605098292
 30
0.0
 40
0.3
 50
163.71693705722981
 51
347.14909562687671
  0
ARC
  5
19CB1
  8
KI
  6
CONTINUOUS
 62
     7
 10
-246.78964170652711
 20
-55.844940866605327
 30
0.0
 40
0.5
 50
49.327411972635872
 51
65.442606426039717
  0
ARC
  5
19CB2
  8
KI
  6
CONTINUOUS
 62
     7
 10
-243.0076473495557
 20
-47.568077605081889
 30
0.0
 40
10.0
 50
250.1968242058378
 51
252.81541990369061
  0
ARC
  5
19CB3
  8
KI
  6
CONTINUOUS
 62
     7
 10
-246.67625034518429
 20
-56.870838058864763
 30
0.0
 40
0.3
 50
157.61329912440891
 51
339.33735528098322
  0
ARC
  5
19CB4
  8
KI
  6
CONTINUOUS
 62
     7
 10
-244.6389141749583
 20
-53.342068299942362
 30
0.0
 40
4.0
 50
334.2981912537428
 51
357.65265816413881
  0
ARC
  5
19CB5
  8
KI
  6
CONTINUOUS
 62
     7
 10
-243.007640311778
 20
-47.568077605072347
 30
0.0
 40
8.7999999999999972
 50
254.19808653013209
 51
254.2239622526468
  0
ARC
  5
19CB6
  8
KI
  6
CONTINUOUS
 62
     7
 10
-241.17481255982079
 20
-55.342068299941417
 30
0.0
 40
0.3
 50
237.85090437317311
 51
62.149095626860827
  0
ARC
  5
19CB7
  8
KI
  6
CONTINUOUS
 62
     7
 10
-244.6389141749583
 20
-53.342068299942362
 30
0.0
 40
4.0
 50
319.29819125370602
 51
325.70180874629222
  0
ARC
  5
19CB8
  8
KI
  6
CONTINUOUS
 62
     7
 10
-241.8104870502136
 20
-56.170495424689463
 30
0.0
 40
0.3
 50
222.850904373123
 51
47.149095626853317
  0
ARC
  5
19CB9
  8
KI
  6
CONTINUOUS
 62
     7
 10
-244.6389141749566
 20
-57.342068299942341
 30
0.0
 40
0.3
 50
177.85090437321941
 51
2.1490956268587862
  0
ARC
  5
19CBA
  8
KI
  6
CONTINUOUS
 62
     7
 10
-243.60363799454601
 20
-57.205771605097809
 30
0.0
 40
0.3
 50
192.85090437317751
 51
17.149095626929501
  0
ARC
  5
19CBB
  8
KI
  6
CONTINUOUS
 62
     7
 10
-244.6389141749583
 20
-53.342068299942362
 30
0.0
 40
4.0
 50
289.29819125377412
 51
295.70180874626232
  0
ARC
  5
19CBC
  8
KI
  6
CONTINUOUS
 62
     7
 10
-242.6389141749591
 20
-56.806169915080488
 30
0.0
 40
0.3
 50
207.85090437311229
 51
32.149095626882911
  0
ARC
  5
19CBD
  8
KI
  6
CONTINUOUS
 62
     7
 10
-244.6389141749583
 20
-53.342068299942362
 30
0.0
 40
4.0
 50
304.29819125372239
 51
310.70180874624589
  0
ARC
  5
19CBE
  8
KI
  6
CONTINUOUS
 62
     7
 10
-244.6389141749583
 20
-53.342068299942362
 30
0.0
 40
4.0
 50
259.29819125371631
 51
265.7018087463
  0
ARC
  5
19CBF
  8
KI
  6
CONTINUOUS
 62
     7
 10
-244.6389141749583
 20
-53.342068299964637
 30
0.0
 40
4.0
 50
274.29819125375832
 51
280.7018087463199
  0
ARC
  5
19CC0
  8
KI
  6
CONTINUOUS
 62
     7
 10
-244.6389141749583
 20
-53.342068299942362
 30
0.0
 40
2.799999999999998
 50
229.3274119726444
 51
357.65265816413881
  0
ARC
  5
19CC1
  8
KI
  6
CONTINUOUS
 62
     7
 10
-241.5427597127707
 20
-50.179047614353919
 30
0.0
 40
7.2490069497939373
 50
180.2756114576494
 51
225.96157026527959
  0
ARC
  5
19CC2
  8
KI
  6
CONTINUOUS
 62
     7
 10
-243.59825337635289
 20
-39.14293645359993
 30
0.0
 40
0.5
 50
116.01906736229211
 51
210.7030765990653
  0
ARC
  5
19CC3
  8
KI
  6
CONTINUOUS
 62
     7
 10
-247.0094891001032
 20
-32.154770108962737
 30
0.0
 40
7.2763100519022599
 50
296.01906736229222
 51
331.88676723363841
  0
ARC
  5
19CC4
  8
KI
  6
CONTINUOUS
 62
     7
 10
-247.0094891001032
 20
-32.154770108962737
 30
0.0
 40
5.776310051902259
 50
286.18682820039709
 51
331.88676723363841
  0
LINE
  5
19CC5
  8
KI
  6
CONTINUOUS
 62
     7
 10
-248.86555349452351
 20
-37.70209451051295
 30
0.0
 11
-245.39922520879529
 21
-37.702094510514762
 31
0.0
  0
LINE
  5
19CC6
  8
KI
  6
CONTINUOUS
 62
     7
 10
-248.29168279443559
 20
-39.70209451051339
 30
0.0
 11
-245.24618324983399
 21
-39.70209451051339
 31
0.0
  0
ARC
  5
19CC7
  8
KI
  6
CONTINUOUS
 62
     7
 10
-248.29168279443559
 20
-40.202094510513369
 30
0.0
 40
0.5
 50
89.999999999996732
 51
180.0
  0
ARC
  5
19CC8
  8
KI
  6
CONTINUOUS
 62
     7
 10
-241.30271499534069
 20
-35.322815111306852
 30
0.0
 40
0.7573354118943643
 50
339.86775998205133
 51
143.90577448522581
  0
LINE
  5
19CC9
  8
KI
  6
DASHED2
 62
     7
 10
81.624250781251192
 20
5.1767326157201961
 30
0.0
 11
83.624253491306632
 21
3.6779991541267232
 31
0.0
  0
LINE
  5
19CCA
  8
KI
  6
DASHED2
 62
     7
 10
81.624250781251192
 20
7.2767162139949724
 30
0.0
 11
83.624253491306632
 21
8.7754496755884457
 31
0.0
  0
LINE
  5
19CCB
  8
KI
  6
DASHED2
 62
     7
 10
57.880312114278183
 20
7.3871956243525609
 30
0.0
 11
59.69694070663305
 21
4.9381187987652364
 31
0.0
  0
LINE
  5
19CCC
  8
KI
  6
DASHED2
 62
     7
 10
56.770163805917889
 20
7.3871956243525609
 30
0.0
 11
58.58679239827319
 21
4.9381187987652364
 31
0.0
  0
LINE
  5
19CCD
  8
KI
  6
DASHED2
 62
     7
 10
55.65998050249749
 20
7.3871956243525609
 30
0.0
 11
57.476609094852321
 21
4.9381187987652364
 31
0.0
  0
LINE
  5
19CCE
  8
KI
  6
DASHED2
 62
     7
 10
54.54983219413765
 20
7.3871956243525609
 30
0.0
 11
56.366460786492489
 21
4.9381187987652364
 31
0.0
  0
LINE
  5
19CCF
  8
KI
  6
DASHED2
 62
     7
 10
53.439683885777349
 20
7.3871956243525609
 30
0.0
 11
55.256312478132202
 21
4.9381187987652364
 31
0.0
  0
LINE
  5
19CD0
  8
KI
  6
DASHED2
 62
     7
 10
52.329500582356957
 20
7.3871956243525609
 30
0.0
 11
54.146129174711803
 21
4.9381187987652364
 31
0.0
  0
LINE
  5
19CD1
  8
KI
  6
DASHED2
 62
     7
 10
51.219352273997117
 20
7.3871956243525609
 30
0.0
 11
53.035980866351508
 21
4.9381187987652382
 31
0.0
  0
LINE
  5
19CD2
  8
KI
  6
DASHED2
 62
     7
 10
50.109203965636809
 20
7.3871956243525609
 30
0.0
 11
51.925832557991669
 21
4.9381187987652382
 31
0.0
  0
LINE
  5
19CD3
  8
KI
  6
DASHED2
 62
     7
 10
48.999020662216417
 20
7.3871956243525609
 30
0.0
 11
50.815649254571277
 21
4.9381187987652382
 31
0.0
  0
LINE
  5
19CD4
  8
KI
  6
DASHED2
 62
     7
 10
47.888872353856577
 20
7.3871956243525609
 30
0.0
 11
49.705500946210961
 21
4.9381187987652382
 31
0.0
  0
LINE
  5
19CD5
  8
KI
  6
DASHED2
 62
     7
 10
46.778689050435702
 20
7.3871956243525609
 30
0.0
 11
48.595317642790583
 21
4.9381187987652391
 31
0.0
  0
LINE
  5
19CD6
  8
KI
  6
DASHED2
 62
     7
 10
61.210792034418724
 20
7.3871956243525609
 30
0.0
 11
63.027420626773562
 21
4.938118798765232
 31
0.0
  0
LINE
  5
19CD7
  8
KI
  6
DASHED2
 62
     7
 10
60.100643726058422
 20
7.3871956243525609
 30
0.0
 11
61.917272318413723
 21
4.9381187987652364
 31
0.0
  0
LINE
  5
19CD8
  8
KI
  6
DASHED2
 62
     7
 10
58.990495417698583
 20
7.3871956243525609
 30
0.0
 11
60.807124010053421
 21
4.9381187987652364
 31
0.0
  0
LINE
  5
19CD9
  8
KI
  6
DASHED2
 62
     7
 10
64.541306949619809
 20
7.3871956243525609
 30
0.0
 11
66.357900546914095
 21
4.9381187987652311
 31
0.0
  0
LINE
  5
19CDA
  8
KI
  6
DASHED2
 62
     7
 10
63.431123646198941
 20
7.3871956243525609
 30
0.0
 11
65.247752238554256
 21
4.9381187987652311
 31
0.0
  0
LINE
  5
19CDB
  8
KI
  6
DASHED2
 62
     7
 10
62.320975337839101
 20
7.3871956243525609
 30
0.0
 11
64.137603930193961
 21
4.938118798765232
 31
0.0
  0
LINE
  5
19CDC
  8
KI
  6
DASHED2
 62
     7
 10
57.880312114278183
 20
7.3871956204035349
 30
0.0
 11
59.69694070663305
 21
4.9381187948162069
 31
0.0
  0
LINE
  5
19CDD
  8
KI
  6
DASHED2
 62
     7
 10
56.770163805917889
 20
7.3871956204035349
 30
0.0
 11
58.58679239827319
 21
4.9381187948162069
 31
0.0
  0
LINE
  5
19CDE
  8
KI
  6
DASHED2
 62
     7
 10
55.65998050249749
 20
7.3871956204035349
 30
0.0
 11
57.476609094852321
 21
4.9381187948162069
 31
0.0
  0
LINE
  5
19CDF
  8
KI
  6
DASHED2
 62
     7
 10
54.54983219413765
 20
7.3871956204035349
 30
0.0
 11
56.366460786492489
 21
4.9381187948162113
 31
0.0
  0
LINE
  5
19CE0
  8
KI
  6
DASHED2
 62
     7
 10
53.439683885777349
 20
7.3871956204035349
 30
0.0
 11
55.256312478132202
 21
4.9381187948162113
 31
0.0
  0
LINE
  5
19CE1
  8
KI
  6
DASHED2
 62
     7
 10
52.329500582356957
 20
7.3871956204035349
 30
0.0
 11
54.146129174711803
 21
4.9381187948162113
 31
0.0
  0
LINE
  5
19CE2
  8
KI
  6
DASHED2
 62
     7
 10
51.219352273997117
 20
7.3871956204035349
 30
0.0
 11
53.035980866351508
 21
4.9381187948162122
 31
0.0
  0
LINE
  5
19CE3
  8
KI
  6
DASHED2
 62
     7
 10
50.109203965636809
 20
7.3871956204035349
 30
0.0
 11
51.925832557991669
 21
4.9381187948162122
 31
0.0
  0
LINE
  5
19CE4
  8
KI
  6
DASHED2
 62
     7
 10
48.999020662216417
 20
7.3871956204035394
 30
0.0
 11
50.815649254571277
 21
4.9381187948162122
 31
0.0
  0
LINE
  5
19CE5
  8
KI
  6
DASHED2
 62
     7
 10
47.888872353856577
 20
7.3871956204035394
 30
0.0
 11
49.705500946210961
 21
4.9381187948162122
 31
0.0
  0
LINE
  5
19CE6
  8
KI
  6
DASHED2
 62
     7
 10
46.778689050435702
 20
7.3871956204035394
 30
0.0
 11
48.595317642790583
 21
4.9381187948162131
 31
0.0
  0
LINE
  5
19CE7
  8
KI
  6
DASHED2
 62
     7
 10
45.668540742075429
 20
7.3871956204035394
 30
0.0
 11
47.485169334430722
 21
4.9381187948162131
 31
0.0
  0
LINE
  5
19CE8
  8
KI
  6
DASHED2
 62
     7
 10
44.558392433715589
 20
7.3871956204035394
 30
0.0
 11
46.375021026070442
 21
4.9381187948162131
 31
0.0
  0
LINE
  5
19CE9
  8
KI
  6
DASHED2
 62
     7
 10
43.44820913029519
 20
7.3871956204035394
 30
0.0
 11
45.264837722650043
 21
4.9381187948162131
 31
0.0
  0
LINE
  5
19CEA
  8
KI
  6
DASHED2
 62
     7
 10
42.338060821934903
 20
7.3871956204035394
 30
0.0
 11
44.154689414290168
 21
4.9381187948162131
 31
0.0
  0
LINE
  5
19CEB
  8
KI
  6
DASHED2
 62
     7
 10
81.624250781251192
 20
7.2767162139949724
 30
0.0
 11
43.509625461700523
 21
7.2767162139949821
 31
0.0
  0
LINE
  5
19CEC
  8
KI
  6
DASHED2
 62
     7
 10
43.509625461700523
 20
7.2767162139949821
 30
0.0
 11
34.921312657231681
 21
6.2311862850880386
 31
0.0
  0
LINE
  5
19CED
  8
KI
  6
DASHED2
 62
     7
 10
43.509625461700523
 20
5.176732615720204
 30
0.0
 11
34.921312657231681
 21
6.222262544627152
 31
0.0
  0
LINE
  5
19CEE
  8
KI
  6
DASHED2
 62
     7
 10
81.624250781251192
 20
5.1767326157201961
 30
0.0
 11
43.509625461700523
 21
5.176732615720204
 31
0.0
  0
LINE
  5
19CEF
  8
KI
  6
DASHED2
 62
     7
 10
61.210792034418724
 20
7.3871956204035349
 30
0.0
 11
63.027420626773562
 21
4.938118794816206
 31
0.0
  0
LINE
  5
19CF0
  8
KI
  6
DASHED2
 62
     7
 10
60.100643726058422
 20
7.3871956204035349
 30
0.0
 11
61.917272318413261
 21
4.9381187948162069
 31
0.0
  0
LINE
  5
19CF1
  8
KI
  6
DASHED2
 62
     7
 10
58.990495417698583
 20
7.3871956204035349
 30
0.0
 11
60.807124010053421
 21
4.9381187948162069
 31
0.0
  0
LINE
  5
19CF2
  8
KI
  6
DASHED2
 62
     7
 10
64.541306949619809
 20
7.3871956204035349
 30
0.0
 11
66.357900546914095
 21
4.9381187948162051
 31
0.0
  0
LINE
  5
19CF3
  8
KI
  6
DASHED2
 62
     7
 10
63.431123646198941
 20
7.3871956204035349
 30
0.0
 11
65.247752238554256
 21
4.9381187948162051
 31
0.0
  0
LINE
  5
19CF4
  8
KI
  6
DASHED2
 62
     7
 10
62.320975337839101
 20
7.3871956204035349
 30
0.0
 11
64.137603930193961
 21
4.938118794816206
 31
0.0
  0
LINE
  5
19CF5
  8
KI
  6
CENTER2
 62
     7
 10
87.97921381138525
 20
6.2267244148575811
 30
0.0
 11
29.509011575283171
 21
6.2267244148575971
 31
0.0
  0
LINE
  5
19CF6
  8
KI
  6
DASHED2
 62
     7
 10
243.62418079112959
 20
5.1767326157201961
 30
0.0
 11
241.62417808107429
 21
3.6779991541267232
 31
0.0
  0
LINE
  5
19CF7
  8
KI
  6
DASHED2
 62
     7
 10
243.62418079112959
 20
7.2767162139949724
 30
0.0
 11
241.62417808107429
 21
8.7754496755884457
 31
0.0
  0
LINE
  5
19CF8
  8
KI
  6
DASHED2
 62
     7
 10
267.36811945810268
 20
7.3871956243525521
 30
0.0
 11
265.55149086574801
 21
4.9381187987652231
 31
0.0
  0
LINE
  5
19CF9
  8
KI
  6
DASHED2
 62
     7
 10
268.47826776646281
 20
7.3871956243525521
 30
0.0
 11
266.66163917410751
 21
4.9381187987652231
 31
0.0
  0
LINE
  5
19CFA
  8
KI
  6
DASHED2
 62
     7
 10
269.58845106988321
 20
7.3871956243525521
 30
0.0
 11
267.77182247752842
 21
4.9381187987652231
 31
0.0
  0
LINE
  5
19CFB
  8
KI
  6
DASHED2
 62
     7
 10
270.69859937824339
 20
7.3871956243525521
 30
0.0
 11
268.88197078588843
 21
4.9381187987652231
 31
0.0
  0
LINE
  5
19CFC
  8
KI
  6
DASHED2
 62
     7
 10
271.80874768660368
 20
7.3871956243525521
 30
0.0
 11
269.99211909424878
 21
4.9381187987652231
 31
0.0
  0
LINE
  5
19CFD
  8
KI
  6
DASHED2
 62
     7
 10
272.91893099002391
 20
7.3871956243525521
 30
0.0
 11
271.10230239766912
 21
4.9381187987652231
 31
0.0
  0
LINE
  5
19CFE
  8
KI
  6
DASHED2
 62
     7
 10
274.02907929838392
 20
7.3871956243525503
 30
0.0
 11
272.21245070602941
 21
4.9381187987652231
 31
0.0
  0
LINE
  5
19CFF
  8
KI
  6
DASHED2
 62
     7
 10
275.13922760674421
 20
7.3871956243525503
 30
0.0
 11
273.3225990143892
 21
4.9381187987652231
 31
0.0
  0
LINE
  5
19D00
  8
KI
  6
DASHED2
 62
     7
 10
276.24941091016461
 20
7.3871956243525503
 30
0.0
 11
274.4327823178096
 21
4.9381187987652231
 31
0.0
  0
LINE
  5
19D01
  8
KI
  6
DASHED2
 62
     7
 10
277.3595592185244
 20
7.3871956243525503
 30
0.0
 11
275.54293062616989
 21
4.9381187987652231
 31
0.0
  0
LINE
  5
19D02
  8
KI
  6
DASHED2
 62
     7
 10
278.46974252194519
 20
7.3871956243525503
 30
0.0
 11
276.6531139295904
 21
4.9381187987652231
 31
0.0
  0
LINE
  5
19D03
  8
KI
  6
DASHED2
 62
     7
 10
264.03763953796232
 20
7.3871956243525521
 30
0.0
 11
262.22101094560742
 21
4.938118798765224
 31
0.0
  0
LINE
  5
19D04
  8
KI
  6
DASHED2
 62
     7
 10
265.14778784632261
 20
7.3871956243525521
 30
0.0
 11
263.33115925396709
 21
4.938118798765224
 31
0.0
  0
LINE
  5
19D05
  8
KI
  6
DASHED2
 62
     7
 10
266.2579361546824
 20
7.3871956243525521
 30
0.0
 11
264.44130756232732
 21
4.9381187987652231
 31
0.0
  0
LINE
  5
19D06
  8
KI
  6
DASHED2
 62
     7
 10
260.70712462276123
 20
7.3871956243525529
 30
0.0
 11
258.89053102546688
 21
4.938118798765224
 31
0.0
  0
LINE
  5
19D07
  8
KI
  6
DASHED2
 62
     7
 10
261.8173079261818
 20
7.3871956243525529
 30
0.0
 11
260.00067933382678
 21
4.938118798765224
 31
0.0
  0
LINE
  5
19D08
  8
KI
  6
DASHED2
 62
     7
 10
262.92745623454192
 20
7.3871956243525529
 30
0.0
 11
261.11082764218702
 21
4.938118798765224
 31
0.0
  0
LINE
  5
19D09
  8
KI
  6
DASHED2
 62
     7
 10
267.36811945810268
 20
7.3871956204035261
 30
0.0
 11
265.55149086574801
 21
4.9381187948161971
 31
0.0
  0
LINE
  5
19D0A
  8
KI
  6
DASHED2
 62
     7
 10
268.47826776646281
 20
7.3871956204035261
 30
0.0
 11
266.66163917410751
 21
4.9381187948161971
 31
0.0
  0
LINE
  5
19D0B
  8
KI
  6
DASHED2
 62
     7
 10
269.58845106988321
 20
7.3871956204035261
 30
0.0
 11
267.77182247752842
 21
4.9381187948161971
 31
0.0
  0
LINE
  5
19D0C
  8
KI
  6
DASHED2
 62
     7
 10
270.69859937824339
 20
7.3871956204035261
 30
0.0
 11
268.88197078588843
 21
4.9381187948161971
 31
0.0
  0
LINE
  5
19D0D
  8
KI
  6
DASHED2
 62
     7
 10
271.80874768660368
 20
7.3871956204035261
 30
0.0
 11
269.99211909424878
 21
4.9381187948161971
 31
0.0
  0
LINE
  5
19D0E
  8
KI
  6
DASHED2
 62
     7
 10
272.91893099002391
 20
7.3871956204035261
 30
0.0
 11
271.10230239766912
 21
4.9381187948161971
 31
0.0
  0
LINE
  5
19D0F
  8
KI
  6
DASHED2
 62
     7
 10
274.02907929838392
 20
7.3871956204035252
 30
0.0
 11
272.21245070602941
 21
4.9381187948161971
 31
0.0
  0
LINE
  5
19D10
  8
KI
  6
DASHED2
 62
     7
 10
275.13922760674421
 20
7.3871956204035252
 30
0.0
 11
273.3225990143892
 21
4.9381187948161971
 31
0.0
  0
LINE
  5
19D11
  8
KI
  6
DASHED2
 62
     7
 10
276.24941091016461
 20
7.3871956204035252
 30
0.0
 11
274.4327823178096
 21
4.9381187948161971
 31
0.0
  0
LINE
  5
19D12
  8
KI
  6
DASHED2
 62
     7
 10
277.3595592185244
 20
7.3871956204035234
 30
0.0
 11
275.54293062616989
 21
4.9381187948161971
 31
0.0
  0
LINE
  5
19D13
  8
KI
  6
DASHED2
 62
     7
 10
278.46974252194519
 20
7.3871956204035234
 30
0.0
 11
276.6531139295904
 21
4.9381187948161971
 31
0.0
  0
LINE
  5
19D14
  8
KI
  6
DASHED2
 62
     7
 10
279.57989083030532
 20
7.3871956204035234
 30
0.0
 11
277.7632622379503
 21
4.9381187948161971
 31
0.0
  0
LINE
  5
19D15
  8
KI
  6
DASHED2
 62
     7
 10
280.69003913866533
 20
7.3871956204035234
 30
0.0
 11
278.87341054631059
 21
4.9381187948161971
 31
0.0
  0
LINE
  5
19D16
  8
KI
  6
DASHED2
 62
     7
 10
281.80022244208573
 20
7.3871956204035234
 30
0.0
 11
279.98359384973088
 21
4.9381187948161971
 31
0.0
  0
LINE
  5
19D17
  8
KI
  6
DASHED2
 62
     7
 10
282.91037075044602
 20
7.3871956204035234
 30
0.0
 11
281.09374215809078
 21
4.9381187948161971
 31
0.0
  0
LINE
  5
19D18
  8
KI
  6
DASHED2
 62
     7
 10
243.62418079112959
 20
7.2767162139949724
 30
0.0
 11
281.73880611068051
 21
7.2767162139949662
 31
0.0
  0
LINE
  5
19D19
  8
KI
  6
DASHED2
 62
     7
 10
281.73880611068051
 20
7.2767162139949662
 30
0.0
 11
290.32711891514901
 21
6.2311862850880191
 31
0.0
  0
LINE
  5
19D1A
  8
KI
  6
DASHED2
 62
     7
 10
281.73880611068051
 20
5.1767326157201881
 30
0.0
 11
290.32711891514901
 21
6.2222625446271298
 31
0.0
  0
LINE
  5
19D1B
  8
KI
  6
DASHED2
 62
     7
 10
243.62418079112959
 20
5.1767326157201961
 30
0.0
 11
281.73880611068051
 21
5.1767326157201881
 31
0.0
  0
LINE
  5
19D1C
  8
KI
  6
DASHED2
 62
     7
 10
264.03763953796232
 20
7.3871956204035261
 30
0.0
 11
262.22101094560742
 21
4.938118794816198
 31
0.0
  0
LINE
  5
19D1D
  8
KI
  6
DASHED2
 62
     7
 10
265.14778784632261
 20
7.3871956204035261
 30
0.0
 11
263.33115925396771
 21
4.938118794816198
 31
0.0
  0
LINE
  5
19D1E
  8
KI
  6
DASHED2
 62
     7
 10
266.2579361546824
 20
7.3871956204035261
 30
0.0
 11
264.44130756232732
 21
4.9381187948161971
 31
0.0
  0
LINE
  5
19D1F
  8
KI
  6
DASHED2
 62
     7
 10
260.70712462276123
 20
7.3871956204035261
 30
0.0
 11
258.89053102546688
 21
4.938118794816198
 31
0.0
  0
LINE
  5
19D20
  8
KI
  6
DASHED2
 62
     7
 10
261.8173079261818
 20
7.3871956204035261
 30
0.0
 11
260.00067933382678
 21
4.938118794816198
 31
0.0
  0
LINE
  5
19D21
  8
KI
  6
DASHED2
 62
     7
 10
262.92745623454192
 20
7.3871956204035261
 30
0.0
 11
261.11082764218702
 21
4.938118794816198
 31
0.0
  0
LINE
  5
19D22
  8
KI
  6
CENTER2
 62
     7
 10
237.2692177609955
 20
6.2267244148575829
 30
0.0
 11
295.73941999709768
 21
6.226724414857574
 31
0.0
  0
LINE
  5
19D23
  8
SU
  6
CONTINUOUS
 62
     3
 10
81.624215786190618
 20
19.226723181608222
 30
0.0
 11
81.624215786190618
 21
100.7267301097114
 31
0.0
  0
LINE
  5
19D24
  8
SU
  6
CONTINUOUS
 62
     3
 10
61.624215786190391
 20
97.726730109711383
 30
0.0
 11
81.624215786190618
 21
97.726730109711383
 31
0.0
  0
LINE
  5
19D25
  8
SU
  6
CONTINUOUS
 62
     3
 10
101.6242157861904
 20
18.226723181608222
 30
0.0
 11
101.6242157861904
 21
77.726723943544187
 31
0.0
  0
LINE
  5
19D26
  8
SU
  6
CONTINUOUS
 62
     3
 10
243.6242157861904
 20
19.226723181608222
 30
0.0
 11
243.6242157861904
 21
100.7267301097114
 31
0.0
  0
LINE
  5
19D27
  8
SU
  6
CONTINUOUS
 62
     3
 10
263.62421578619012
 20
97.726730109711525
 30
0.0
 11
243.6242157861904
 21
97.726730109711525
 31
0.0
  0
LINE
  5
19D28
  8
SU
  6
CONTINUOUS
 62
     3
 10
101.6242157861904
 20
-16.773274343993641
 30
0.0
 11
101.6242157861904
 21
-5.7732743439936431
 31
0.0
  0
LINE
  5
19D29
  8
SU
  6
CONTINUOUS
 62
     3
 10
101.6242157861904
 20
-16.773274343993641
 30
0.0
 11
101.6242157861904
 21
-66.773276056439613
 31
0.0
  0
LINE
  5
19D2A
  8
KI
  6
CONTINUOUS
 62
     7
 10
60.544215786190662
 20
-72.853276056455684
 30
0.0
 11
60.544215786190698
 21
-74.263276056455979
 31
0.0
  0
LINE
  5
19D2B
  8
KI
  6
CONTINUOUS
 62
     7
 10
61.624215786190632
 20
-35.273276056455757
 30
0.0
 11
61.624215786190632
 21
-74.263276056455979
 31
0.0
  0
ARC
  5
19D2C
  8
KI
  6
CONTINUOUS
 62
     7
 10
60.544215786190698
 20
-74.263276056455979
 30
0.0
 40
1.0800000000000001
 50
297.90344809752992
 51
0.0
  0
LINE
  5
19D2D
  8
KI
  6
CONTINUOUS
 62
     7
 10
58.589637425160099
 20
-76.520405028627351
 30
0.0
 11
61.04963742511876
 21
-75.21771252207499
 31
0.0
  0
LINE
  5
19D2E
  8
KI
  6
CONTINUOUS
 62
     7
 10
58.084215786190647
 20
-75.565968563030182
 30
0.0
 11
58.589637425160099
 21
-76.520405028627351
 31
0.0
  0
LINE
  5
19D2F
  8
KI
  6
CONTINUOUS
 62
     7
 10
58.084215786190647
 20
-75.565968563030182
 30
0.0
 11
60.544215786190698
 21
-74.263276056455979
 31
0.0
  0
LINE
  5
19D30
  8
KI
  6
DASHED2
 62
     7
 10
51.674215786190807
 20
-56.723276056456022
 30
0.0
 11
51.674215786190807
 21
-45.537023443410703
 31
0.0
  0
LINE
  5
19D31
  8
KI
  6
DASHED2
 62
     7
 10
52.674215786190821
 20
-57.723276056456022
 30
0.0
 11
61.624215786190632
 21
-57.723276056456022
 31
0.0
  0
LINE
  5
19D32
  8
KI
  6
DASHED2
 62
     7
 10
52.674215786190821
 20
-53.303276056455957
 30
0.0
 11
61.624215786190632
 21
-53.303276056455957
 31
0.0
  0
ARC
  5
19D33
  8
KI
  6
DASHED2
 62
     7
 10
52.674215786190821
 20
-56.723276056456022
 30
0.0
 40
1.0
 50
180.0
 51
270.0
  0
ARC
  5
19D34
  8
KI
  6
DASHED2
 62
     7
 10
52.674215786190821
 20
-52.30327605645595
 30
0.0
 40
1.0
 50
180.0
 51
270.0
  0
LINE
  5
19D35
  8
KI
  6
DASHED2
 62
     7
 10
60.544215786190698
 20
-35.273276056455757
 30
0.0
 11
61.624215786190632
 21
-35.273276056455757
 31
0.0
  0
LINE
  5
19D36
  8
KI
  6
DASHED2
 62
     7
 10
60.544215786190698
 20
-35.273276056455757
 30
0.0
 11
60.544215786190662
 21
-72.853276056455684
 31
0.0
  0
LINE
  5
19D37
  8
SU
  6
CONTINUOUS
 62
     3
 10
101.6242157861904
 20
-66.773276056439613
 30
0.0
 11
101.6242157861904
 21
-74.273276056455785
 31
0.0
  0
LINE
  5
19D38
  8
SU
  6
CONTINUOUS
 62
     3
 10
101.6242157861904
 20
-74.273276056455785
 30
0.0
 11
101.6242157861904
 21
-86.229466532646271
 31
0.0
  0
ARC
  5
19D39
  8
KI
  6
CONTINUOUS
 62
     7
 10
68.676439935845281
 20
-55.94294058940239
 30
0.0
 40
16.06232918379629
 50
100.95417067659579
 51
116.0435154452657
  0
LINE
  5
19D3A
  8
KI
  6
CONTINUOUS
 62
     7
 10
65.624215786190632
 20
-40.173275198250273
 30
0.0
 11
66.688222645863476
 21
-40.173275198250273
 31
0.0
  0
LINE
  5
19D3B
  8
KI
  6
DASHED2
 62
     7
 10
52.624215786190632
 20
-55.373275198250553
 30
0.0
 11
61.624215786190618
 21
-55.373275198250553
 31
0.0
  0
ARC
  5
19D3C
  8
KI
  6
DASHED2
 62
     7
 10
68.676439935845281
 20
-55.94294058940239
 30
0.0
 40
16.06232918379629
 50
116.0435154452657
 51
177.96752584043799
  0
LINE
  5
19D3D
  8
KI
  6
CONTINUOUS
 62
     7
 10
61.624215786190618
 20
-55.373275198250553
 30
0.0
 11
66.080221842782294
 21
-55.373275198250553
 31
0.0
  0
LINE
  5
19D3E
  8
KI
  6
DASHED2
 62
     7
 10
253.6242157861904
 20
-33.773276052506731
 30
0.0
 11
253.6242157861904
 21
-66.773276052506716
 31
0.0
  0
LINE
  5
19D3F
  8
KI
  6
DASHED2
 62
     7
 10
259.6242157861904
 20
-33.773276052506731
 30
0.0
 11
253.6242157861904
 21
-33.773276052506731
 31
0.0
  0
LINE
  5
19D40
  8
KI
  6
DASHED2
 62
     7
 10
247.6242157861904
 20
-64.023276052506716
 30
0.0
 11
253.6242157861904
 21
-64.023276052506716
 31
0.0
  0
LINE
  5
19D41
  8
KI
  6
DASHED2
 62
     7
 10
247.6242157861904
 20
-36.523276052506731
 30
0.0
 11
253.6242157861904
 21
-36.523276052506731
 31
0.0
  0
LINE
  5
19D42
  8
KI
  6
DASHED2
 62
     7
 10
241.62421578619029
 20
-38.273276052506731
 30
0.0
 11
247.6242157861904
 21
-38.273276052506731
 31
0.0
  0
LINE
  5
19D43
  8
KI
  6
DASHED2
 62
     7
 10
241.62421578619029
 20
-62.273276052506723
 30
0.0
 11
247.6242157861904
 21
-62.273276052506723
 31
0.0
  0
LINE
  5
19D44
  8
KI
  6
DASHED2
 62
     7
 10
247.6242157861904
 20
-36.523276052506731
 30
0.0
 11
247.6242157861904
 21
-64.023276052506716
 31
0.0
  0
LINE
  5
19D45
  8
KI
  6
DASHED2
 62
     7
 10
241.62421578619029
 20
-38.273276052506731
 30
0.0
 11
241.62421578619029
 21
-62.273276052506723
 31
0.0
  0
CIRCLE
  5
19D46
  8
KI
  6
CONTINUOUS
 62
     7
 10
260.62421578619029
 20
-84.773276052506731
 30
0.0
 40
3.1931342056999981
  0
CIRCLE
  5
19D47
  8
KI
  6
CONTINUOUS
 62
     7
 10
260.62421578619029
 20
-84.773276052506731
 30
0.0
 40
4.0
  0
CIRCLE
  5
19D48
  8
KI
  6
CONTINUOUS
 62
     7
 10
260.62421578619029
 20
-84.773276052506731
 30
0.0
 40
6.939104820999999
  0
CIRCLE
  5
19D49
  8
KI
  6
CONTINUOUS
 62
     7
 10
260.62421578619029
 20
-84.773276052506731
 30
0.0
 40
8.0
  0
LINE
  5
19D4A
  8
KI
  6
CONTINUOUS
 62
     7
 10
263.6242157861904
 20
-30.27327605250672
 30
0.0
 11
263.6242157861904
 21
-77.357077565411018
 31
0.0
  0
LINE
  5
19D4B
  8
KI
  6
CONTINUOUS
 62
     7
 10
261.32421578619022
 20
-30.27327605250672
 30
0.0
 11
261.32421578619022
 21
-76.803959896148029
 31
0.0
  0
LINE
  5
19D4C
  8
KI
  6
CONTINUOUS
 62
     7
 10
259.74417349494161
 20
-76.82182803559715
 30
0.0
 11
258.63203005991869
 21
-66.773276052506759
 31
0.0
  0
LINE
  5
19D4D
  8
KI
  6
CONTINUOUS
 62
     7
 10
257.49528701439209
 20
-77.410545258771776
 30
0.0
 11
256.31798613221281
 21
-66.773276052506759
 31
0.0
  0
LINE
  5
19D4E
  8
KI
  6
CONTINUOUS
 62
     7
 10
263.6242157861904
 20
-30.27327605250672
 30
0.0
 11
261.32421578619022
 21
-30.27327605250672
 31
0.0
  0
LINE
  5
19D4F
  8
SU
  6
CONTINUOUS
 62
     3
 10
62.624215786190398
 20
77.726723943544187
 30
0.0
 11
115.3242182347193
 21
77.726723943544187
 31
0.0
  0
LINE
  5
19D50
  8
SU
  6
CONTINUOUS
 62
     3
 10
62.624215786190462
 20
-74.273276056455742
 30
0.0
 11
115.3242182347193
 21
-74.273276056455785
 31
0.0
  0
LINE
  5
19D51
  8
SU
  6
CONTINUOUS
 62
     3
 10
112.3242182347192
 20
77.726723943544187
 30
0.0
 11
112.3242182347192
 21
-74.273276056455785
 31
0.0
  0
LINE
  5
19D52
  8
SU
  6
CONTINUOUS
 62
     3
 10
82.624215786190604
 20
-5.7732743439936414
 30
0.0
 11
104.6242157861904
 21
-5.7732743439936467
 31
0.0
  0
LINE
  5
19D53
  8
SU
  6
CONTINUOUS
 62
     3
 10
82.624215786190604
 20
18.226723181608222
 30
0.0
 11
104.6242157861904
 21
18.226723181608222
 31
0.0
  0
LINE
  5
19D54
  8
SU
  6
CONTINUOUS
 62
     3
 10
101.6242157861904
 20
-5.7732743439936431
 30
0.0
 11
101.6242157861904
 21
18.226723181608222
 31
0.0
  0
LINE
  5
19D55
  8
KI
  6
CONTINUOUS
 62
     7
 10
57.124215786190632
 20
12.22672318160823
 30
0.0
 11
57.124215786190632
 21
0.2267256560058968
 31
0.0
  0
LINE
  5
19D56
  8
KI
  6
CONTINUOUS
 62
     7
 10
57.124215786190632
 20
0.2267256560058968
 30
0.0
 11
61.624215786190632
 21
0.2267256560058959
 31
0.0
  0
LINE
  5
19D57
  8
KI
  6
CONTINUOUS
 62
     7
 10
61.624215786190632
 20
0.2267256560063222
 30
0.0
 11
61.624215786190632
 21
-5.7732743439936494
 31
0.0
  0
LINE
  5
19D58
  8
KI
  6
CONTINUOUS
 62
     7
 10
57.124215786190632
 20
12.22672318160823
 30
0.0
 11
61.624215786190632
 21
12.22672318160823
 31
0.0
  0
LINE
  5
19D59
  8
KI
  6
CONTINUOUS
 62
     7
 10
61.624215786190632
 20
18.226723181608222
 30
0.0
 11
61.624215786190632
 21
12.22672318160825
 31
0.0
  0
LINE
  5
19D5A
  8
KI
  6
CONTINUOUS
 62
     7
 10
61.624215786190632
 20
18.226723181608222
 30
0.0
 11
81.624215786190618
 21
18.226723181608222
 31
0.0
  0
LINE
  5
19D5B
  8
KI
  6
CONTINUOUS
 62
     7
 10
81.624215786190618
 20
18.226723181608222
 30
0.0
 11
81.624215786190618
 21
-5.773274343993652
 31
0.0
  0
LINE
  5
19D5C
  8
KI
  6
CONTINUOUS
 62
     7
 10
61.624215786190632
 20
-5.7732743439936494
 30
0.0
 11
81.624215786190618
 21
-5.773274343993652
 31
0.0
  0
LINE
  5
19D5D
  8
KI
  6
CONTINUOUS
 62
     7
 10
81.624250781251192
 20
-6.2732803439943181
 30
0.0
 11
81.624250781251646
 21
-8.4993730752229393
 31
0.0
  0
ARC
  5
19D5E
  8
KI
  6
CONTINUOUS
 62
     7
 10
70.063374891101319
 20
-15.781303393649839
 30
0.0
 40
9.2190722294335075
 50
92.804687340448481
 51
144.3741318244827
  0
LINE
  5
19D5F
  8
KI
  6
CONTINUOUS
 62
     7
 10
79.457246055849225
 20
-5.7732743439931991
 30
0.0
 11
79.624250781253011
 21
-5.9402790693969827
 31
0.0
  0
LINE
  5
19D60
  8
KI
  6
CONTINUOUS
 62
     7
 10
78.759220443743686
 20
-5.9732743439939231
 30
0.0
 11
79.359226443742898
 21
-6.573280343994047
 31
0.0
  0
LINE
  5
19D61
  8
KI
  6
CONTINUOUS
 62
     7
 10
78.559220443742504
 20
-5.773274343993652
 30
0.0
 11
78.759220443743231
 21
-5.9732743439939231
 31
0.0
  0
LINE
  5
19D62
  8
KI
  6
CONTINUOUS
 62
     7
 10
77.861194831636013
 20
-5.9732743439939231
 30
0.0
 11
78.461200831636191
 21
-6.573280343994047
 31
0.0
  0
LINE
  5
19D63
  8
KI
  6
CONTINUOUS
 62
     7
 10
77.661194831635783
 20
-5.7732743439931991
 30
0.0
 11
77.861194831636013
 21
-5.9732743439939231
 31
0.0
  0
LINE
  5
19D64
  8
KI
  6
CONTINUOUS
 62
     7
 10
76.96316921952932
 20
-5.9732743439939231
 30
0.0
 11
77.563175219529455
 21
-6.573280343994047
 31
0.0
  0
LINE
  5
19D65
  8
KI
  6
CONTINUOUS
 62
     7
 10
76.763169219529061
 20
-5.7732743439931964
 30
0.0
 11
76.96316921952932
 21
-5.9732743439939231
 31
0.0
  0
LINE
  5
19D66
  8
KI
  6
CONTINUOUS
 62
     7
 10
76.065143607422144
 20
-5.9732743439939231
 30
0.0
 11
76.665149607422734
 21
-6.5732803439935923
 31
0.0
  0
LINE
  5
19D67
  8
KI
  6
CONTINUOUS
 62
     7
 10
75.865143607421899
 20
-5.7732743439931964
 30
0.0
 11
76.065143607422144
 21
-5.9732743439939231
 31
0.0
  0
LINE
  5
19D68
  8
KI
  6
CONTINUOUS
 62
     7
 10
75.167117995315422
 20
-5.9732743439948308
 30
0.0
 11
75.76712399531506
 21
-6.5732803439944991
 31
0.0
  0
LINE
  5
19D69
  8
KI
  6
CONTINUOUS
 62
     7
 10
74.967117995314723
 20
-5.773274343994105
 30
0.0
 11
75.167117995315422
 21
-5.973274343994377
 31
0.0
  0
LINE
  5
19D6A
  8
KI
  6
CONTINUOUS
 62
     7
 10
74.269092383208701
 20
-5.9732743439948308
 30
0.0
 11
74.624250781252101
 21
-6.3284327420377631
 31
0.0
  0
LINE
  5
19D6B
  8
KI
  6
CONTINUOUS
 62
     7
 10
74.624250781252101
 20
-6.3284327420377631
 30
0.0
 11
74.848462916926962
 21
-6.552644877713079
 31
0.0
  0
LINE
  5
19D6C
  8
KI
  6
CONTINUOUS
 62
     7
 10
74.069092383208456
 20
-5.773274343994558
 30
0.0
 11
74.269092383208701
 21
-5.973274343994377
 31
0.0
  0
LINE
  5
19D6D
  8
KI
  6
CONTINUOUS
 62
     7
 10
73.371066771101553
 20
-5.973274343994377
 30
0.0
 11
73.971066771100553
 21
-6.5732743439938321
 31
0.0
  0
LINE
  5
19D6E
  8
KI
  6
CONTINUOUS
 62
     7
 10
73.171066771101735
 20
-5.773274343994558
 30
0.0
 11
73.371066771101553
 21
-5.973274343994377
 31
0.0
  0
LINE
  5
19D6F
  8
KI
  6
CONTINUOUS
 62
     7
 10
72.473041158994377
 20
-5.973274343994377
 30
0.0
 11
73.073041158994727
 21
-6.573274343994286
 31
0.0
  0
LINE
  5
19D70
  8
KI
  6
CONTINUOUS
 62
     7
 10
72.273041158994545
 20
-5.773274343994105
 30
0.0
 11
72.473041158994377
 21
-5.973274343994377
 31
0.0
  0
LINE
  5
19D71
  8
KI
  6
CONTINUOUS
 62
     7
 10
71.624250781252101
 20
-6.022509578358382
 30
0.0
 11
72.175015546888005
 21
-6.573274343994286
 31
0.0
  0
LINE
  5
19D72
  8
KI
  6
CONTINUOUS
 62
     7
 10
71.624250781252101
 20
-5.773274343994105
 30
0.0
 11
71.624250781252101
 21
-6.573274343994286
 31
0.0
  0
LINE
  5
19D73
  8
KI
  6
CONTINUOUS
 62
     7
 10
79.624250781251192
 20
-5.773274343993652
 30
0.0
 11
79.624250781252101
 21
-6.5732803439944991
 31
0.0
  0
LINE
  5
19D74
  8
KI
  6
CONTINUOUS
 62
     7
 10
70.612272028982204
 20
-6.5732743439947443
 30
0.0
 11
74.374240781251444
 21
-6.573274343994286
 31
0.0
  0
LINE
  5
19D75
  8
KI
  6
CONTINUOUS
 62
     7
 10
74.624240781251913
 20
-6.373274343994014
 30
0.0
 11
74.874250781251661
 21
-6.573274343994286
 31
0.0
  0
LINE
  5
19D76
  8
KI
  6
CONTINUOUS
 62
     7
 10
74.624240781251913
 20
-6.3732803439937724
 30
0.0
 11
74.374240781251444
 21
-6.573274343994286
 31
0.0
  0
LINE
  5
19D77
  8
KI
  6
CONTINUOUS
 62
     7
 10
74.874240781251913
 20
-6.5732803439944991
 30
0.0
 11
80.624250781251192
 21
-6.5732803439944991
 31
0.0
  0
ARC
  5
19D78
  8
KI
  6
CONTINUOUS
 62
     7
 10
69.912272028981931
 20
-6.273274343994105
 30
0.0
 40
0.3
 50
90.000000000348507
 51
180.000000000086
  0
LINE
  5
19D79
  8
KI
  6
CONTINUOUS
 62
     7
 10
69.612272028982204
 20
-6.573274343994286
 30
0.0
 11
69.612272028981749
 21
-6.273274343994105
 31
0.0
  0
ARC
  5
19D7A
  8
KI
  6
CONTINUOUS
 62
     7
 10
70.312272028981113
 20
-6.2732743439913774
 30
0.0
 40
0.3
 50
0.0000000000863075
 51
90.000000000348507
  0
LINE
  5
19D7B
  8
KI
  6
CONTINUOUS
 62
     7
 10
69.912272028981931
 20
-5.9732743439939231
 30
0.0
 11
70.312272028981113
 21
-5.9732743439916511
 31
0.0
  0
ARC
  5
19D7C
  8
KI
  6
CONTINUOUS
 62
     7
 10
80.924250781251374
 20
-6.2732743439913801
 30
0.0
 40
0.3
 50
90.000000000348507
 51
180.000000000086
  0
ARC
  5
19D7D
  8
KI
  6
CONTINUOUS
 62
     7
 10
81.324250781250981
 20
-6.2732743439895611
 30
0.0
 40
0.3
 50
0.0000000000863075
 51
90.000000000348507
  0
LINE
  5
19D7E
  8
KI
  6
CONTINUOUS
 62
     7
 10
80.924250781251374
 20
-5.973274343992105
 30
0.0
 11
81.324250781250981
 21
-5.9732743439893792
 31
0.0
  0
LINE
  5
19D7F
  8
KI
  6
CONTINUOUS
 62
     7
 10
80.624250781251192
 20
-6.5732803439944991
 30
0.0
 11
80.624250781251192
 21
-6.2732743439913801
 31
0.0
  0
LINE
  5
19D80
  8
KI
  6
CONTINUOUS
 62
     7
 10
70.612272028981749
 20
-6.2732743439913774
 30
0.0
 11
70.612272028982204
 21
-6.5732743439947443
 31
0.0
  0
LINE
  5
19D81
  8
KI
  6
CONTINUOUS
 62
     7
 10
71.624250781252101
 20
-5.773274343994105
 30
0.0
 11
79.624250781251192
 21
-5.773274343993652
 31
0.0
  0
ARC
  5
19D82
  8
KI
  6
CONTINUOUS
 62
     7
 10
80.183408838165562
 20
-13.76667319339356
 30
0.0
 40
0.5
 50
26.019067362292681
 51
120.7030765990647
  0
ARC
  5
19D83
  8
KI
  6
CONTINUOUS
 62
     7
 10
87.171575182802769
 20
-10.3554374696431
 30
0.0
 40
7.2763100519022599
 50
206.0190673622925
 51
241.88676723364139
  0
ARC
  5
19D84
  8
KI
  6
CONTINUOUS
 62
     7
 10
67.407659611301753
 20
7.747509121134156
 30
0.0
 40
24.521586859558742
 50
266.28881364656843
 51
300.70307659906382
  0
ARC
  5
19D85
  8
KI
  6
CONTINUOUS
 62
     7
 10
87.171575182802769
 20
-10.3554374696431
 30
0.0
 40
5.776310051902259
 50
196.18682820039569
 51
241.88676723364139
  0
LINE
  5
19D86
  8
KI
  6
CONTINUOUS
 62
     7
 10
81.624250781252542
 20
-8.4993730752229393
 30
0.0
 11
81.624250781250737
 21
-11.96570136095113
 31
0.0
  0
ARC
  5
19D87
  8
KI
  6
CONTINUOUS
 62
     7
 10
67.407659611301753
 20
7.747509121134156
 30
0.0
 40
23.321944298558741
 50
266.28881364656843
 51
301.58910060604359
  0
LINE
  5
19D88
  8
KI
  6
CONTINUOUS
 62
     7
 10
79.624250781252101
 20
-9.0732437753107487
 30
0.0
 11
79.624250781252101
 21
-12.118743319912371
 31
0.0
  0
LINE
  5
19D89
  8
KI
  6
CONTINUOUS
 62
     7
 10
66.067532374930977
 20
-9.3889327768496305
 30
0.0
 11
66.067532571358171
 21
-9.3889325357475872
 31
0.0
  0
LINE
  5
19D8A
  8
KI
  6
CONTINUOUS
 62
     7
 10
69.112427715192496
 20
-8.5732437753107451
 30
0.0
 11
79.124250781252101
 21
-8.5732437753107487
 31
0.0
  0
ARC
  5
19D8B
  8
KI
  6
CONTINUOUS
 62
     7
 10
79.124250781252101
 20
-9.0732437753107487
 30
0.0
 40
0.5
 50
359.99999999999829
 51
90.0
  0
ARC
  5
19D8C
  8
KI
  6
CONTINUOUS
 62
     7
 10
62.120573686667221
 20
-11.690736214377351
 30
0.0
 40
0.3
 50
73.716937057229572
 51
257.14909562687677
  0
ARC
  5
19D8D
  8
KI
  6
CONTINUOUS
 62
     7
 10
63.481404425160179
 20
-10.57528486321905
 30
0.0
 40
0.5
 50
319.32741197263852
 51
335.44260642604002
  0
ARC
  5
19D8E
  8
KI
  6
CONTINUOUS
 62
     7
 10
71.75826768668361
 20
-14.35727922019066
 30
0.0
 40
10.0
 50
160.1968242058378
 51
162.81541990369081
  0
ARC
  5
19D8F
  8
KI
  6
CONTINUOUS
 62
     7
 10
62.455507232900743
 20
-10.688676224562061
 30
0.0
 40
0.3
 50
67.613299124407405
 51
249.3373552809833
  0
ARC
  5
19D90
  8
KI
  6
CONTINUOUS
 62
     7
 10
65.984276991823151
 20
-12.72601239478797
 30
0.0
 40
4.0
 50
244.29819125374479
 51
267.65265816413881
  0
ARC
  5
19D91
  8
KI
  6
CONTINUOUS
 62
     7
 10
71.758267686693159
 20
-14.357286257968431
 30
0.0
 40
8.7999999999999972
 50
164.19808653013251
 51
164.22396225264819
  0
ARC
  5
19D92
  8
KI
  6
CONTINUOUS
 62
     7
 10
63.984276991824061
 20
-16.190114009925651
 30
0.0
 40
0.3
 50
147.8509043731726
 51
332.1490956268604
  0
ARC
  5
19D93
  8
KI
  6
CONTINUOUS
 62
     7
 10
65.984276991823151
 20
-12.72601239478797
 30
0.0
 40
4.0
 50
229.29819125370301
 51
235.70180874629281
  0
ARC
  5
19D94
  8
KI
  6
CONTINUOUS
 62
     7
 10
63.155849867076022
 20
-15.554439519532821
 30
0.0
 40
0.3
 50
132.85090437312351
 51
317.14909562685312
  0
ARC
  5
19D95
  8
KI
  6
CONTINUOUS
 62
     7
 10
61.984276991823137
 20
-12.726012394789761
 30
0.0
 40
0.3
 50
87.850904373219379
 51
272.14909562685881
  0
ARC
  5
19D96
  8
KI
  6
CONTINUOUS
 62
     7
 10
62.120573686667669
 20
-13.76128857520041
 30
0.0
 40
0.3
 50
102.85090437317641
 51
287.14909562692998
  0
ARC
  5
19D97
  8
KI
  6
CONTINUOUS
 62
     7
 10
65.984276991823151
 20
-12.72601239478797
 30
0.0
 40
4.0
 50
199.2981912537729
 51
205.701808746263
  0
ARC
  5
19D98
  8
KI
  6
CONTINUOUS
 62
     7
 10
62.52017537668501
 20
-14.726012394787061
 30
0.0
 40
0.3
 50
117.8509043731132
 51
302.14909562688081
  0
ARC
  5
19D99
  8
KI
  6
CONTINUOUS
 62
     7
 10
65.984276991823151
 20
-12.72601239478797
 30
0.0
 40
4.0
 50
214.29819125372151
 51
220.70180874624359
  0
ARC
  5
19D9A
  8
KI
  6
CONTINUOUS
 62
     7
 10
65.984276991823151
 20
-12.72601239478797
 30
0.0
 40
4.0
 50
169.29819125371779
 51
175.7018087463002
  0
ARC
  5
19D9B
  8
KI
  6
CONTINUOUS
 62
     7
 10
65.984276991800414
 20
-12.72601239478797
 30
0.0
 40
4.0
 50
184.2981912537584
 51
190.7018087463199
  0
ARC
  5
19D9C
  8
KI
  6
CONTINUOUS
 62
     7
 10
65.984276991823151
 20
-12.72601239478797
 30
0.0
 40
2.799999999999998
 50
139.32741197264451
 51
267.65265816413881
  0
ARC
  5
19D9D
  8
KI
  6
CONTINUOUS
 62
     7
 10
69.147297677411601
 20
-15.822166856975739
 30
0.0
 40
7.2490069497939373
 50
90.275611457649703
 51
135.96157026528141
  0
ARC
  5
19D9E
  8
KI
  6
CONTINUOUS
 62
     7
 10
84.003530180458185
 20
-16.062211574405751
 30
0.0
 40
0.7573354118943643
 50
249.86775998205039
 51
53.905774485226772
  0
ARC
  5
19D9F
  8
KI
  6
CONTINUOUS
 62
     7
 10
82.67466252111619
 20
0.7262182825921804
 30
0.0
 40
2.5000001067820641
 50
268.84468078613151
 51
348.47491455078188
  0
LINE
  5
19DA0
  8
KI
  6
CONTINUOUS
 62
     7
 10
82.624234638748433
 20
-1.7732689278326501
 30
0.0
 11
81.624250781251192
 21
-1.7732689278326501
 31
0.0
  0
LINE
  5
19DA1
  8
KI
  6
DASHED2
 62
     7
 10
83.624253491306632
 20
0.7267257109712029
 30
0.0
 11
82.624234638748433
 21
-0.5232803571956364
 31
0.0
  0
LINE
  5
19DA2
  8
KI
  6
DASHED2
 62
     7
 10
81.624215786190618
 20
0.7267257149202298
 30
0.0
 11
82.624234638748433
 21
-0.5232803532466104
 31
0.0
  0
LINE
  5
19DA3
  8
KI
  6
DASHED2
 62
     7
 10
83.624253491306632
 20
11.72672311874485
 30
0.0
 11
83.624253491306632
 21
0.7267257109712029
 31
0.0
  0
LINE
  5
19DA4
  8
KI
  6
DASHED2
 62
     7
 10
82.624234638748433
 20
12.97672918691169
 30
0.0
 11
82.624234638748433
 21
-0.5232803571956364
 31
0.0
  0
LINE
  5
19DA5
  8
KI
  6
DASHED2
 62
     7
 10
82.624234638748433
 20
12.97672918691169
 30
0.0
 11
81.624250781251192
 21
11.72672311874485
 31
0.0
  0
LINE
  5
19DA6
  8
KI
  6
DASHED2
 62
     7
 10
82.624234638748433
 20
12.97672918691169
 30
0.0
 11
83.624253491306632
 21
11.72672311874485
 31
0.0
  0
LINE
  5
19DA7
  8
KI
  6
CONTINUOUS
 62
     7
 10
85.124246775082554
 20
0.2267162846925368
 30
0.0
 11
85.124246775082554
 21
12.2267325450235
 31
0.0
  0
ARC
  5
19DA8
  8
KI
  6
CONTINUOUS
 62
     7
 10
82.67466252111619
 20
11.72723054712389
 30
0.0
 40
2.5000001067820641
 50
11.525070190429
 51
91.155303955076519
  0
LINE
  5
19DA9
  8
KI
  6
CONTINUOUS
 62
     7
 10
82.624234638748433
 20
14.22671775754826
 30
0.0
 11
81.624250781251192
 21
14.22671775754826
 31
0.0
  0
LINE
  5
19DAA
  8
KI
  6
CONTINUOUS
 62
     7
 10
268.1242157861904
 20
12.22672318160823
 30
0.0
 11
268.1242157861904
 21
0.2267256560058968
 31
0.0
  0
LINE
  5
19DAB
  8
KI
  6
CONTINUOUS
 62
     7
 10
268.1242157861904
 20
0.2267256560058968
 30
0.0
 11
263.6242157861904
 21
0.2267256560058977
 31
0.0
  0
LINE
  5
19DAC
  8
KI
  6
CONTINUOUS
 62
     7
 10
263.6242157861904
 20
0.226725656006324
 30
0.0
 11
263.6242157861904
 21
-5.7732743439936467
 31
0.0
  0
LINE
  5
19DAD
  8
KI
  6
CONTINUOUS
 62
     7
 10
268.1242157861904
 20
12.22672318160823
 30
0.0
 11
263.6242157861904
 21
12.22672318160823
 31
0.0
  0
LINE
  5
19DAE
  8
KI
  6
CONTINUOUS
 62
     7
 10
263.6242157861904
 20
18.226723181608222
 30
0.0
 11
263.6242157861904
 21
12.22672318160825
 31
0.0
  0
LINE
  5
19DAF
  8
KI
  6
CONTINUOUS
 62
     7
 10
263.6242157861904
 20
18.226723181608222
 30
0.0
 11
243.6242157861904
 21
18.226723181608222
 31
0.0
  0
LINE
  5
19DB0
  8
KI
  6
CONTINUOUS
 62
     7
 10
243.6242157861904
 20
18.226723181608222
 30
0.0
 11
243.6242157861904
 21
-5.7732743439936431
 31
0.0
  0
LINE
  5
19DB1
  8
KI
  6
CONTINUOUS
 62
     7
 10
263.6242157861904
 20
-5.7732743439936467
 30
0.0
 11
243.6242157861904
 21
-5.7732743439936431
 31
0.0
  0
LINE
  5
19DB2
  8
KI
  6
CONTINUOUS
 62
     7
 10
243.62418079112959
 20
-6.2732803439943101
 30
0.0
 11
243.62418079112911
 21
-8.4993730752229286
 31
0.0
  0
ARC
  5
19DB3
  8
KI
  6
CONTINUOUS
 62
     7
 10
255.18505668127969
 20
-15.781303393649839
 30
0.0
 40
9.2190722294335075
 50
35.6258681755167
 51
87.195312659551448
  0
LINE
  5
19DB4
  8
KI
  6
CONTINUOUS
 62
     7
 10
245.79118551653181
 20
-5.7732743439931902
 30
0.0
 11
245.62418079112791
 21
-5.9402790693969747
 31
0.0
  0
LINE
  5
19DB5
  8
KI
  6
CONTINUOUS
 62
     7
 10
246.48921112863709
 20
-5.973274343993916
 30
0.0
 11
245.889205128638
 21
-6.573280343994039
 31
0.0
  0
LINE
  5
19DB6
  8
KI
  6
CONTINUOUS
 62
     7
 10
246.6892111286385
 20
-5.7732743439936431
 30
0.0
 11
246.48921112863781
 21
-5.973274343993916
 31
0.0
  0
LINE
  5
19DB7
  8
KI
  6
CONTINUOUS
 62
     7
 10
247.38723674074481
 20
-5.973274343993916
 30
0.0
 11
246.7872307407448
 21
-6.573280343994039
 31
0.0
  0
LINE
  5
19DB8
  8
KI
  6
CONTINUOUS
 62
     7
 10
247.587236740745
 20
-5.7732743439931902
 30
0.0
 11
247.38723674074481
 21
-5.973274343993916
 31
0.0
  0
LINE
  5
19DB9
  8
KI
  6
CONTINUOUS
 62
     7
 10
248.28526235285139
 20
-5.973274343993916
 30
0.0
 11
247.6852563528515
 21
-6.573280343994039
 31
0.0
  0
LINE
  5
19DBA
  8
KI
  6
CONTINUOUS
 62
     7
 10
248.48526235285181
 20
-5.7732743439931902
 30
0.0
 11
248.28526235285139
 21
-5.973274343993916
 31
0.0
  0
LINE
  5
19DBB
  8
KI
  6
CONTINUOUS
 62
     7
 10
249.18328796495871
 20
-5.973274343993916
 30
0.0
 11
248.5832819649583
 21
-6.5732803439935843
 31
0.0
  0
LINE
  5
19DBC
  8
KI
  6
CONTINUOUS
 62
     7
 10
249.3832879649591
 20
-5.7732743439931902
 30
0.0
 11
249.18328796495871
 21
-5.973274343993916
 31
0.0
  0
LINE
  5
19DBD
  8
KI
  6
CONTINUOUS
 62
     7
 10
250.0813135770654
 20
-5.9732743439948273
 30
0.0
 11
249.48130757706571
 21
-6.573280343994492
 31
0.0
  0
LINE
  5
19DBE
  8
KI
  6
CONTINUOUS
 62
     7
 10
250.28131357706599
 20
-5.773274343994097
 30
0.0
 11
250.0813135770654
 21
-5.973274343994369
 31
0.0
  0
LINE
  5
19DBF
  8
KI
  6
CONTINUOUS
 62
     7
 10
250.97933918917209
 20
-5.9732743439948273
 30
0.0
 11
250.62418079112871
 21
-6.328432742037756
 31
0.0
  0
LINE
  5
19DC0
  8
KI
  6
CONTINUOUS
 62
     7
 10
250.62418079112871
 20
-6.328432742037756
 30
0.0
 11
250.3999686554539
 21
-6.552644877713071
 31
0.0
  0
LINE
  5
19DC1
  8
KI
  6
CONTINUOUS
 62
     7
 10
251.17933918917231
 20
-5.7732743439945509
 30
0.0
 11
250.97933918917209
 21
-5.973274343994369
 31
0.0
  0
LINE
  5
19DC2
  8
KI
  6
CONTINUOUS
 62
     7
 10
251.87736480127941
 20
-5.973274343994369
 30
0.0
 11
251.27736480128041
 21
-6.573274343993825
 31
0.0
  0
LINE
  5
19DC3
  8
KI
  6
CONTINUOUS
 62
     7
 10
252.07736480127909
 20
-5.7732743439945509
 30
0.0
 11
251.87736480127941
 21
-5.973274343994369
 31
0.0
  0
LINE
  5
19DC4
  8
KI
  6
CONTINUOUS
 62
     7
 10
252.7753904133865
 20
-5.973274343994369
 30
0.0
 11
252.17539041338631
 21
-6.573274343994278
 31
0.0
  0
LINE
  5
19DC5
  8
KI
  6
CONTINUOUS
 62
     7
 10
252.97539041338641
 20
-5.773274343994097
 30
0.0
 11
252.7753904133865
 21
-5.973274343994369
 31
0.0
  0
LINE
  5
19DC6
  8
KI
  6
CONTINUOUS
 62
     7
 10
253.62418079112879
 20
-6.0225095783583793
 30
0.0
 11
253.073416025493
 21
-6.573274343994278
 31
0.0
  0
LINE
  5
19DC7
  8
KI
  6
CONTINUOUS
 62
     7
 10
253.62418079112879
 20
-5.7732743439940979
 30
0.0
 11
253.62418079112879
 21
-6.5732743439942833
 31
0.0
  0
LINE
  5
19DC8
  8
KI
  6
CONTINUOUS
 62
     7
 10
245.62418079112959
 20
-5.7732743439936431
 30
0.0
 11
245.62418079112871
 21
-6.573280343994492
 31
0.0
  0
LINE
  5
19DC9
  8
KI
  6
CONTINUOUS
 62
     7
 10
254.6361595433988
 20
-6.5732743439947372
 30
0.0
 11
250.87419079112959
 21
-6.573274343994278
 31
0.0
  0
LINE
  5
19DCA
  8
KI
  6
CONTINUOUS
 62
     7
 10
250.62419079112911
 20
-6.3732743439940061
 30
0.0
 11
250.37418079112939
 21
-6.573274343994278
 31
0.0
  0
LINE
  5
19DCB
  8
KI
  6
CONTINUOUS
 62
     7
 10
250.62419079112911
 20
-6.3732803439937662
 30
0.0
 11
250.87419079112959
 21
-6.573274343994278
 31
0.0
  0
LINE
  5
19DCC
  8
KI
  6
CONTINUOUS
 62
     7
 10
250.37419079112911
 20
-6.573280343994492
 30
0.0
 11
244.62418079112959
 21
-6.573280343994492
 31
0.0
  0
ARC
  5
19DCD
  8
KI
  6
CONTINUOUS
 62
     7
 10
255.33615954339911
 20
-6.2732743439940979
 30
0.0
 40
0.3
 50
359.99999999991371
 51
89.999999999651507
  0
LINE
  5
19DCE
  8
KI
  6
CONTINUOUS
 62
     7
 10
255.6361595433988
 20
-6.5732743439942833
 30
0.0
 11
255.63615954339929
 21
-6.2732743439940979
 31
0.0
  0
ARC
  5
19DCF
  8
KI
  6
CONTINUOUS
 62
     7
 10
254.9361595433999
 20
-6.2732743439913721
 30
0.0
 40
0.3
 50
89.999999999651507
 51
179.9999999999136
  0
LINE
  5
19DD0
  8
KI
  6
CONTINUOUS
 62
     7
 10
255.33615954339911
 20
-5.9732743439939187
 30
0.0
 11
254.9361595433999
 21
-5.9732743439916431
 31
0.0
  0
ARC
  5
19DD1
  8
KI
  6
CONTINUOUS
 62
     7
 10
244.32418079112961
 20
-6.2732743439913712
 30
0.0
 40
0.3
 50
359.99999999991371
 51
89.999999999651507
  0
ARC
  5
19DD2
  8
KI
  6
CONTINUOUS
 62
     7
 10
243.92418079113
 20
-6.2732743439895504
 30
0.0
 40
0.3
 50
89.999999999651507
 51
179.9999999999136
  0
LINE
  5
19DD3
  8
KI
  6
CONTINUOUS
 62
     7
 10
244.32418079112961
 20
-5.973274343992097
 30
0.0
 11
243.92418079113
 21
-5.9732743439893667
 31
0.0
  0
LINE
  5
19DD4
  8
KI
  6
CONTINUOUS
 62
     7
 10
244.62418079112959
 20
-6.573280343994492
 30
0.0
 11
244.62418079112959
 21
-6.2732743439913712
 31
0.0
  0
LINE
  5
19DD5
  8
KI
  6
CONTINUOUS
 62
     7
 10
254.63615954339909
 20
-6.2732743439913721
 30
0.0
 11
254.6361595433988
 21
-6.5732743439947372
 31
0.0
  0
LINE
  5
19DD6
  8
KI
  6
CONTINUOUS
 62
     7
 10
253.62418079112879
 20
-5.7732743439940979
 30
0.0
 11
245.62418079112959
 21
-5.7732743439936431
 31
0.0
  0
ARC
  5
19DD7
  8
KI
  6
CONTINUOUS
 62
     7
 10
245.06502273421529
 20
-13.766673193393521
 30
0.0
 40
0.5
 50
59.296923400935583
 51
153.9809326377069
  0
ARC
  5
19DD8
  8
KI
  6
CONTINUOUS
 62
     7
 10
238.07685638957801
 20
-10.3554374696431
 30
0.0
 40
7.2763100519022599
 50
298.11323276635818
 51
333.98093263770693
  0
ARC
  5
19DD9
  8
KI
  6
CONTINUOUS
 62
     7
 10
257.84077196107887
 20
7.747509121134156
 30
0.0
 40
24.521586859558742
 50
239.29692340093581
 51
273.71118635343151
  0
ARC
  5
19DDA
  8
KI
  6
CONTINUOUS
 62
     7
 10
238.07685638957801
 20
-10.3554374696431
 30
0.0
 40
5.776310051902259
 50
298.11323276635818
 51
343.81317179960399
  0
LINE
  5
19DDB
  8
KI
  6
CONTINUOUS
 62
     7
 10
243.62418079112831
 20
-8.4993730752229286
 30
0.0
 11
243.6241807911303
 21
-11.96570136095109
 31
0.0
  0
ARC
  5
19DDC
  8
KI
  6
CONTINUOUS
 62
     7
 10
257.84077196107887
 20
7.747509121134156
 30
0.0
 40
23.321944298558741
 50
238.41089939395661
 51
273.71118635343151
  0
LINE
  5
19DDD
  8
KI
  6
CONTINUOUS
 62
     7
 10
245.62418079112871
 20
-9.0732437753107398
 30
0.0
 11
245.62418079112871
 21
-12.11874331991236
 31
0.0
  0
LINE
  5
19DDE
  8
KI
  6
CONTINUOUS
 62
     7
 10
259.18089919745
 20
-9.3889327768496234
 30
0.0
 11
259.18089900102268
 21
-9.3889325357475837
 31
0.0
  0
LINE
  5
19DDF
  8
KI
  6
CONTINUOUS
 62
     7
 10
256.13600385718843
 20
-8.5732437753107416
 30
0.0
 11
246.12418079112871
 21
-8.5732437753107398
 31
0.0
  0
ARC
  5
19DE0
  8
KI
  6
CONTINUOUS
 62
     7
 10
246.12418079112871
 20
-9.0732437753107398
 30
0.0
 40
0.5
 50
90.0
 51
180.00000000000151
  0
ARC
  5
19DE1
  8
KI
  6
CONTINUOUS
 62
     7
 10
263.12785788571381
 20
-11.690736214377351
 30
0.0
 40
0.3
 50
282.850904373123
 51
106.2830629427703
  0
ARC
  5
19DE2
  8
KI
  6
CONTINUOUS
 62
     7
 10
261.7670271472208
 20
-10.57528486321905
 30
0.0
 40
0.5
 50
204.55739357395959
 51
220.67258802736049
  0
ARC
  5
19DE3
  8
KI
  6
CONTINUOUS
 62
     7
 10
253.4901638856974
 20
-14.35727922019065
 30
0.0
 40
10.0
 50
17.18458009630876
 51
19.80317579416209
  0
ARC
  5
19DE4
  8
KI
  6
CONTINUOUS
 62
     7
 10
262.79292433948018
 20
-10.688676224562061
 30
0.0
 40
0.3
 50
290.66264471901661
 51
112.3867008755925
  0
ARC
  5
19DE5
  8
KI
  6
CONTINUOUS
 62
     7
 10
259.2641545805576
 20
-12.72601239478797
 30
0.0
 40
4.0
 50
272.34734183586102
 51
295.7018087462551
  0
ARC
  5
19DE6
  8
KI
  6
CONTINUOUS
 62
     7
 10
253.49016388568791
 20
-14.357286257968431
 30
0.0
 40
8.7999999999999972
 50
15.776037747351999
 51
15.80191346986723
  0
ARC
  5
19DE7
  8
KI
  6
CONTINUOUS
 62
     7
 10
261.26415458055681
 20
-16.190114009925651
 30
0.0
 40
0.3
 50
207.8509043731396
 51
32.149095626827588
  0
ARC
  5
19DE8
  8
KI
  6
CONTINUOUS
 62
     7
 10
259.2641545805576
 20
-12.72601239478797
 30
0.0
 40
4.0
 50
304.29819125370682
 51
310.7018087462971
  0
ARC
  5
19DE9
  8
KI
  6
CONTINUOUS
 62
     7
 10
262.09258170530501
 20
-15.554439519532821
 30
0.0
 40
0.3
 50
222.85090437314679
 51
47.149095626876061
  0
ARC
  5
19DEA
  8
KI
  6
CONTINUOUS
 62
     7
 10
263.26415458055749
 20
-12.726012394789761
 30
0.0
 40
0.3
 50
267.85090437314102
 51
92.149095626780564
  0
ARC
  5
19DEB
  8
KI
  6
CONTINUOUS
 62
     7
 10
263.12785788571318
 20
-13.76128857520041
 30
0.0
 40
0.3
 50
252.8509043730698
 51
77.149095626823382
  0
ARC
  5
19DEC
  8
KI
  6
CONTINUOUS
 62
     7
 10
259.2641545805576
 20
-12.72601239478797
 30
0.0
 40
4.0
 50
334.29819125373632
 51
340.70180874622662
  0
ARC
  5
19DED
  8
KI
  6
CONTINUOUS
 62
     7
 10
262.72825619569602
 20
-14.726012394787061
 30
0.0
 40
0.3
 50
237.85090437311911
 51
62.149095626886712
  0
ARC
  5
19DEE
  8
KI
  6
CONTINUOUS
 62
     7
 10
259.2641545805576
 20
-12.72601239478797
 30
0.0
 40
4.0
 50
319.29819125375622
 51
325.70180874627903
  0
ARC
  5
19DEF
  8
KI
  6
CONTINUOUS
 62
     7
 10
259.2641545805576
 20
-12.72601239478797
 30
0.0
 40
4.0
 50
4.2981912536996338
 51
10.70180874628195
  0
ARC
  5
19DF0
  8
KI
  6
CONTINUOUS
 62
     7
 10
259.26415458058062
 20
-12.72601239478797
 30
0.0
 40
4.0
 50
349.2981912536801
 51
355.70180874624123
  0
ARC
  5
19DF1
  8
KI
  6
CONTINUOUS
 62
     7
 10
259.2641545805576
 20
-12.72601239478797
 30
0.0
 40
2.799999999999998
 50
272.34734183586102
 51
40.67258802735536
  0
ARC
  5
19DF2
  8
KI
  6
CONTINUOUS
 62
     7
 10
256.10113389496911
 20
-15.822166856975731
 30
0.0
 40
7.2490069497939373
 50
44.038429734718562
 51
89.724388542350269
  0
ARC
  5
19DF3
  8
KI
  6
CONTINUOUS
 62
     7
 10
241.24490139192281
 20
-16.06221157440574
 30
0.0
 40
0.7573354118943643
 50
126.0942255147734
 51
290.13224001794953
  0
ARC
  5
19DF4
  8
KI
  6
CONTINUOUS
 62
     7
 10
242.5737690512648
 20
0.7262182825921899
 30
0.0
 40
2.5000001067820641
 50
191.52508544921761
 51
271.1553192138681
  0
LINE
  5
19DF5
  8
KI
  6
CONTINUOUS
 62
     7
 10
242.6241969336325
 20
-1.773268927832639
 30
0.0
 11
243.62418079112959
 21
-1.773268927832639
 31
0.0
  0
LINE
  5
19DF6
  8
KI
  6
DASHED2
 62
     7
 10
241.62417808107429
 20
0.7267257109712138
 30
0.0
 11
242.6241969336325
 21
-0.5232803571956266
 31
0.0
  0
LINE
  5
19DF7
  8
KI
  6
DASHED2
 62
     7
 10
243.6242157861904
 20
0.7267257149202396
 30
0.0
 11
242.6241969336325
 21
-0.5232803532466006
 31
0.0
  0
LINE
  5
19DF8
  8
KI
  6
DASHED2
 62
     7
 10
241.62417808107429
 20
11.72672311874487
 30
0.0
 11
241.62417808107429
 21
0.7267257109712138
 31
0.0
  0
LINE
  5
19DF9
  8
KI
  6
DASHED2
 62
     7
 10
242.6241969336325
 20
12.97672918691171
 30
0.0
 11
242.6241969336325
 21
-0.5232803571956266
 31
0.0
  0
LINE
  5
19DFA
  8
KI
  6
DASHED2
 62
     7
 10
242.6241969336325
 20
12.97672918691171
 30
0.0
 11
243.62418079112959
 21
11.72672311874487
 31
0.0
  0
LINE
  5
19DFB
  8
KI
  6
DASHED2
 62
     7
 10
242.6241969336325
 20
12.97672918691171
 30
0.0
 11
241.62417808107429
 21
11.72672311874487
 31
0.0
  0
LINE
  5
19DFC
  8
KI
  6
CONTINUOUS
 62
     7
 10
240.1241847972984
 20
0.2267162846925483
 30
0.0
 11
240.1241847972984
 21
12.226732545023509
 31
0.0
  0
ARC
  5
19DFD
  8
KI
  6
CONTINUOUS
 62
     7
 10
242.5737690512648
 20
11.72723054712389
 30
0.0
 40
2.5000001067820641
 50
88.844696044923452
 51
168.47492980957091
  0
LINE
  5
19DFE
  8
KI
  6
CONTINUOUS
 62
     7
 10
242.6241969336325
 20
14.22671775754827
 30
0.0
 11
243.62418079112959
 21
14.22671775754827
 31
0.0
  0
LINE
  5
19DFF
  8
SU
  6
CONTINUOUS
 62
     3
 10
277.6242157861904
 20
-153.77327605644061
 30
0.0
 11
287.62421578619052
 21
-147.77327605644081
 31
0.0
  0
LINE
  5
19E00
  8
SU
  6
CONTINUOUS
 62
     3
 10
277.6242157861904
 20
-141.77327605644081
 30
0.0
 11
287.62421578619052
 21
-147.77327605644081
 31
0.0
  0
LINE
  5
19E01
  8
SU
  6
CONTINUOUS
 62
     3
 10
277.6242157861904
 20
-153.77327605644061
 30
0.0
 11
277.6242157861904
 21
-141.77327605644081
 31
0.0
  0
LINE
  5
19E02
  8
SU
  6
CONTINUOUS
 62
     3
 10
263.62421577060348
 20
-132.77327605644061
 30
0.0
 11
287.62421578619052
 21
-132.77327605644061
 31
0.0
  0
LINE
  5
19E03
  8
SU
  6
CONTINUOUS
 62
     3
 10
47.624215786190462
 20
-153.77327605644061
 30
0.0
 11
37.624215786190469
 21
-147.77327605644081
 31
0.0
  0
LINE
  5
19E04
  8
SU
  6
CONTINUOUS
 62
     3
 10
47.624215786190462
 20
-141.77327605644081
 30
0.0
 11
37.624215786190469
 21
-147.77327605644081
 31
0.0
  0
LINE
  5
19E05
  8
SU
  6
CONTINUOUS
 62
     3
 10
47.624215786190462
 20
-153.77327605644061
 30
0.0
 11
47.624215786190462
 21
-141.77327605644081
 31
0.0
  0
LINE
  5
19E06
  8
SU
  6
CONTINUOUS
 62
     3
 10
61.624215786190462
 20
-75.273276056455202
 30
0.0
 11
61.624215786190462
 21
-135.77327605644061
 31
0.0
  0
LINE
  5
19E07
  8
SU
  6
CONTINUOUS
 62
     3
 10
65.624215801777325
 20
-132.77327605644061
 30
0.0
 11
61.624215786190462
 21
-132.77327605644061
 31
0.0
  0
LINE
  5
19E08
  8
SU
  6
CONTINUOUS
 62
     3
 10
63.6242157939839
 20
-132.77327605644061
 30
0.0
 11
68.324215801777328
 21
-117.77327605644091
 31
0.0
  0
LINE
  5
19E09
  8
SU
  6
CONTINUOUS
 62
     3
 10
68.324215801777328
 20
-117.77327605644091
 30
0.0
 11
73.295644373205903
 21
-117.77327605644091
 31
0.0
  0
LINE
  5
19E0A
  8
SU
  6
CONTINUOUS
 62
     3
 10
61.624215801777311
 20
-132.77327605644061
 30
0.0
 11
37.624215786190398
 21
-132.77327605644061
 31
0.0
  0
LINE
  5
19E0B
  8
SU
  6
CONTINUOUS
 62
     3
 10
37.624215786190469
 20
-75.273276056455742
 30
0.0
 11
37.624215786190447
 21
-150.77327605644081
 31
0.0
  0
LINE
  5
19E0C
  8
SU
  6
CONTINUOUS
 62
     3
 10
287.62421578619052
 20
-75.273276056455742
 30
0.0
 11
287.62421578619052
 21
-150.77327605644081
 31
0.0
  0
LINE
  5
19E0D
  8
SU
  6
CONTINUOUS
 62
     3
 10
37.624215786190447
 20
-147.77327605644081
 30
0.0
 11
287.62421578619052
 21
-147.77327605644081
 31
0.0
  0
LINE
  5
19E0E
  8
SU
  6
CONTINUOUS
 62
     3
 10
263.6242157861904
 20
-75.273276056455202
 30
0.0
 11
263.6242157861904
 21
-135.77327605644061
 31
0.0
  0
LINE
  5
19E0F
  8
SU
  6
CONTINUOUS
 62
     3
 10
259.62421577060348
 20
-132.77327605644061
 30
0.0
 11
263.6242157861904
 21
-132.77327605644061
 31
0.0
  0
LINE
  5
19E10
  8
SU
  6
CONTINUOUS
 62
     3
 10
261.62421577839712
 20
-132.77327605644061
 30
0.0
 11
256.92421577060361
 21
-117.77327605644091
 31
0.0
  0
LINE
  5
19E11
  8
SU
  6
CONTINUOUS
 62
     3
 10
256.92421577060361
 20
-117.77327605644091
 30
0.0
 11
251.95278719917511
 21
-117.77327605644091
 31
0.0
  0
LINE
  5
19E12
  8
SU
  6
CONTINUOUS
 62
     3
 10
259.62421577060348
 20
-67.773276056440977
 30
0.0
 11
259.62421577060348
 21
-135.77327605644061
 31
0.0
  0
LINE
  5
19E13
  8
SU
  6
CONTINUOUS
 62
     3
 10
65.624215801777538
 20
-67.773276056440977
 30
0.0
 11
65.624215801777538
 21
-135.77327605644061
 31
0.0
  0
LINE
  5
19E14
  8
SU
  6
CONTINUOUS
 62
     3
 10
259.62421577060348
 20
-132.77327605644061
 30
0.0
 11
65.624215801777538
 21
-132.77327605644061
 31
0.0
  0
LINE
  5
19E15
  8
SU
  6
CONTINUOUS
 62
     3
 10
-158.09164836061561
 20
-224.52955350477191
 30
0.0
 11
-130.0916482471128
 21
-224.52955350477191
 31
0.0
  0
LINE
  5
19E16
  8
SU
  6
CONTINUOUS
 62
     3
 10
-133.0916482471126
 20
-212.5295535047718
 30
0.0
 11
-133.0916482471126
 21
-224.52955350477191
 31
0.0
  0
LINE
  5
19E17
  8
SU
  6
CONTINUOUS
 62
     3
 10
-139.0916482471126
 20
-202.52955350477171
 30
0.0
 11
-133.0916482471126
 21
-212.52955350477151
 31
0.0
  0
LINE
  5
19E18
  8
SU
  6
CONTINUOUS
 62
     3
 10
-127.0916482471126
 20
-202.52955350477171
 30
0.0
 11
-133.0916482471126
 21
-212.52955350477151
 31
0.0
  0
LINE
  5
19E19
  8
SU
  6
CONTINUOUS
 62
     3
 10
-139.0916482471126
 20
-202.52955350477171
 30
0.0
 11
-127.0916482471126
 21
-202.52955350477171
 31
0.0
  0
LINE
  5
19E1A
  8
SU
  6
CONTINUOUS
 62
     3
 10
-226.84164921882191
 20
-208.02955350477191
 30
0.0
 11
-228.7612345318899
 21
-209.50250312121679
 31
0.0
  0
LINE
  5
19E1B
  8
SU
  6
CONTINUOUS
 62
     3
 10
-226.84164921882191
 20
-208.02955350477191
 30
0.0
 11
-228.31500306541571
 21
-209.9496656208261
 31
0.0
  0
ARC
  5
19E1C
  8
KI
  6
CONTINUOUS
 62
     7
 10
-205.2883951576633
 20
-211.5813895684154
 30
0.0
 40
0.9481639363564127
 50
176.8660808498669
 51
3.133919150132968
  0
LINE
  5
19E1D
  8
KI
  6
CONTINUOUS
 62
     7
 10
-224.84164921882191
 20
-206.52955350477191
 30
0.0
 11
-224.84164921882191
 21
-211.52955350477191
 31
0.0
  0
LINE
  5
19E1E
  8
KI
  6
CONTINUOUS
 62
     7
 10
-206.23514109650461
 20
-206.52955350477191
 30
0.0
 11
-206.23514109650461
 21
-211.52955350477191
 31
0.0
  0
LINE
  5
19E1F
  8
KI
  6
CONTINUOUS
 62
     7
 10
-204.34164921882191
 20
-204.52955350477191
 30
0.0
 11
-204.34164921882191
 21
-211.52955350477191
 31
0.0
  0
LINE
  5
19E20
  8
KI
  6
CONTINUOUS
 62
     7
 10
-226.84164921882191
 20
-204.52955350477191
 30
0.0
 11
-226.84164921882191
 21
-211.52955350477191
 31
0.0
  0
ARC
  5
19E21
  8
KI
  6
CONTINUOUS
 62
     7
 10
-225.84164921882191
 20
-211.52955350477191
 30
0.0
 40
1.0
 50
180.0
 51
0.0
  0
LINE
  5
19E22
  8
KI
  6
CONTINUOUS
 62
     7
 10
-226.84164921882191
 20
-204.52955350477191
 30
0.0
 11
-204.34164921882191
 21
-204.52955350477191
 31
0.0
  0
LINE
  5
19E23
  8
KI
  6
CONTINUOUS
 62
     7
 10
-206.23514109650461
 20
-206.52955350477191
 30
0.0
 11
-224.84164921882191
 21
-206.52955350477191
 31
0.0
  0
LINE
  5
19E24
  8
SU
  6
CONTINUOUS
 62
     3
 10
-189.5916483645652
 20
-204.52955350477191
 30
0.0
 11
-145.09164824711141
 21
-204.52955350477191
 31
0.0
  0
LINE
  5
19E25
  8
SU
  6
CONTINUOUS
 62
     3
 10
-148.09164824711141
 20
-204.52955350477191
 30
0.0
 11
-148.09164824711141
 21
-212.5295535047718
 31
0.0
  0
LINE
  5
19E26
  8
SU
  6
CONTINUOUS
 62
     3
 10
-158.09164778841111
 20
-212.5295535047718
 30
0.0
 11
-130.0916482471128
 21
-212.5295535047718
 31
0.0
  0
LINE
  5
19E27
  8
SU
  6
CONTINUOUS
 62
     3
 10
-133.0916482471126
 20
-113.88149114836651
 30
0.0
 11
-133.0916482471126
 21
-212.5295535047718
 31
0.0
  0
LINE
  5
19E28
  8
SU
  6
CONTINUOUS
 62
     3
 10
-189.59164836061569
 20
-204.52955350477191
 30
0.0
 11
-145.09164824711141
 21
-204.52955350477191
 31
0.0
  0
LINE
  5
19E29
  8
SU
  6
CONTINUOUS
 62
     3
 10
-148.09164824711141
 20
-113.88149114836651
 30
0.0
 11
-148.09164824711141
 21
-204.52955350477191
 31
0.0
  0
TEXT
  5
19E2A
  8
SU
  6
CONTINUOUS
 62
     3
 10
-310.26184630634509
 20
-235.45734799399381
 30
0.0
 40
4.0
  1
ボトムタイトナー（三方枠用）
 41
0.8299999999999999
  0
TEXT
  5
19E2B
  8
SU
  6
CONTINUOUS
 62
     3
 10
-295.3534653539644
 20
-242.12401466066041
 30
0.0
 40
4.0
  1
〔オプション〕
 41
0.8299999999999999
  0
LINE
  5
19E2C
  8
SU
  6
CONTINUOUS
 62
     3
 10
-139.09164836061561
 20
147.79402491078679
 30
0.0
 11
-133.09164836061541
 21
157.79402491078719
 31
0.0
  0
LINE
  5
19E2D
  8
SU
  6
CONTINUOUS
 62
     3
 10
-127.09164836061569
 20
147.79402491078679
 30
0.0
 11
-133.09164836061541
 21
157.79402491078719
 31
0.0
  0
LINE
  5
19E2E
  8
SU
  6
CONTINUOUS
 62
     3
 10
-139.09164836061561
 20
147.79402491078679
 30
0.0
 11
-127.09164836061569
 21
147.79402491078679
 31
0.0
  0
LINE
  5
19E2F
  8
SU
  6
CONTINUOUS
 62
     3
 10
-185.09164836061541
 20
133.7940249107869
 30
0.0
 11
-145.09164836061441
 21
133.7940249107869
 31
0.0
  0
LINE
  5
19E30
  8
SU
  6
CONTINUOUS
 62
     3
 10
-148.09164836061441
 20
133.7940249107869
 30
0.0
 11
-148.09164836061441
 21
157.79402491078719
 31
0.0
  0
LINE
  5
19E31
  8
SU
  6
CONTINUOUS
 62
     3
 10
-189.59164836061569
 20
130.7940249107869
 30
0.0
 11
-145.09164836061441
 21
130.7940249107869
 31
0.0
  0
LINE
  5
19E32
  8
SU
  6
CONTINUOUS
 62
     3
 10
-148.09164836061441
 20
130.7940249107869
 30
0.0
 11
-148.09164836061441
 21
133.7940249107869
 31
0.0
  0
LINE
  5
19E33
  8
SU
  6
CONTINUOUS
 62
     3
 10
-148.09164836061441
 20
132.2940249107869
 30
0.0
 11
-163.09164836061561
 21
140.86319699603831
 31
0.0
  0
LINE
  5
19E34
  8
SU
  6
CONTINUOUS
 62
     3
 10
-163.09164836061561
 20
140.86319699603831
 30
0.0
 11
-163.09164836061561
 21
145.67653032937159
 31
0.0
  0
LINE
  5
19E35
  8
SU
  6
CONTINUOUS
 62
     3
 10
-139.09164836061561
 20
-62.702131759625161
 30
0.0
 11
-133.09164836061541
 21
-72.702131759625161
 31
0.0
  0
LINE
  5
19E36
  8
SU
  6
CONTINUOUS
 62
     3
 10
-127.09164836061569
 20
-62.702131759625161
 30
0.0
 11
-133.09164836061541
 21
-72.702131759625161
 31
0.0
  0
LINE
  5
19E37
  8
SU
  6
CONTINUOUS
 62
     3
 10
-139.09164836061561
 20
-62.702131759625161
 30
0.0
 11
-127.09164836061569
 21
-62.702131759625161
 31
0.0
  0
LINE
  5
19E38
  8
SU
  6
CONTINUOUS
 62
     3
 10
-148.09164836061441
 20
-52.702128931741463
 30
0.0
 11
-148.09164836061441
 21
-57.702128931741463
 31
0.0
  0
LINE
  5
19E39
  8
SU
  6
CONTINUOUS
 62
     3
 10
-185.09164836061541
 20
-57.702128931741463
 30
0.0
 11
-145.0916483606143
 21
-57.702128931741463
 31
0.0
  0
LINE
  5
19E3A
  8
SU
  6
CONTINUOUS
 62
     3
 10
-148.0916483606143
 20
-57.702128931741463
 30
0.0
 11
-148.09164836061441
 21
-72.702131759625161
 31
0.0
  0
LINE
  5
19E3B
  8
SU
  6
CONTINUOUS
 62
     3
 10
-182.09164836061541
 20
157.79402491078719
 30
0.0
 11
-130.09164836061561
 21
157.79402491078719
 31
0.0
  0
LINE
  5
19E3C
  8
SU
  6
CONTINUOUS
 62
     3
 10
-158.09164836061561
 20
-72.702131759625161
 30
0.0
 11
-130.09164836061561
 21
-72.702131759625161
 31
0.0
  0
LINE
  5
19E3D
  8
SU
  6
CONTINUOUS
 62
     3
 10
-133.09164836061541
 20
157.79402491078719
 30
0.0
 11
-133.09164836061541
 21
-72.702131759625161
 31
0.0
  0
LINE
  5
19E3E
  8
SU
  6
CONTINUOUS
 62
     3
 10
-189.5916483645652
 20
-52.702128931741463
 30
0.0
 11
-145.09164836061441
 21
-52.702128931741463
 31
0.0
  0
LINE
  5
19E3F
  8
SU
  6
CONTINUOUS
 62
     3
 10
-148.09164836061441
 20
130.7940249107869
 30
0.0
 11
-148.09164836061441
 21
-52.702128931741463
 31
0.0
  0
TEXT
  5
19E40
  8
SU
  6
CONTINUOUS
 62
     3
 10
-333.99229696828991
 20
-31.08023818814253
 30
0.0
 40
4.0
  1
下枠沓摺（四方枠用）
 41
0.8299999999999999
  0
LINE
  5
19E41
  8
SU
  6
CONTINUOUS
 62
     3
 10
-357.09164836061632
 20
-72.702131759625161
 30
0.0
 11
-373.09164836061439
 21
-72.702131759625161
 31
0.0
  0
LINE
  5
19E42
  8
SU
  6
CONTINUOUS
 62
     3
 10
-280.59165007307769
 20
-37.702128931741449
 30
0.0
 11
-373.09164836061439
 21
-37.702128931741441
 31
0.0
  0
LINE
  5
19E43
  8
SU
  6
CONTINUOUS
 62
     3
 10
-370.09164836061427
 20
-72.702131759625161
 30
0.0
 11
-370.09164836061427
 21
-37.702128931741441
 31
0.0
  0
LINE
  5
19E44
  8
KI
  6
DASHED2
 62
     7
 10
-262.54165703279182
 20
113.7939573950639
 30
0.0
 11
-261.04292357119863
 21
111.7939546850087
 31
0.0
  0
LINE
  5
19E45
  8
KI
  6
DASHED2
 62
     7
 10
-264.64164063106682
 20
113.7939573950639
 30
0.0
 11
-266.14037409266041
 21
111.7939546850087
 31
0.0
  0
LINE
  5
19E46
  8
KI
  6
DASHED2
 62
     7
 10
-264.7521200414244
 20
137.53789606203711
 30
0.0
 11
-262.30304321583719
 21
135.7212674696822
 31
0.0
  0
LINE
  5
19E47
  8
KI
  6
DASHED2
 62
     7
 10
-264.7521200414244
 20
138.6480443703974
 30
0.0
 11
-262.30304321583719
 21
136.83141577804179
 31
0.0
  0
LINE
  5
19E48
  8
KI
  6
DASHED2
 62
     7
 10
-264.7521200414244
 20
139.7582276738178
 30
0.0
 11
-262.30304321583719
 21
137.9415990814629
 31
0.0
  0
LINE
  5
19E49
  8
KI
  6
DASHED2
 62
     7
 10
-264.7521200414244
 20
140.86837598217761
 30
0.0
 11
-262.30304321583719
 21
139.05174738982279
 31
0.0
  0
LINE
  5
19E4A
  8
KI
  6
DASHED2
 62
     7
 10
-264.7521200414244
 20
141.97852429053799
 30
0.0
 11
-262.30304321583719
 21
140.1618956981828
 31
0.0
  0
LINE
  5
19E4B
  8
KI
  6
DASHED2
 62
     7
 10
-264.7521200414244
 20
143.0887075939583
 30
0.0
 11
-262.30304321583719
 21
141.2720790016034
 31
0.0
  0
LINE
  5
19E4C
  8
KI
  6
DASHED2
 62
     7
 10
-264.7521200414244
 20
144.198855902318
 30
0.0
 11
-262.30304321583719
 21
142.38222730996381
 31
0.0
  0
LINE
  5
19E4D
  8
KI
  6
DASHED2
 62
     7
 10
-264.7521200414244
 20
145.30900421067841
 30
0.0
 11
-262.30304321583719
 21
143.49237561832371
 31
0.0
  0
LINE
  5
19E4E
  8
KI
  6
DASHED2
 62
     7
 10
-264.7521200414244
 20
146.41918751409881
 30
0.0
 11
-262.30304321583719
 21
144.60255892174411
 31
0.0
  0
LINE
  5
19E4F
  8
KI
  6
DASHED2
 62
     7
 10
-264.7521200414244
 20
147.52933582245871
 30
0.0
 11
-262.30304321583719
 21
145.7127072301044
 31
0.0
  0
LINE
  5
19E50
  8
KI
  6
DASHED2
 62
     7
 10
-264.7521200414244
 20
148.6395191258795
 30
0.0
 11
-262.30304321583719
 21
146.82289053352471
 31
0.0
  0
LINE
  5
19E51
  8
KI
  6
DASHED2
 62
     7
 10
-264.7521200414244
 20
134.20741614189629
 30
0.0
 11
-262.30304321583719
 21
132.3907875495415
 31
0.0
  0
LINE
  5
19E52
  8
KI
  6
DASHED2
 62
     7
 10
-264.7521200414244
 20
135.31756445025681
 30
0.0
 11
-262.30304321583719
 21
133.50093585790151
 31
0.0
  0
LINE
  5
19E53
  8
KI
  6
DASHED2
 62
     7
 10
-264.7521200414244
 20
136.42771275861679
 30
0.0
 11
-262.30304321583719
 21
134.61108416626161
 31
0.0
  0
LINE
  5
19E54
  8
KI
  6
DASHED2
 62
     7
 10
-264.7521200414244
 20
130.87690122669551
 30
0.0
 11
-262.30304321583719
 21
129.06030762940111
 31
0.0
  0
LINE
  5
19E55
  8
KI
  6
DASHED2
 62
     7
 10
-264.7521200414244
 20
131.98708453011639
 30
0.0
 11
-262.30304321583719
 21
130.17045593776081
 31
0.0
  0
LINE
  5
19E56
  8
KI
  6
DASHED2
 62
     7
 10
-264.7521200414244
 20
133.0972328384762
 30
0.0
 11
-262.30304321583719
 21
131.28060424612141
 31
0.0
  0
LINE
  5
19E57
  8
KI
  6
DASHED2
 62
     7
 10
-264.75212003747521
 20
137.53789606203711
 30
0.0
 11
-262.30304321188811
 21
135.7212674696822
 31
0.0
  0
LINE
  5
19E58
  8
KI
  6
DASHED2
 62
     7
 10
-264.75212003747521
 20
138.6480443703974
 30
0.0
 11
-262.30304321188811
 21
136.83141577804179
 31
0.0
  0
LINE
  5
19E59
  8
KI
  6
DASHED2
 62
     7
 10
-264.75212003747521
 20
139.7582276738178
 30
0.0
 11
-262.30304321188811
 21
137.9415990814629
 31
0.0
  0
LINE
  5
19E5A
  8
KI
  6
DASHED2
 62
     7
 10
-264.75212003747521
 20
140.86837598217761
 30
0.0
 11
-262.30304321188811
 21
139.05174738982279
 31
0.0
  0
LINE
  5
19E5B
  8
KI
  6
DASHED2
 62
     7
 10
-264.75212003747521
 20
141.97852429053799
 30
0.0
 11
-262.30304321188811
 21
140.1618956981828
 31
0.0
  0
LINE
  5
19E5C
  8
KI
  6
DASHED2
 62
     7
 10
-264.75212003747521
 20
143.0887075939583
 30
0.0
 11
-262.30304321188811
 21
141.2720790016034
 31
0.0
  0
LINE
  5
19E5D
  8
KI
  6
DASHED2
 62
     7
 10
-264.75212003747521
 20
144.198855902318
 30
0.0
 11
-262.30304321188811
 21
142.38222730996381
 31
0.0
  0
LINE
  5
19E5E
  8
KI
  6
DASHED2
 62
     7
 10
-264.75212003747521
 20
145.30900421067841
 30
0.0
 11
-262.30304321188811
 21
143.49237561832371
 31
0.0
  0
LINE
  5
19E5F
  8
KI
  6
DASHED2
 62
     7
 10
-264.75212003747521
 20
146.41918751409881
 30
0.0
 11
-262.30304321188811
 21
144.60255892174411
 31
0.0
  0
LINE
  5
19E60
  8
KI
  6
DASHED2
 62
     7
 10
-264.75212003747521
 20
147.52933582245871
 30
0.0
 11
-262.30304321188811
 21
145.7127072301044
 31
0.0
  0
LINE
  5
19E61
  8
KI
  6
DASHED2
 62
     7
 10
-264.75212003747521
 20
148.6395191258795
 30
0.0
 11
-262.30304321188811
 21
146.82289053352471
 31
0.0
  0
LINE
  5
19E62
  8
KI
  6
DASHED2
 62
     7
 10
-264.75212003747521
 20
149.74966743423991
 30
0.0
 11
-262.30304321188811
 21
147.93303884188441
 31
0.0
  0
LINE
  5
19E63
  8
KI
  6
DASHED2
 62
     7
 10
-264.75212003747521
 20
150.85981574259961
 30
0.0
 11
-262.30304321188811
 21
149.0431871502449
 31
0.0
  0
LINE
  5
19E64
  8
KI
  6
DASHED2
 62
     7
 10
-264.75212003747521
 20
151.96999904602001
 30
0.0
 11
-262.30304321188811
 21
150.1533704536653
 31
0.0
  0
LINE
  5
19E65
  8
KI
  6
DASHED2
 62
     7
 10
-264.75212003747521
 20
153.0801473543803
 30
0.0
 11
-262.30304321188811
 21
151.2635187620248
 31
0.0
  0
LINE
  5
19E66
  8
KI
  6
DASHED2
 62
     7
 10
-264.64164063106682
 20
113.7939573950639
 30
0.0
 11
-264.64164063106682
 21
151.90858271461479
 31
0.0
  0
LINE
  5
19E67
  8
KI
  6
DASHED2
 62
     7
 10
-264.64164063106682
 20
151.90858271461479
 30
0.0
 11
-263.59611070215999
 21
160.49689551908369
 31
0.0
  0
LINE
  5
19E68
  8
KI
  6
DASHED2
 62
     7
 10
-262.54165703279182
 20
151.90858271461479
 30
0.0
 11
-263.5871869616991
 21
160.49689551908369
 31
0.0
  0
LINE
  5
19E69
  8
KI
  6
DASHED2
 62
     7
 10
-262.54165703279182
 20
113.7939573950639
 30
0.0
 11
-262.54165703279182
 21
151.90858271461479
 31
0.0
  0
LINE
  5
19E6A
  8
KI
  6
DASHED2
 62
     7
 10
-264.75212003747521
 20
134.20741614189629
 30
0.0
 11
-262.30304321188811
 21
132.3907875495415
 31
0.0
  0
LINE
  5
19E6B
  8
KI
  6
DASHED2
 62
     7
 10
-264.75212003747521
 20
135.31756445025681
 30
0.0
 11
-262.30304321188811
 21
133.50093585790211
 31
0.0
  0
LINE
  5
19E6C
  8
KI
  6
DASHED2
 62
     7
 10
-264.75212003747521
 20
136.42771275861679
 30
0.0
 11
-262.30304321188811
 21
134.61108416626161
 31
0.0
  0
LINE
  5
19E6D
  8
KI
  6
DASHED2
 62
     7
 10
-264.75212003747521
 20
130.87690122669551
 30
0.0
 11
-262.30304321188811
 21
129.06030762940111
 31
0.0
  0
LINE
  5
19E6E
  8
KI
  6
DASHED2
 62
     7
 10
-264.75212003747521
 20
131.98708453011639
 30
0.0
 11
-262.30304321188811
 21
130.17045593776081
 31
0.0
  0
LINE
  5
19E6F
  8
KI
  6
DASHED2
 62
     7
 10
-264.75212003747521
 20
133.0972328384762
 30
0.0
 11
-262.30304321188811
 21
131.28060424612141
 31
0.0
  0
LINE
  5
19E70
  8
KI
  6
CENTER2
 62
     7
 10
-263.59164883192949
 20
107.43899436493
 30
0.0
 11
-263.59164883192949
 21
165.90919660103219
 31
0.0
  0
LINE
  5
19E71
  8
KI
  6
CONTINUOUS
 62
     7
 10
-269.59164759868008
 20
138.29399239012471
 30
0.0
 11
-257.5916500730778
 21
138.29399239012471
 31
0.0
  0
LINE
  5
19E72
  8
KI
  6
CONTINUOUS
 62
     7
 10
-257.5916500730778
 20
138.29399239012471
 30
0.0
 11
-257.5916500730778
 21
133.79399239012471
 31
0.0
  0
LINE
  5
19E73
  8
KI
  6
CONTINUOUS
 62
     7
 10
-257.59165007307831
 20
133.79399239012471
 30
0.0
 11
-251.59165007307831
 21
133.79399239012471
 31
0.0
  0
LINE
  5
19E74
  8
KI
  6
CONTINUOUS
 62
     7
 10
-269.59164759868008
 20
138.29399239012471
 30
0.0
 11
-269.59164759868008
 21
133.79399239012471
 31
0.0
  0
LINE
  5
19E75
  8
KI
  6
CONTINUOUS
 62
     7
 10
-275.5916475986802
 20
133.79399239012471
 30
0.0
 11
-269.59164759868008
 21
133.79399239012471
 31
0.0
  0
LINE
  5
19E76
  8
KI
  6
CONTINUOUS
 62
     7
 10
-275.5916475986802
 20
133.79399239012471
 30
0.0
 11
-275.5916475986802
 21
113.7939923901247
 31
0.0
  0
LINE
  5
19E77
  8
KI
  6
CONTINUOUS
 62
     7
 10
-275.5916475986802
 20
113.7939923901247
 30
0.0
 11
-251.59165007307831
 21
113.7939923901247
 31
0.0
  0
LINE
  5
19E78
  8
KI
  6
CONTINUOUS
 62
     7
 10
-251.59165007307831
 20
133.79399239012471
 30
0.0
 11
-251.59165007307831
 21
113.7939923901247
 31
0.0
  0
LINE
  5
19E79
  8
KI
  6
CONTINUOUS
 62
     7
 10
-251.09164407307739
 20
113.7939573950639
 30
0.0
 11
-248.8655513418488
 21
113.7939573950637
 31
0.0
  0
ARC
  5
19E7A
  8
KI
  6
CONTINUOUS
 62
     7
 10
-241.5836210234221
 20
125.3548332852139
 30
0.0
 40
9.2190722294335075
 50
125.62586817551571
 51
177.1953126595514
  0
LINE
  5
19E7B
  8
KI
  6
CONTINUOUS
 62
     7
 10
-251.59165007307871
 20
115.96096212046611
 30
0.0
 11
-251.4246453476749
 21
115.79395739506199
 31
0.0
  0
LINE
  5
19E7C
  8
KI
  6
CONTINUOUS
 62
     7
 10
-251.3916500730779
 20
116.6589877325715
 30
0.0
 11
-250.79164407307769
 21
116.05898173257241
 31
0.0
  0
LINE
  5
19E7D
  8
KI
  6
CONTINUOUS
 62
     7
 10
-251.59165007307831
 20
116.8589877325727
 30
0.0
 11
-251.3916500730779
 21
116.6589877325721
 31
0.0
  0
LINE
  5
19E7E
  8
KI
  6
CONTINUOUS
 62
     7
 10
-251.3916500730779
 20
117.55701334467931
 30
0.0
 11
-250.79164407307769
 21
116.9570073446789
 31
0.0
  0
LINE
  5
19E7F
  8
KI
  6
CONTINUOUS
 62
     7
 10
-251.59165007307871
 20
117.75701334467951
 30
0.0
 11
-251.3916500730779
 21
117.55701334467931
 31
0.0
  0
LINE
  5
19E80
  8
KI
  6
CONTINUOUS
 62
     7
 10
-251.3916500730779
 20
118.4550389567859
 30
0.0
 11
-250.79164407307769
 21
117.85503295678591
 31
0.0
  0
LINE
  5
19E81
  8
KI
  6
CONTINUOUS
 62
     7
 10
-251.59165007307871
 20
118.6550389567861
 30
0.0
 11
-251.3916500730779
 21
118.4550389567859
 31
0.0
  0
LINE
  5
19E82
  8
KI
  6
CONTINUOUS
 62
     7
 10
-251.3916500730779
 20
119.3530645688932
 30
0.0
 11
-250.79164407307809
 21
118.7530585688925
 31
0.0
  0
LINE
  5
19E83
  8
KI
  6
CONTINUOUS
 62
     7
 10
-251.59165007307871
 20
119.5530645688934
 30
0.0
 11
-251.3916500730779
 21
119.3530645688932
 31
0.0
  0
LINE
  5
19E84
  8
KI
  6
CONTINUOUS
 62
     7
 10
-251.39165007307679
 20
120.2510901809999
 30
0.0
 11
-250.79164407307721
 21
119.6510841810002
 31
0.0
  0
LINE
  5
19E85
  8
KI
  6
CONTINUOUS
 62
     7
 10
-251.59165007307769
 20
120.4510901810005
 30
0.0
 11
-251.3916500730775
 21
120.2510901809999
 31
0.0
  0
LINE
  5
19E86
  8
KI
  6
CONTINUOUS
 62
     7
 10
-251.39165007307679
 20
121.1491157931064
 30
0.0
 11
-251.03649167503411
 21
120.7939573950632
 31
0.0
  0
LINE
  5
19E87
  8
KI
  6
CONTINUOUS
 62
     7
 10
-251.03649167503411
 20
120.7939573950632
 30
0.0
 11
-250.8122795393588
 21
120.5697452593884
 31
0.0
  0
LINE
  5
19E88
  8
KI
  6
CONTINUOUS
 62
     7
 10
-251.59165007307729
 20
121.3491157931068
 30
0.0
 11
-251.3916500730775
 21
121.1491157931064
 31
0.0
  0
LINE
  5
19E89
  8
KI
  6
CONTINUOUS
 62
     7
 10
-251.3916500730775
 20
122.04714140521349
 30
0.0
 11
-250.79165007307779
 21
121.44714140521479
 31
0.0
  0
LINE
  5
19E8A
  8
KI
  6
CONTINUOUS
 62
     7
 10
-251.59165007307729
 20
122.2471414052135
 30
0.0
 11
-251.3916500730775
 21
122.04714140521349
 31
0.0
  0
LINE
  5
19E8B
  8
KI
  6
CONTINUOUS
 62
     7
 10
-251.3916500730775
 20
122.945167017321
 30
0.0
 11
-250.79165007307751
 21
122.34516701732051
 31
0.0
  0
LINE
  5
19E8C
  8
KI
  6
CONTINUOUS
 62
     7
 10
-251.59165007307769
 20
123.1451670173208
 30
0.0
 11
-251.3916500730775
 21
122.945167017321
 31
0.0
  0
LINE
  5
19E8D
  8
KI
  6
CONTINUOUS
 62
     7
 10
-251.34241483871361
 20
123.7939573950632
 30
0.0
 11
-250.79165007307751
 21
123.2431926294273
 31
0.0
  0
LINE
  5
19E8E
  8
KI
  6
CONTINUOUS
 62
     7
 10
-251.59165007307769
 20
123.7939573950632
 30
0.0
 11
-250.79165007307751
 21
123.7939573950632
 31
0.0
  0
LINE
  5
19E8F
  8
KI
  6
CONTINUOUS
 62
     7
 10
-251.59165007307831
 20
115.7939573950639
 30
0.0
 11
-250.79164407307721
 21
115.7939573950632
 31
0.0
  0
LINE
  5
19E90
  8
KI
  6
CONTINUOUS
 62
     7
 10
-250.79165007307711
 20
124.8059361473329
 30
0.0
 11
-250.79165007307751
 21
121.0439673950639
 31
0.0
  0
LINE
  5
19E91
  8
KI
  6
CONTINUOUS
 62
     7
 10
-250.99165007307789
 20
120.7939673950634
 30
0.0
 11
-250.79165007307751
 21
120.5439573950634
 31
0.0
  0
LINE
  5
19E92
  8
KI
  6
CONTINUOUS
 62
     7
 10
-250.99164407307791
 20
120.7939673950634
 30
0.0
 11
-250.79165007307751
 21
121.0439673950639
 31
0.0
  0
LINE
  5
19E93
  8
KI
  6
CONTINUOUS
 62
     7
 10
-250.79164407307721
 20
120.5439673950634
 30
0.0
 11
-250.79164407307721
 21
114.7939573950639
 31
0.0
  0
ARC
  5
19E94
  8
KI
  6
CONTINUOUS
 62
     7
 10
-251.0916500730778
 20
125.5059361473334
 30
0.0
 40
0.3
 50
89.999999999912077
 51
179.99999999965141
  0
LINE
  5
19E95
  8
KI
  6
CONTINUOUS
 62
     7
 10
-250.79165007307751
 20
125.8059361473329
 30
0.0
 11
-251.0916500730778
 21
125.8059361473335
 31
0.0
  0
ARC
  5
19E96
  8
KI
  6
CONTINUOUS
 62
     7
 10
-251.09165007308039
 20
125.10593614733411
 30
0.0
 40
0.3
 50
179.99999999965141
 51
269.99999999991189
  0
LINE
  5
19E97
  8
KI
  6
CONTINUOUS
 62
     7
 10
-251.3916500730779
 20
125.5059361473334
 30
0.0
 11
-251.39165007308031
 21
125.10593614733411
 31
0.0
  0
ARC
  5
19E98
  8
KI
  6
CONTINUOUS
 62
     7
 10
-251.09165007308039
 20
114.4939573950639
 30
0.0
 40
0.3
 50
89.999999999912077
 51
179.99999999965141
  0
ARC
  5
19E99
  8
KI
  6
CONTINUOUS
 62
     7
 10
-251.09165007308221
 20
114.09395739506419
 30
0.0
 40
0.3
 50
179.99999999965141
 51
269.99999999991189
  0
LINE
  5
19E9A
  8
KI
  6
CONTINUOUS
 62
     7
 10
-251.3916500730798
 20
114.4939573950639
 30
0.0
 11
-251.3916500730825
 21
114.09395739506419
 31
0.0
  0
LINE
  5
19E9B
  8
KI
  6
CONTINUOUS
 62
     7
 10
-250.79164407307721
 20
114.7939573950639
 30
0.0
 11
-251.09165007308039
 21
114.7939573950639
 31
0.0
  0
LINE
  5
19E9C
  8
KI
  6
CONTINUOUS
 62
     7
 10
-251.09165007308039
 20
124.8059361473335
 30
0.0
 11
-250.79165007307711
 21
124.8059361473329
 31
0.0
  0
LINE
  5
19E9D
  8
KI
  6
CONTINUOUS
 62
     7
 10
-251.59165007307769
 20
123.7939573950632
 30
0.0
 11
-251.59165007307831
 21
115.7939573950639
 31
0.0
  0
ARC
  5
19E9E
  8
KI
  6
CONTINUOUS
 62
     7
 10
-243.5982512236784
 20
115.2347993381497
 30
0.0
 40
0.5
 50
149.29692340093499
 51
243.98093263770789
  0
ARC
  5
19E9F
  8
KI
  6
CONTINUOUS
 62
     7
 10
-247.0094869474288
 20
108.24663299351261
 30
0.0
 40
7.2763100519022599
 50
28.113232766357871
 51
63.980932637708079
  0
ARC
  5
19EA0
  8
KI
  6
CONTINUOUS
 62
     7
 10
-265.11243353820612
 20
128.01054856501361
 30
0.0
 40
24.521586859558742
 50
329.2969234009351
 51
3.7111863534315721
  0
ARC
  5
19EA1
  8
KI
  6
CONTINUOUS
 62
     7
 10
-247.0094869474288
 20
108.24663299351261
 30
0.0
 40
5.776310051902259
 50
28.113232766357871
 51
73.813171799602614
  0
LINE
  5
19EA2
  8
KI
  6
CONTINUOUS
 62
     7
 10
-248.8655513418488
 20
113.79395739506271
 30
0.0
 11
-245.3992230561208
 21
113.7939573950645
 31
0.0
  0
ARC
  5
19EA3
  8
KI
  6
CONTINUOUS
 62
     7
 10
-265.11243353820612
 20
128.01054856501361
 30
0.0
 40
23.321944298558741
 50
328.4108993939571
 51
3.7111863534315721
  0
LINE
  5
19EA4
  8
KI
  6
CONTINUOUS
 62
     7
 10
-248.2916806417611
 20
115.7939573950632
 30
0.0
 11
-245.24618109715951
 21
115.7939573950632
 31
0.0
  0
LINE
  5
19EA5
  8
KI
  6
CONTINUOUS
 62
     7
 10
-247.9759916402223
 20
129.35067580138431
 30
0.0
 11
-247.97599188132409
 21
129.35067560495699
 31
0.0
  0
LINE
  5
19EA6
  8
KI
  6
CONTINUOUS
 62
     7
 10
-248.7916806417611
 20
126.3057804611225
 30
0.0
 11
-248.7916806417611
 21
116.2939573950632
 31
0.0
  0
ARC
  5
19EA7
  8
KI
  6
CONTINUOUS
 62
     7
 10
-248.2916806417611
 20
116.2939573950632
 30
0.0
 40
0.5
 50
180.0
 51
270.0
  0
ARC
  5
19EA8
  8
KI
  6
CONTINUOUS
 62
     7
 10
-245.6741882026943
 20
133.29763448964781
 30
0.0
 40
0.3
 50
12.850904373123271
 51
196.28306294276999
  0
ARC
  5
19EA9
  8
KI
  6
CONTINUOUS
 62
     7
 10
-246.78963955385271
 20
131.93680375115511
 30
0.0
 40
0.5
 50
294.55739357396061
 51
310.67258802736001
  0
ARC
  5
19EAA
  8
KI
  6
CONTINUOUS
 62
     7
 10
-243.0076451968813
 20
123.65994048963159
 30
0.0
 40
10.0
 50
107.18458009630901
 51
109.803175794162
  0
ARC
  5
19EAB
  8
KI
  6
CONTINUOUS
 62
     7
 10
-246.67624819250989
 20
132.9627009434146
 30
0.0
 40
0.3
 50
20.662644719016761
 51
202.3867008755924
  0
ARC
  5
19EAC
  8
KI
  6
CONTINUOUS
 62
     7
 10
-244.63891202228399
 20
129.4339311844922
 30
0.0
 40
4.0
 50
2.3473418358611311
 51
25.701808746255711
  0
ARC
  5
19EAD
  8
KI
  6
CONTINUOUS
 62
     7
 10
-243.00763815910341
 20
123.6599404896222
 30
0.0
 40
8.7999999999999972
 50
105.7760377473525
 51
105.8019134698674
  0
ARC
  5
19EAE
  8
KI
  6
CONTINUOUS
 62
     7
 10
-241.17481040714631
 20
131.43393118449131
 30
0.0
 40
0.3
 50
297.8509043731396
 51
122.14909562682701
  0
ARC
  5
19EAF
  8
KI
  6
CONTINUOUS
 62
     7
 10
-244.63891202228399
 20
129.4339311844922
 30
0.0
 40
4.0
 50
34.29819125370711
 51
40.7018087462979
  0
ARC
  5
19EB0
  8
KI
  6
CONTINUOUS
 62
     7
 10
-241.81048489753911
 20
132.2623583092392
 30
0.0
 40
0.3
 50
312.8509043731467
 51
137.1490956268762
  0
ARC
  5
19EB1
  8
KI
  6
CONTINUOUS
 62
     7
 10
-244.63891202228211
 20
133.4339311844922
 30
0.0
 40
0.3
 50
357.85090437314102
 51
182.14909562678051
  0
ARC
  5
19EB2
  8
KI
  6
CONTINUOUS
 62
     7
 10
-243.60363584187141
 20
133.29763448964741
 30
0.0
 40
0.3
 50
342.85090437306962
 51
167.149095626823
  0
ARC
  5
19EB3
  8
KI
  6
CONTINUOUS
 62
     7
 10
-244.63891202228399
 20
129.4339311844922
 30
0.0
 40
4.0
 50
64.298191253737713
 51
70.701808746225552
  0
ARC
  5
19EB4
  8
KI
  6
CONTINUOUS
 62
     7
 10
-242.63891202228481
 20
132.8980327996303
 30
0.0
 40
0.3
 50
327.85090437311823
 51
152.14909562688661
  0
ARC
  5
19EB5
  8
KI
  6
CONTINUOUS
 62
     7
 10
-244.63891202228399
 20
129.4339311844922
 30
0.0
 40
4.0
 50
49.298191253757572
 51
55.70180874627755
  0
ARC
  5
19EB6
  8
KI
  6
CONTINUOUS
 62
     7
 10
-244.63891202228399
 20
129.4339311844922
 30
0.0
 40
4.0
 50
94.298191253699784
 51
100.7018087462834
  0
ARC
  5
19EB7
  8
KI
  6
CONTINUOUS
 62
     7
 10
-244.63891202228399
 20
129.4339311845149
 30
0.0
 40
4.0
 50
79.298191253680031
 51
85.701808746241468
  0
ARC
  5
19EB8
  8
KI
  6
CONTINUOUS
 62
     7
 10
-244.63891202228399
 20
129.4339311844922
 30
0.0
 40
2.799999999999998
 50
2.3473418358611311
 51
130.67258802735509
  0
ARC
  5
19EB9
  8
KI
  6
CONTINUOUS
 62
     7
 10
-241.54275756009611
 20
126.2709104989035
 30
0.0
 40
7.2490069497939373
 50
134.0384297347197
 51
179.72438854235031
  0
ARC
  5
19EBA
  8
KI
  6
CONTINUOUS
 62
     7
 10
-241.30271284266621
 20
111.41467799585701
 30
0.0
 40
0.7573354118943643
 50
216.094225514774
 51
20.132240017949432
  0
ARC
  5
19EBB
  8
KI
  6
CONTINUOUS
 62
     7
 10
-258.09114269966409
 20
112.7435456551989
 30
0.0
 40
2.5000001067820641
 50
281.5250854492183
 51
1.155319213868458
  0
LINE
  5
19EBC
  8
KI
  6
CONTINUOUS
 62
     7
 10
-255.59165548923909
 20
112.7939735375669
 30
0.0
 11
-255.59165548923909
 21
113.7939573950639
 31
0.0
  0
LINE
  5
19EBD
  8
KI
  6
DASHED2
 62
     7
 10
-258.09165012804311
 20
111.7939546850087
 30
0.0
 11
-256.84164405987622
 21
112.7939735375669
 31
0.0
  0
LINE
  5
19EBE
  8
KI
  6
DASHED2
 62
     7
 10
-258.0916501319922
 20
113.7939923901247
 30
0.0
 11
-256.8416440638253
 21
112.7939735375669
 31
0.0
  0
LINE
  5
19EBF
  8
KI
  6
DASHED2
 62
     7
 10
-269.09164753581678
 20
111.7939546850087
 30
0.0
 11
-258.09165012804311
 21
111.7939546850087
 31
0.0
  0
LINE
  5
19EC0
  8
KI
  6
DASHED2
 62
     7
 10
-270.34165360398362
 20
112.7939735375669
 30
0.0
 11
-256.84164405987622
 21
112.7939735375669
 31
0.0
  0
LINE
  5
19EC1
  8
KI
  6
DASHED2
 62
     7
 10
-270.34165360398362
 20
112.7939735375669
 30
0.0
 11
-269.09164753581678
 21
113.7939573950639
 31
0.0
  0
LINE
  5
19EC2
  8
KI
  6
DASHED2
 62
     7
 10
-270.34165360398362
 20
112.7939735375669
 30
0.0
 11
-269.09164753581678
 21
111.7939546850087
 31
0.0
  0
LINE
  5
19EC3
  8
KI
  6
CONTINUOUS
 62
     7
 10
-257.5916407017645
 20
110.29396140123271
 30
0.0
 11
-269.5916569620951
 21
110.29396140123271
 31
0.0
  0
ARC
  5
19EC4
  8
KI
  6
CONTINUOUS
 62
     7
 10
-269.0921549641958
 20
112.7435456551989
 30
0.0
 40
2.5000001067820641
 50
178.8446960449235
 51
258.47492980957082
  0
LINE
  5
19EC5
  8
KI
  6
CONTINUOUS
 62
     7
 10
-271.59164217462012
 20
112.7939735375669
 30
0.0
 11
-271.59164217462012
 21
113.7939573950639
 31
0.0
  0
LINE
  5
19EC6
  8
SU
  6
CONTINUOUS
 62
     3
 10
-186.09164836061569
 20
132.79402491078699
 30
0.0
 11
-186.09164836061569
 21
74.294024910788323
 31
0.0
  0
LINE
  5
19EC7
  8
SU
  6
CONTINUOUS
 62
     3
 10
-332.09164836061558
 20
132.7940249107869
 30
0.0
 11
-332.09164836061558
 21
74.294024910788323
 31
0.0
  0
LINE
  5
19EC8
  8
SU
  6
CONTINUOUS
 62
     3
 10
-186.09164836061569
 20
77.294024910788323
 30
0.0
 11
-332.09164836061558
 21
77.294024910788323
 31
0.0
  0
LINE
  5
19EC9
  8
SU
  6
CONTINUOUS
 62
     3
 10
-190.59164836061569
 20
92.294024910788636
 30
0.0
 11
-186.09164836061569
 21
92.294024910788636
 31
0.0
  0
LINE
  5
19ECA
  8
SU
  6
CONTINUOUS
 62
     3
 10
-186.09164836061569
 20
92.294024910788636
 30
0.0
 11
-174.13545788442511
 21
92.294024910788636
 31
0.0
  0
LINE
  5
19ECB
  8
SU
  6
CONTINUOUS
 62
     3
 10
-186.09164836061569
 20
77.294024910788551
 30
0.0
 11
-183.09164836061541
 21
77.294024910788551
 31
0.0
  0
LINE
  5
19ECC
  8
SU
  6
CONTINUOUS
 62
     3
 10
-183.09164836061541
 20
77.294024910788551
 30
0.0
 11
-175.87831502728241
 21
77.294024910788551
 31
0.0
  0
LINE
  5
19ECD
  8
SU
  6
CONTINUOUS
 62
     3
 10
-190.5916483645652
 20
129.79399239012471
 30
0.0
 11
-190.5916483645652
 21
89.294024910788664
 31
0.0
  0
LINE
  5
19ECE
  8
SU
  6
CONTINUOUS
 62
     3
 10
-240.59165007307831
 20
129.79399239012491
 30
0.0
 11
-240.59165007307831
 21
89.294024910788664
 31
0.0
  0
LINE
  5
19ECF
  8
SU
  6
CONTINUOUS
 62
     3
 10
-190.5916483645652
 20
92.294024910788636
 30
0.0
 11
-240.59165007307831
 21
92.294024910788636
 31
0.0
  0
LINE
  5
19ED0
  8
SU
  6
CONTINUOUS
 62
     3
 10
-240.59165007307831
 20
129.79399239012491
 30
0.0
 11
-240.59165007307831
 21
89.294024910788806
 31
0.0
  0
LINE
  5
19ED1
  8
SU
  6
CONTINUOUS
 62
     3
 10
-251.5916500733295
 20
112.7939923901247
 30
0.0
 11
-251.5916500733295
 21
89.294024910788806
 31
0.0
  0
LINE
  5
19ED2
  8
SU
  6
CONTINUOUS
 62
     3
 10
-240.59165007307831
 20
92.294024910788806
 30
0.0
 11
-251.5916500733295
 21
92.294024910788806
 31
0.0
  0
LINE
  5
19ED3
  8
SU
  6
CONTINUOUS
 62
     3
 10
-251.5916500733295
 20
112.7939923901247
 30
0.0
 11
-251.5916500733295
 21
89.294024910788934
 31
0.0
  0
LINE
  5
19ED4
  8
SU
  6
CONTINUOUS
 62
     3
 10
-275.59164759893122
 20
112.7939923901247
 30
0.0
 11
-275.59164759893122
 21
89.294024910788934
 31
0.0
  0
LINE
  5
19ED5
  8
SU
  6
CONTINUOUS
 62
     3
 10
-251.5916500733295
 20
92.294024910788877
 30
0.0
 11
-275.59164759893122
 21
92.294024910788877
 31
0.0
  0
LINE
  5
19ED6
  8
SU
  6
CONTINUOUS
 62
     3
 10
-275.5916475986802
 20
112.7939923901247
 30
0.0
 11
-275.5916475986802
 21
89.294024910788863
 31
0.0
  0
LINE
  5
19ED7
  8
SU
  6
CONTINUOUS
 62
     3
 10
-332.09164836061558
 20
132.7940249107869
 30
0.0
 11
-332.09164836061558
 21
89.294024910788863
 31
0.0
  0
LINE
  5
19ED8
  8
SU
  6
CONTINUOUS
 62
     3
 10
-275.5916475986802
 20
92.294024910788863
 30
0.0
 11
-332.09164836061558
 21
92.294024910788863
 31
0.0
  0
LINE
  5
19ED9
  8
SU
  6
CONTINUOUS
 62
     3
 10
-333.09164836061569
 20
133.7940249107869
 30
0.0
 11
-358.09164836061422
 21
133.7940249107869
 31
0.0
  0
LINE
  5
19EDA
  8
SU
  6
CONTINUOUS
 62
     3
 10
-276.59164759893122
 20
113.7939923901247
 30
0.0
 11
-358.09164836061422
 21
113.7939923901247
 31
0.0
  0
LINE
  5
19EDB
  8
SU
  6
CONTINUOUS
 62
     3
 10
-355.09164836061422
 20
133.7940249107869
 30
0.0
 11
-355.09164836061422
 21
113.7939923901247
 31
0.0
  0
LINE
  5
19EDC
  8
SU
  6
CONTINUOUS
 62
     3
 10
-332.09164836061558
 20
77.294024910788323
 30
0.0
 11
-335.09164836061359
 21
77.294024910788323
 31
0.0
  0
LINE
  5
19EDD
  8
SU
  6
CONTINUOUS
 62
     3
 10
-335.09164836061359
 20
77.294024910788323
 30
0.0
 11
-342.30498169394701
 21
77.294024910788323
 31
0.0
  0
LINE
  5
19EDE
  8
SU
  6
CONTINUOUS
 62
     3
 10
-284.99053872190649
 20
-45.700480606374498
 30
0.0
 11
-286.29058043663753
 21
-43.659823877110213
 31
0.0
  0
LINE
  5
19EDF
  8
SU
  6
CONTINUOUS
 62
     3
 10
-284.99053872190649
 20
-45.700480606374498
 30
0.0
 11
-286.77493298283167
 21
-44.06538451835101
 31
0.0
  0
LINE
  5
19EE0
  8
SU
  6
CONTINUOUS
 62
     3
 10
-183.09164836974301
 20
-73.702131759639229
 30
0.0
 11
-183.09164836974301
 21
-95.702131759632763
 31
0.0
  0
LINE
  5
19EE1
  8
SU
  6
CONTINUOUS
 62
     3
 10
-183.09164836974301
 20
-92.702131759632749
 30
0.0
 11
-172.16307694117171
 21
-92.702131759632749
 31
0.0
  0
LINE
  5
19EE2
  8
SU
  6
CONTINUOUS
 62
     3
 10
-186.0916484832459
 20
-92.702131759632749
 30
0.0
 11
-183.09164836974301
 21
-92.702131759632749
 31
0.0
  0
LINE
  5
19EE3
  8
SU
  6
CONTINUOUS
 62
     3
 10
-293.0916484741187
 20
-73.702131759633801
 30
0.0
 11
-293.0916484741187
 21
-95.702131759633005
 31
0.0
  0
LINE
  5
19EE4
  8
SU
  6
CONTINUOUS
 62
     3
 10
-186.0916484832459
 20
-73.702131759633346
 30
0.0
 11
-186.0916484832459
 21
-95.702131759633005
 31
0.0
  0
LINE
  5
19EE5
  8
SU
  6
CONTINUOUS
 62
     3
 10
-293.0916484741187
 20
-92.702131759633005
 30
0.0
 11
-186.0916484832459
 21
-92.702131759633005
 31
0.0
  0
LINE
  5
19EE6
  8
SU
  6
CONTINUOUS
 62
     3
 10
-355.09164836061632
 20
-72.702131759625161
 30
0.0
 11
-352.09164836061422
 21
-72.702131759625161
 31
0.0
  0
LINE
  5
19EE7
  8
SU
  6
CONTINUOUS
 62
     3
 10
-294.09164836061569
 20
-57.702128931741463
 30
0.0
 11
-358.09164836061422
 21
-57.702128931741463
 31
0.0
  0
LINE
  5
19EE8
  8
SU
  6
CONTINUOUS
 62
     3
 10
-355.09164836061422
 20
-57.702128931741463
 30
0.0
 11
-355.09164836061422
 21
-72.702131759625161
 31
0.0
  0
LINE
  5
19EE9
  8
SU
  6
CONTINUOUS
 62
     3
 10
-355.09164836061422
 20
-72.702131759625161
 30
0.0
 11
-355.09164836061422
 21
-82.60308414057755
 31
0.0
  0
LINE
  5
19EEA
  8
SU
  6
CONTINUOUS
 62
     3
 10
-294.09164836061569
 20
-57.702128931741463
 30
0.0
 11
-358.09164836061422
 21
-57.702128931741463
 31
0.0
  0
LINE
  5
19EEB
  8
SU
  6
CONTINUOUS
 62
     3
 10
-280.59165007307769
 20
-37.702128931741449
 30
0.0
 11
-358.09164836061422
 21
-37.702128931741449
 31
0.0
  0
LINE
  5
19EEC
  8
SU
  6
CONTINUOUS
 62
     3
 10
-355.09164836061422
 20
-57.702128931741463
 30
0.0
 11
-355.09164836061422
 21
-37.702128931741449
 31
0.0
  0
LINE
  5
19EED
  8
SU
  6
CONTINUOUS
 62
     3
 10
-293.0916484741187
 20
-73.702131759633801
 30
0.0
 11
-293.0916484741187
 21
-95.702131759633147
 31
0.0
  0
LINE
  5
19EEE
  8
SU
  6
CONTINUOUS
 62
     3
 10
-335.09164836061649
 20
-73.702131759617885
 30
0.0
 11
-335.09164836061649
 21
-95.702131759633147
 31
0.0
  0
LINE
  5
19EEF
  8
SU
  6
CONTINUOUS
 62
     3
 10
-295.49164847411862
 20
-92.702131759633147
 30
0.0
 11
-335.09164836061649
 21
-92.702131759633147
 31
0.0
  0
LINE
  5
19EF0
  8
KI
  6
CONTINUOUS
 62
     7
 10
-271.59164882798001
 20
133.7940249107869
 30
0.0
 11
-329.59164836061558
 21
133.7940249107869
 31
0.0
  0
LINE
  5
19EF1
  8
KI
  6
CONTINUOUS
 62
     7
 10
-188.59164836061569
 20
133.7940249107873
 30
0.0
 11
-255.59164882798001
 21
133.79399239012471
 31
0.0
  0
LINE
  5
19EF2
  8
KI
  6
CONTINUOUS
 62
     7
 10
-332.09164836061558
 20
136.2940249107869
 30
0.0
 11
-332.09164836061558
 21
157.79402491078719
 31
0.0
  0
LINE
  5
19EF3
  8
KI
  6
CONTINUOUS
 62
     7
 10
-332.09164836061558
 20
136.2940249107869
 30
0.0
 11
-329.59164836061558
 21
133.7940249107869
 31
0.0
1001
GENIUS_GENFIL_13
1070
     0
1040
2.5
1040
2.5
1040
20.0
1040
0.0
1002
{
1002
}
1001
GENIUS_GENOBJ-N-CHA_13
1002
{
1000
OWNER
1000
GEN
1002
}
1001
GENIUS_GENODEF_13
1002
{
1000
HIER
1070
     0
1002
}
1002
{
1000
MANEDIT
1070
     0
1002
}
1002
{
1000
NOSEL
1070
     0
1002
}
1002
{
1000
BEHIND
1070
     0
1002
}
1002
{
1000
OTHER
1070
     0
1002
}
1002
{
1000
REACTOR
1002
}
  0
LINE
  5
19EF4
  8
KI
  6
CONTINUOUS
 62
     7
 10
-332.09164836061558
 20
157.79402491078699
 30
0.0
 11
-186.09164836061569
 21
157.79402491078719
 31
0.0
  0
LINE
  5
19EF5
  8
KI
  6
CONTINUOUS
 62
     7
 10
-186.09164836061569
 20
157.79402491078719
 30
0.0
 11
-186.09164836061569
 21
136.2940249107873
 31
0.0
  0
LINE
  5
19EF6
  8
KI
  6
CONTINUOUS
 62
     7
 10
-186.09164836061569
 20
136.2940249107873
 30
0.0
 11
-188.59164836061569
 21
133.7940249107873
 31
0.0
1001
GENIUS_GENFIL_13
1070
     0
1040
2.5
1040
2.5
1040
20.0
1040
0.0
1002
{
1002
}
1001
GENIUS_GENOBJ-N-CHA_13
1002
{
1000
OWNER
1000
GEN
1002
}
1001
GENIUS_GENODEF_13
1002
{
1000
HIER
1070
     0
1002
}
1002
{
1000
MANEDIT
1070
     0
1002
}
1002
{
1000
NOSEL
1070
     0
1002
}
1002
{
1000
BEHIND
1070
     0
1002
}
1002
{
1000
OTHER
1070
     0
1002
}
1002
{
1000
REACTOR
1002
}
  0
LINE
  5
19EF7
  8
OS
  6
CONTINUOUS
 62
     2
 10
-332.09164836061558
 20
149.23544658551461
 30
0.0
 11
-323.53307003534292
 21
157.79402491078719
 31
0.0
  0
LINE
  5
19EF8
  8
OS
  6
CONTINUOUS
 62
     2
 10
-332.09164836061558
 20
139.33595164890301
 30
0.0
 11
-313.63357509873151
 21
157.79402491078719
 31
0.0
  0
LINE
  5
19EF9
  8
OS
  6
CONTINUOUS
 62
     2
 10
-327.73408016211982
 20
133.7940249107869
 30
0.0
 11
-303.7340801621196
 21
157.79402491078719
 31
0.0
  0
LINE
  5
19EFA
  8
OS
  6
CONTINUOUS
 62
     2
 10
-317.83458522550802
 20
133.7940249107873
 30
0.0
 11
-293.83458522550819
 21
157.79402491078719
 31
0.0
  0
LINE
  5
19EFB
  8
OS
  6
CONTINUOUS
 62
     2
 10
-307.9350902888965
 20
133.79402491078719
 30
0.0
 11
-283.93509028889639
 21
157.79402491078719
 31
0.0
  0
LINE
  5
19EFC
  8
OS
  6
CONTINUOUS
 62
     2
 10
-298.03559535228487
 20
133.79402491078719
 30
0.0
 11
-274.03559535228482
 21
157.7940249107873
 31
0.0
  0
LINE
  5
19EFD
  8
OS
  6
CONTINUOUS
 62
     2
 10
-278.23660547906121
 20
133.7940249107869
 30
0.0
 11
-254.2366054790613
 21
157.79402491078719
 31
0.0
  0
LINE
  5
19EFE
  8
OS
  6
CONTINUOUS
 62
     2
 10
-263.33714306311242
 20
138.79399239012471
 30
0.0
 11
-244.33711054244969
 21
157.7940249107873
 31
0.0
  0
LINE
  5
19EFF
  8
OS
  6
CONTINUOUS
 62
     2
 10
-248.53814976624039
 20
133.79399581377339
 30
0.0
 11
-224.5381206692264
 21
157.79402491078699
 31
0.0
  0
LINE
  5
19F00
  8
OS
  6
CONTINUOUS
 62
     2
 10
-228.7391307960032
 20
133.79402491078719
 30
0.0
 11
-204.739130796003
 21
157.79402491078719
 31
0.0
  0
LINE
  5
19F01
  8
OS
  6
CONTINUOUS
 62
     2
 10
-218.83963585939151
 20
133.7940249107869
 30
0.0
 11
-194.83963585939111
 21
157.79402491078719
 31
0.0
  0
LINE
  5
19F02
  8
OS
  6
CONTINUOUS
 62
     2
 10
-208.9401409227799
 20
133.79402491078719
 30
0.0
 11
-186.09164836061711
 21
156.64251747295
 31
0.0
  0
LINE
  5
19F03
  8
OS
  6
CONTINUOUS
 62
     2
 10
-199.04064598616819
 20
133.79402491078719
 30
0.0
 11
-186.0916483606168
 21
146.7430225363384
 31
0.0
  0
LINE
  5
19F04
  8
OS
  6
CONTINUOUS
 62
     2
 10
-189.1411510495565
 20
133.79402491078719
 30
0.0
 11
-186.0916483606168
 21
136.84352759972671
 31
0.0
  0
LINE
  5
19F05
  8
OS
  6
CONTINUOUS
 62
     2
 10
-288.13610041567313
 20
133.7940249107873
 30
0.0
 11
-264.13610041567313
 21
157.7940249107873
 31
0.0
  0
LINE
  5
19F06
  8
OS
  6
CONTINUOUS
 62
     2
 10
-238.6386257326148
 20
133.7940249107869
 30
0.0
 11
-214.6386257326148
 21
157.79402491078719
 31
0.0
  0
LINE
  5
19F07
  8
OS
  6
CONTINUOUS
 62
     2
 10
-255.59164882798001
 20
136.63999168864541
 30
0.0
 11
-234.4376156058382
 21
157.79402491078719
 31
0.0
  0
LINE
  5
19F08
  8
KI
  6
CONTINUOUS
 62
     7
 10
-271.59164882798001
 20
138.79399239012471
 30
0.0
 11
-271.59164882798001
 21
133.79399239012471
 31
0.0
  0
LINE
  5
19F09
  8
KI
  6
CONTINUOUS
 62
     7
 10
-271.59164882798001
 20
138.79399239012471
 30
0.0
 11
-255.59164882798001
 21
138.79399239012471
 31
0.0
  0
LINE
  5
19F0A
  8
KI
  6
CONTINUOUS
 62
     7
 10
-255.59164882798001
 20
133.79399239012471
 30
0.0
 11
-255.59164882798001
 21
138.79399239012471
 31
0.0
  0
LINE
  5
19F0B
  8
KI
  6
CONTINUOUS
 62
     7
 10
263.6242157861904
 20
14.22672441485757
 30
0.0
 11
263.6242157861904
 21
75.226723943544187
 31
0.0
  0
LINE
  5
19F0C
  8
KI
  6
CONTINUOUS
 62
     7
 10
263.6242157861904
 20
-71.773276056455771
 30
0.0
 11
263.6242157861904
 21
-1.773275585142418
 31
0.0
  0
LINE
  5
19F0D
  8
KI
  6
CONTINUOUS
 62
     7
 10
266.1242157861904
 20
77.726723943544187
 30
0.0
 11
287.62421578619012
 21
77.726723943544187
 31
0.0
  0
LINE
  5
19F0E
  8
KI
  6
CONTINUOUS
 62
     7
 10
266.1242157861904
 20
77.726723943544187
 30
0.0
 11
263.6242157861904
 21
75.226723943544187
 31
0.0
1001
GENIUS_GENFIL_13
1070
     0
1040
2.5
1040
2.5
1040
20.0
1040
0.0
1002
{
1002
}
1001
GENIUS_GENOBJ-N-CHA_13
1002
{
1000
OWNER
1000
GEN
1002
}
1001
GENIUS_GENODEF_13
1002
{
1000
HIER
1070
     0
1002
}
1002
{
1000
MANEDIT
1070
     0
1002
}
1002
{
1000
NOSEL
1070
     0
1002
}
1002
{
1000
BEHIND
1070
     0
1002
}
1002
{
1000
OTHER
1070
     0
1002
}
1002
{
1000
REACTOR
1002
}
  0
LINE
  5
19F0F
  8
KI
  6
CONTINUOUS
 62
     7
 10
287.62421578619012
 20
77.726723943545565
 30
0.0
 11
287.62421578619012
 21
-74.273276056455742
 31
0.0
  0
LINE
  5
19F10
  8
KI
  6
CONTINUOUS
 62
     7
 10
287.62421578619012
 20
-74.273276056455742
 30
0.0
 11
266.1242157861904
 21
-74.273276056455742
 31
0.0
  0
LINE
  5
19F11
  8
KI
  6
CONTINUOUS
 62
     7
 10
266.1242157861904
 20
-74.273276056455742
 30
0.0
 11
263.6242157861904
 21
-71.773276056455771
 31
0.0
1001
GENIUS_GENFIL_13
1070
     0
1040
2.5
1040
2.5
1040
20.0
1040
0.0
1002
{
1002
}
1001
GENIUS_GENOBJ-N-CHA_13
1002
{
1000
OWNER
1000
GEN
1002
}
1001
GENIUS_GENODEF_13
1002
{
1000
HIER
1070
     0
1002
}
1002
{
1000
MANEDIT
1070
     0
1002
}
1002
{
1000
NOSEL
1070
     0
1002
}
1002
{
1000
BEHIND
1070
     0
1002
}
1002
{
1000
OTHER
1070
     0
1002
}
1002
{
1000
REACTOR
1002
}
  0
LINE
  5
19F12
  8
OS
  6
CONTINUOUS
 62
     2
 10
282.96513239752801
 20
-74.273276056455742
 30
0.0
 11
287.62421578619012
 21
-69.614192667793404
 31
0.0
  0
LINE
  5
19F13
  8
OS
  6
CONTINUOUS
 62
     2
 10
273.06563746091661
 20
-74.273276056455742
 30
0.0
 11
287.62421578619012
 21
-59.7146977311819
 31
0.0
  0
LINE
  5
19F14
  8
OS
  6
CONTINUOUS
 62
     2
 10
264.64517915524732
 20
-72.794239425512927
 30
0.0
 11
287.62421578619012
 21
-49.815202794570148
 31
0.0
  0
LINE
  5
19F15
  8
OS
  6
CONTINUOUS
 62
     2
 10
263.62421578619012
 20
-63.91570785795853
 30
0.0
 11
287.62421578619012
 21
-39.915707857958409
 31
0.0
  0
LINE
  5
19F16
  8
OS
  6
CONTINUOUS
 62
     2
 10
263.6242157861904
 20
-54.016212921346892
 30
0.0
 11
287.62421578619012
 21
-30.016212921346881
 31
0.0
  0
LINE
  5
19F17
  8
OS
  6
CONTINUOUS
 62
     2
 10
263.6242157861904
 20
-44.116717984735139
 30
0.0
 11
287.62421578619012
 21
-20.116717984735121
 31
0.0
  0
LINE
  5
19F18
  8
OS
  6
CONTINUOUS
 62
     2
 10
263.6242157861904
 20
-34.217223048123621
 30
0.0
 11
287.62421578619052
 21
-10.2172230481235
 31
0.0
  0
LINE
  5
19F19
  8
OS
  6
CONTINUOUS
 62
     2
 10
263.62421578619012
 20
-4.5187382382887371
 30
0.0
 11
266.36967843933661
 21
-1.773275585142418
 31
0.0
  0
LINE
  5
19F1A
  8
OS
  6
CONTINUOUS
 62
     2
 10
268.6242157861904
 20
10.380756698323051
 30
0.0
 11
287.62421578619012
 21
29.380756698323118
 31
0.0
  0
LINE
  5
19F1B
  8
OS
  6
CONTINUOUS
 62
     2
 10
263.6242157861904
 20
15.28025163493475
 30
0.0
 11
287.62421578619001
 21
39.280251634934757
 31
0.0
  0
LINE
  5
19F1C
  8
OS
  6
CONTINUOUS
 62
     2
 10
263.6242157861904
 20
25.179746571546382
 30
0.0
 11
287.62421578619012
 21
49.179746571546403
 31
0.0
  0
LINE
  5
19F1D
  8
OS
  6
CONTINUOUS
 62
     2
 10
263.6242157861904
 20
35.079241508158127
 30
0.0
 11
287.62421578619012
 21
59.079241508158127
 31
0.0
  0
LINE
  5
19F1E
  8
OS
  6
CONTINUOUS
 62
     2
 10
263.62421578619012
 20
44.978736444769751
 30
0.0
 11
287.62421578619012
 21
68.978736444769865
 31
0.0
  0
LINE
  5
19F1F
  8
OS
  6
CONTINUOUS
 62
     2
 10
263.6242157861904
 20
54.87823138138139
 30
0.0
 11
286.47270834835308
 21
77.726723943544116
 31
0.0
  0
LINE
  5
19F20
  8
OS
  6
CONTINUOUS
 62
     2
 10
263.6242157861904
 20
64.777726317993142
 30
0.0
 11
276.57321341174151
 21
77.726723943544187
 31
0.0
  0
LINE
  5
19F21
  8
OS
  6
CONTINUOUS
 62
     2
 10
263.62421578619012
 20
74.677221254604774
 30
0.0
 11
266.67371847512982
 21
77.726723943544187
 31
0.0
  0
LINE
  5
19F22
  8
OS
  6
CONTINUOUS
 62
     2
 10
263.6242157861904
 20
-24.317728111511759
 30
0.0
 11
287.62421578619052
 21
-0.3177281115117694
 31
0.0
  0
LINE
  5
19F23
  8
OS
  6
CONTINUOUS
 62
     2
 10
263.62421578619012
 20
-14.418233174900211
 30
0.0
 11
287.62421578619012
 21
9.5817668250998622
 31
0.0
  0
LINE
  5
19F24
  8
KI
  6
CONTINUOUS
 62
     7
 10
268.6242157861904
 20
14.22672441485757
 30
0.0
 11
263.6242157861904
 21
14.22672441485757
 31
0.0
  0
LINE
  5
19F25
  8
KI
  6
CONTINUOUS
 62
     7
 10
268.6242157861904
 20
14.22672441485757
 30
0.0
 11
268.6242157861904
 21
-1.773275585142418
 31
0.0
  0
LINE
  5
19F26
  8
KI
  6
CONTINUOUS
 62
     7
 10
263.6242157861904
 20
-1.773275585142418
 30
0.0
 11
268.6242157861904
 21
-1.773275585142418
 31
0.0
  0
LINE
  5
19F27
  8
OS
  6
CONTINUOUS
 62
     2
 10
268.6242157861904
 20
0.4812617617112985
 30
0.0
 11
287.62421578619052
 21
19.481261761711352
 31
0.0
  0
LINE
  5
19F28
  8
SU
  6
CONTINUOUS
 62
     3
 10
263.62421578619012
 20
78.726723943544229
 30
0.0
 11
263.62421578619012
 21
100.726723943544
 31
0.0
  0
LINE
  5
19F29
  8
SU
  6
CONTINUOUS
 62
     3
 10
287.62421578618989
 20
78.726723943544343
 30
0.0
 11
287.62421578618989
 21
100.726723943544
 31
0.0
  0
LINE
  5
19F2A
  8
SU
  6
CONTINUOUS
 62
     3
 10
263.62421578619012
 20
97.726723943544144
 30
0.0
 11
287.62421578618989
 21
97.726723943544144
 31
0.0
  0
LINE
  5
19F2B
  8
SU
  6
CONTINUOUS
 62
     3
 10
61.624215786190391
 20
78.726723943544229
 30
0.0
 11
61.624215786190391
 21
100.726723943544
 31
0.0
  0
LINE
  5
19F2C
  8
SU
  6
CONTINUOUS
 62
     3
 10
37.624215786190291
 20
78.726723943544343
 30
0.0
 11
37.624215786190291
 21
100.726723943544
 31
0.0
  0
LINE
  5
19F2D
  8
SU
  6
CONTINUOUS
 62
     3
 10
61.624215786190391
 20
97.726723943544144
 30
0.0
 11
37.624215786190291
 21
97.726723943544144
 31
0.0
  0
LINE
  5
19F2E
  8
OS
  6
CONTINUOUS
 62
     2
 10
287.62424630376017
 20
54.226727758241282
 30
0.0
 11
292.62424630375989
 21
-50.773279871152788
 31
0.0
  0
LINE
  5
19F2F
  8
OS
  6
CONTINUOUS
 62
     2
 10
292.62421578619001
 20
54.226723943544251
 30
0.0
 11
292.62421578619001
 21
-50.773276056455742
 31
0.0
  0
LINE
  5
19F30
  8
OS
  6
CONTINUOUS
 62
     2
 10
338.62421823471919
 20
64.726723943544243
 30
0.0
 11
287.62421578618989
 21
64.726723943544243
 31
0.0
  0
LINE
  5
19F31
  8
OS
  6
CONTINUOUS
 62
     2
 10
338.62421823471919
 20
56.226723943544243
 30
0.0
 11
287.62421578618989
 21
56.226723943544243
 31
0.0
  0
LINE
  5
19F32
  8
OS
  6
CONTINUOUS
 62
     2
 10
338.62421823471919
 20
-52.773276056455757
 30
0.0
 11
287.62421578618989
 21
-52.773276056455757
 31
0.0
  0
LINE
  5
19F33
  8
OS
  6
CONTINUOUS
 62
     2
 10
338.62421823471919
 20
-61.273276056455742
 30
0.0
 11
287.62421578618989
 21
-61.273276056455742
 31
0.0
  0
LINE
  5
19F34
  8
OS
  6
CONTINUOUS
 62
     2
 10
338.62421823471919
 20
66.726723943544243
 30
0.0
 11
287.62421578618989
 21
66.726723943544243
 31
0.0
  0
LINE
  5
19F35
  8
OS
  6
CONTINUOUS
 62
     2
 10
338.62421823471919
 20
-63.273276056455742
 30
0.0
 11
287.62421578618989
 21
-63.273276056455742
 31
0.0
  0
LINE
  5
19F36
  8
OS
  6
CONTINUOUS
 62
     2
 10
338.62421823471919
 20
-50.773276056455742
 30
0.0
 11
287.62421578618989
 21
-50.773276056455742
 31
0.0
  0
LINE
  5
19F37
  8
OS
  6
CONTINUOUS
 62
     2
 10
338.62421823471919
 20
-4.77310259645526
 30
0.0
 11
292.62409371586989
 21
-50.773226465390849
 31
0.0
  0
LINE
  5
19F38
  8
OS
  6
CONTINUOUS
 62
     2
 10
292.62407845707992
 20
54.226784978700273
 30
0.0
 11
338.62421823471919
 21
8.2266542998472652
 31
0.0
  0
LINE
  5
19F39
  8
OS
  6
CONTINUOUS
 62
     2
 10
338.62421823471919
 20
54.226723943544251
 30
0.0
 11
287.62421578618989
 21
54.226723943544251
 31
0.0
  0
LINE
  5
19F3A
  8
SU
  6
CONTINUOUS
 62
     3
 10
-48.375786662338662
 20
66.726723943544712
 30
0.0
 11
-48.375786662338712
 21
-63.273276056455281
 31
0.0
  0
LINE
  5
19F3B
  8
SU
  6
CONTINUOUS
 62
     3
 10
-14.375786662338699
 20
-50.773276056455281
 30
0.0
 11
-36.375786662338712
 21
-50.773276056455281
 31
0.0
  0
LINE
  5
19F3C
  8
SU
  6
CONTINUOUS
 62
     3
 10
-14.37578666233869
 20
54.226723943544712
 30
0.0
 11
-36.375786662338683
 21
54.226723943544712
 31
0.0
  0
LINE
  5
19F3D
  8
SU
  6
CONTINUOUS
 62
     3
 10
-33.375786662338712
 20
-50.773276056455281
 30
0.0
 11
-33.375786662338697
 21
54.226723943544712
 31
0.0
  0
LINE
  5
19F3E
  8
SU
  6
CONTINUOUS
 62
     3
 10
-33.375786662338697
 20
54.226723943544712
 30
0.0
 11
-33.37578666233869
 21
66.726723943544698
 31
0.0
  0
LINE
  5
19F3F
  8
SU
  6
CONTINUOUS
 62
     3
 10
-33.37578666233869
 20
66.726723943544698
 30
0.0
 11
-33.37578666233869
 21
89.458208633203242
 31
0.0
  0
LINE
  5
19F40
  8
SU
  6
CONTINUOUS
 62
     3
 10
-14.37578666233869
 20
66.726723943544698
 30
0.0
 11
-51.375786662338712
 21
66.726723943544712
 31
0.0
  0
LINE
  5
19F41
  8
SU
  6
CONTINUOUS
 62
     3
 10
36.62421578619027
 20
77.726723943544343
 30
0.0
 11
-51.375786662338712
 21
77.726723943544371
 31
0.0
  0
LINE
  5
19F42
  8
SU
  6
CONTINUOUS
 62
     3
 10
-48.375786662338697
 20
66.726723943544712
 30
0.0
 11
-48.375786662338697
 21
77.726723943544371
 31
0.0
  0
LINE
  5
19F43
  8
SU
  6
CONTINUOUS
 62
     3
 10
-14.375786662338699
 20
-63.273276056455281
 30
0.0
 11
-51.375786662338712
 21
-63.273276056455281
 31
0.0
  0
LINE
  5
19F44
  8
SU
  6
CONTINUOUS
 62
     3
 10
36.624215786190241
 20
-74.273276056455742
 30
0.0
 11
-51.375786662338712
 21
-74.273276056455742
 31
0.0
  0
LINE
  5
19F45
  8
SU
  6
CONTINUOUS
 62
     3
 10
-48.375786662338712
 20
-63.273276056455281
 30
0.0
 11
-48.375786662338712
 21
-74.273276056455742
 31
0.0
  0
LINE
  5
19F46
  8
SU
  6
CONTINUOUS
 62
     3
 10
-33.375786662338712
 20
-50.773276056455281
 30
0.0
 11
-33.375786662338719
 21
-63.273276056455281
 31
0.0
  0
LINE
  5
19F47
  8
SU
  6
CONTINUOUS
 62
     3
 10
-33.375786662338719
 20
-63.273276056455281
 30
0.0
 11
-33.375786662338719
 21
-86.004760746113689
 31
0.0
  0
LINE
  5
19F48
  8
SU
  6
CONTINUOUS
 62
     3
 10
-206.59164836061541
 20
218.7940249107948
 30
0.0
 11
-194.09164836061569
 21
218.7940249107948
 31
0.0
  0
LINE
  5
19F49
  8
SU
  6
CONTINUOUS
 62
     3
 10
-194.09164836061569
 20
218.7940249107948
 30
0.0
 11
-171.36016367095701
 21
218.7940249107948
 31
0.0
  0
LINE
  5
19F4A
  8
SU
  6
CONTINUOUS
 62
     3
 10
-194.09164836061569
 20
199.7940249107948
 30
0.0
 11
-194.09164836061569
 21
236.79402491079509
 31
0.0
  0
LINE
  5
19F4B
  8
SU
  6
CONTINUOUS
 62
     3
 10
-183.09164836061541
 20
158.79402491078699
 30
0.0
 11
-183.09164836061541
 21
236.79402491079509
 31
0.0
  0
LINE
  5
19F4C
  8
SU
  6
CONTINUOUS
 62
     3
 10
-194.09164836061569
 20
233.7940249107948
 30
0.0
 11
-183.09164836061541
 21
233.7940249107948
 31
0.0
  0
LINE
  5
19F4D
  8
SU
  6
CONTINUOUS
 62
     3
 10
-311.59164836061558
 20
218.7940249107948
 30
0.0
 11
-324.09164836061558
 21
218.7940249107948
 31
0.0
  0
LINE
  5
19F4E
  8
SU
  6
CONTINUOUS
 62
     3
 10
-324.09164836061558
 20
218.7940249107948
 30
0.0
 11
-346.8231330502739
 21
218.7940249107948
 31
0.0
  0
LINE
  5
19F4F
  8
SU
  6
CONTINUOUS
 62
     3
 10
-311.59164836061558
 20
199.7940249107948
 30
0.0
 11
-311.59164836061558
 21
221.7940249107948
 31
0.0
  0
LINE
  5
19F50
  8
SU
  6
CONTINUOUS
 62
     3
 10
-206.59164836061541
 20
199.7940249107948
 30
0.0
 11
-206.59164836061541
 21
221.7940249107948
 31
0.0
  0
LINE
  5
19F51
  8
SU
  6
CONTINUOUS
 62
     3
 10
-311.59164836061558
 20
218.7940249107948
 30
0.0
 11
-206.59164836061541
 21
218.7940249107948
 31
0.0
  0
LINE
  5
19F52
  8
SU
  6
CONTINUOUS
 62
     3
 10
-194.09164836061569
 20
233.7940249107948
 30
0.0
 11
-324.09164836061558
 21
233.7940249107948
 31
0.0
  0
LINE
  5
19F53
  8
SU
  6
CONTINUOUS
 62
     3
 10
-324.09164836061558
 20
199.7940249107948
 30
0.0
 11
-324.09164836061558
 21
236.79402491079509
 31
0.0
  0
LINE
  5
19F54
  8
SU
  6
CONTINUOUS
 62
     3
 10
-335.09164836061569
 20
158.79402491078699
 30
0.0
 11
-335.09164836061569
 21
236.79402491079509
 31
0.0
  0
LINE
  5
19F55
  8
SU
  6
CONTINUOUS
 62
     3
 10
-324.09164836061558
 20
233.7940249107948
 30
0.0
 11
-335.09164836061569
 21
233.7940249107948
 31
0.0
  0
LINE
  5
19F56
  8
SU
  6
CONTINUOUS
 62
     3
 10
-336.09164836061558
 20
157.79402491078719
 30
0.0
 11
-358.09164836061569
 21
157.79402491078719
 31
0.0
  0
LINE
  5
19F57
  8
SU
  6
CONTINUOUS
 62
     3
 10
-355.09164836061558
 20
157.79402491078719
 30
0.0
 11
-355.09164836061558
 21
133.7940249107869
 31
0.0
  0
LINE
  5
19F58
  8
OS
  6
CONTINUOUS
 62
     2
 10
37.624185268620387
 20
54.226727758241282
 30
0.0
 11
32.624185268620387
 21
-50.773279871152788
 31
0.0
  0
LINE
  5
19F59
  8
OS
  6
CONTINUOUS
 62
     2
 10
32.624215786190391
 20
54.226723943544251
 30
0.0
 11
32.624215786190391
 21
-50.773276056455742
 31
0.0
  0
LINE
  5
19F5A
  8
OS
  6
CONTINUOUS
 62
     2
 10
-13.37578666233868
 20
64.726723943544243
 30
0.0
 11
37.624215786190391
 21
64.726723943544243
 31
0.0
  0
LINE
  5
19F5B
  8
OS
  6
CONTINUOUS
 62
     2
 10
-13.37578666233868
 20
56.226723943544243
 30
0.0
 11
37.624215786190391
 21
56.226723943544243
 31
0.0
  0
LINE
  5
19F5C
  8
OS
  6
CONTINUOUS
 62
     2
 10
-13.37578666233868
 20
-52.773276056455757
 30
0.0
 11
37.624215786190391
 21
-52.773276056455757
 31
0.0
  0
LINE
  5
19F5D
  8
OS
  6
CONTINUOUS
 62
     2
 10
-13.37578666233868
 20
-61.273276056455742
 30
0.0
 11
37.624215786190391
 21
-61.273276056455742
 31
0.0
  0
LINE
  5
19F5E
  8
OS
  6
CONTINUOUS
 62
     2
 10
-13.37578666233868
 20
66.726723943544243
 30
0.0
 11
37.624215786190391
 21
66.726723943544243
 31
0.0
  0
LINE
  5
19F5F
  8
OS
  6
CONTINUOUS
 62
     2
 10
-13.37578666233868
 20
-63.273276056455742
 30
0.0
 11
37.624215786190391
 21
-63.273276056455742
 31
0.0
  0
LINE
  5
19F60
  8
OS
  6
CONTINUOUS
 62
     2
 10
-13.37578666233868
 20
-50.773276056455742
 30
0.0
 11
37.624215786190391
 21
-50.773276056455742
 31
0.0
  0
LINE
  5
19F61
  8
OS
  6
CONTINUOUS
 62
     2
 10
-13.37578666233871
 20
-4.77310259645526
 30
0.0
 11
32.624337856510387
 21
-50.773226465390849
 31
0.0
  0
LINE
  5
19F62
  8
OS
  6
CONTINUOUS
 62
     2
 10
32.624353115300387
 20
54.226784978700273
 30
0.0
 11
-13.37578666233868
 21
8.2266542998472652
 31
0.0
  0
LINE
  5
19F63
  8
OS
  6
CONTINUOUS
 62
     2
 10
-13.37578666233868
 20
54.226723943544251
 30
0.0
 11
37.624215786190391
 21
54.226723943544251
 31
0.0
  0
LINE
  5
19F64
  8
OS
  6
CONTINUOUS
 62
     2
 10
-206.59164073122159
 20
157.7940692992108
 30
0.0
 11
-311.59164836061558
 21
162.79406973348
 31
0.0
  0
LINE
  5
19F65
  8
OS
  6
CONTINUOUS
 62
     2
 10
-206.59164836061541
 20
162.7940249107869
 30
0.0
 11
-311.59164836061558
 21
162.7940249107869
 31
0.0
  0
LINE
  5
19F66
  8
OS
  6
CONTINUOUS
 62
     2
 10
-235.99155237735781
 20
198.79402491079509
 30
0.0
 11
-311.59159495485358
 21
162.79388710484841
 31
0.0
  0
LINE
  5
19F67
  8
OS
  6
CONTINUOUS
 62
     2
 10
-322.09164836061558
 20
198.79402491079509
 30
0.0
 11
-322.09164836061558
 21
157.79402491078719
 31
0.0
  0
LINE
  5
19F68
  8
OS
  6
CONTINUOUS
 62
     2
 10
-311.59164836061558
 20
198.79402491079509
 30
0.0
 11
-311.59164836061558
 21
157.79402491078719
 31
0.0
  0
LINE
  5
19F69
  8
OS
  6
CONTINUOUS
 62
     2
 10
-313.59164836061558
 20
198.79402491079509
 30
0.0
 11
-313.59164836061558
 21
157.79402491078719
 31
0.0
  0
LINE
  5
19F6A
  8
OS
  6
CONTINUOUS
 62
     2
 10
-324.09164836061558
 20
198.79402491079509
 30
0.0
 11
-324.09164836061558
 21
157.79402491078719
 31
0.0
  0
LINE
  5
19F6B
  8
OS
  6
CONTINUOUS
 62
     2
 10
-206.59164836061541
 20
198.79402491079509
 30
0.0
 11
-206.59164836061541
 21
157.79402491078719
 31
0.0
  0
LINE
  5
19F6C
  8
OS
  6
CONTINUOUS
 62
     2
 10
-194.09164836061569
 20
198.79402491079509
 30
0.0
 11
-194.09164836061569
 21
157.79402491078719
 31
0.0
  0
LINE
  5
19F6D
  8
OS
  6
CONTINUOUS
 62
     2
 10
-204.59164836061541
 20
198.79402491079509
 30
0.0
 11
-204.59164836061541
 21
157.79402491078719
 31
0.0
  0
LINE
  5
19F6E
  8
OS
  6
CONTINUOUS
 62
     2
 10
-196.09164836061569
 20
198.79402491079509
 30
0.0
 11
-196.09164836061569
 21
157.79402491078719
 31
0.0
  0
LINE
  5
19F6F
  8
KI
  6
CONTINUOUS
 62
     7
 10
61.624215786190391
 20
14.22672441485757
 30
0.0
 11
61.624215786190391
 21
75.226723943544187
 31
0.0
  0
LINE
  5
19F70
  8
KI
  6
CONTINUOUS
 62
     7
 10
61.624215786190391
 20
-71.773276056455771
 30
0.0
 11
61.624215786190391
 21
-1.773275585142418
 31
0.0
  0
LINE
  5
19F71
  8
KI
  6
CONTINUOUS
 62
     7
 10
59.124215786190391
 20
77.726723943544187
 30
0.0
 11
37.624215786190391
 21
77.726723943544187
 31
0.0
  0
LINE
  5
19F72
  8
KI
  6
CONTINUOUS
 62
     7
 10
59.124215786190391
 20
77.726723943544187
 30
0.0
 11
61.624215786190391
 21
75.226723943544187
 31
0.0
1001
GENIUS_GENFIL_13
1070
     0
1040
2.5
1040
2.5
1040
20.0
1040
0.0
1002
{
1002
}
1001
GENIUS_GENOBJ-N-CHA_13
1002
{
1000
OWNER
1000
GEN
1002
}
1001
GENIUS_GENODEF_13
1002
{
1000
HIER
1070
     0
1002
}
1002
{
1000
MANEDIT
1070
     0
1002
}
1002
{
1000
NOSEL
1070
     0
1002
}
1002
{
1000
BEHIND
1070
     0
1002
}
1002
{
1000
OTHER
1070
     0
1002
}
1002
{
1000
REACTOR
1002
}
  0
LINE
  5
19F73
  8
KI
  6
CONTINUOUS
 62
     7
 10
37.624215786190391
 20
77.726723943545565
 30
0.0
 11
37.624215786190391
 21
-74.273276056455742
 31
0.0
  0
LINE
  5
19F74
  8
KI
  6
CONTINUOUS
 62
     7
 10
37.624215786190391
 20
-74.273276056455742
 30
0.0
 11
59.124215786190391
 21
-74.273276056455742
 31
0.0
  0
LINE
  5
19F75
  8
KI
  6
CONTINUOUS
 62
     7
 10
59.124215786190391
 20
-74.273276056455742
 30
0.0
 11
61.624215786190391
 21
-71.773276056455771
 31
0.0
1001
GENIUS_GENFIL_13
1070
     0
1040
2.5
1040
2.5
1040
20.0
1040
0.0
1002
{
1002
}
1001
GENIUS_GENOBJ-N-CHA_13
1002
{
1000
OWNER
1000
GEN
1002
}
1001
GENIUS_GENODEF_13
1002
{
1000
HIER
1070
     0
1002
}
1002
{
1000
MANEDIT
1070
     0
1002
}
1002
{
1000
NOSEL
1070
     0
1002
}
1002
{
1000
BEHIND
1070
     0
1002
}
1002
{
1000
OTHER
1070
     0
1002
}
1002
{
1000
REACTOR
1002
}
  0
LINE
  5
19F76
  8
OS
  6
CONTINUOUS
 62
     2
 10
42.283299174852559
 20
-74.273276056455742
 30
0.0
 11
37.624215786190319
 21
-69.614192667793404
 31
0.0
  0
LINE
  5
19F77
  8
OS
  6
CONTINUOUS
 62
     2
 10
52.18279411146419
 20
-74.273276056455742
 30
0.0
 11
37.624215786190319
 21
-59.7146977311819
 31
0.0
  0
LINE
  5
19F78
  8
OS
  6
CONTINUOUS
 62
     2
 10
60.603252417133127
 20
-72.794239425512927
 30
0.0
 11
37.624215786190319
 21
-49.815202794570148
 31
0.0
  0
LINE
  5
19F79
  8
OS
  6
CONTINUOUS
 62
     2
 10
61.624215786190462
 20
-63.91570785795853
 30
0.0
 11
37.624215786190319
 21
-39.915707857958409
 31
0.0
  0
LINE
  5
19F7A
  8
OS
  6
CONTINUOUS
 62
     2
 10
61.624215786190312
 20
-54.016212921346892
 30
0.0
 11
37.624215786190319
 21
-30.016212921346881
 31
0.0
  0
LINE
  5
19F7B
  8
OS
  6
CONTINUOUS
 62
     2
 10
61.624215786190312
 20
-44.116717984735139
 30
0.0
 11
37.624215786190319
 21
-20.116717984735121
 31
0.0
  0
LINE
  5
19F7C
  8
OS
  6
CONTINUOUS
 62
     2
 10
61.624215786190312
 20
-34.217223048123621
 30
0.0
 11
37.62421578619022
 21
-10.2172230481235
 31
0.0
  0
LINE
  5
19F7D
  8
OS
  6
CONTINUOUS
 62
     2
 10
61.624215786190462
 20
-4.5187382382887371
 30
0.0
 11
58.878753133044121
 21
-1.773275585142418
 31
0.0
  0
LINE
  5
19F7E
  8
OS
  6
CONTINUOUS
 62
     2
 10
56.624215786190391
 20
10.380756698323051
 30
0.0
 11
37.624215786190319
 21
29.380756698323118
 31
0.0
  0
LINE
  5
19F7F
  8
OS
  6
CONTINUOUS
 62
     2
 10
61.624215786190312
 20
15.28025163493475
 30
0.0
 11
37.62421578619044
 21
39.280251634934757
 31
0.0
  0
LINE
  5
19F80
  8
OS
  6
CONTINUOUS
 62
     2
 10
61.624215786190312
 20
25.179746571546382
 30
0.0
 11
37.624215786190319
 21
49.179746571546403
 31
0.0
  0
LINE
  5
19F81
  8
OS
  6
CONTINUOUS
 62
     2
 10
61.624215786190312
 20
35.079241508158127
 30
0.0
 11
37.624215786190319
 21
59.079241508158127
 31
0.0
  0
LINE
  5
19F82
  8
OS
  6
CONTINUOUS
 62
     2
 10
61.624215786190462
 20
44.978736444769751
 30
0.0
 11
37.624215786190319
 21
68.978736444769865
 31
0.0
  0
LINE
  5
19F83
  8
OS
  6
CONTINUOUS
 62
     2
 10
61.624215786190312
 20
54.87823138138139
 30
0.0
 11
38.775723224027601
 21
77.726723943544116
 31
0.0
  0
LINE
  5
19F84
  8
OS
  6
CONTINUOUS
 62
     2
 10
61.624215786190312
 20
64.777726317993142
 30
0.0
 11
48.675218160639233
 21
77.726723943544187
 31
0.0
  0
LINE
  5
19F85
  8
OS
  6
CONTINUOUS
 62
     2
 10
61.624215786190462
 20
74.677221254604774
 30
0.0
 11
58.574713097250978
 21
77.726723943544187
 31
0.0
  0
LINE
  5
19F86
  8
OS
  6
CONTINUOUS
 62
     2
 10
61.624215786190213
 20
-24.317728111511759
 30
0.0
 11
37.62421578619022
 21
-0.3177281115117694
 31
0.0
  0
LINE
  5
19F87
  8
OS
  6
CONTINUOUS
 62
     2
 10
61.624215786190462
 20
-14.418233174900211
 30
0.0
 11
37.624215786190319
 21
9.5817668250998622
 31
0.0
  0
LINE
  5
19F88
  8
KI
  6
CONTINUOUS
 62
     7
 10
56.624215786190391
 20
14.22672441485757
 30
0.0
 11
61.624215786190391
 21
14.22672441485757
 31
0.0
  0
LINE
  5
19F89
  8
KI
  6
CONTINUOUS
 62
     7
 10
56.624215786190391
 20
14.22672441485757
 30
0.0
 11
56.624215786190391
 21
-1.773275585142418
 31
0.0
  0
LINE
  5
19F8A
  8
KI
  6
CONTINUOUS
 62
     7
 10
61.624215786190391
 20
-1.773275585142418
 30
0.0
 11
56.624215786190391
 21
-1.773275585142418
 31
0.0
  0
LINE
  5
19F8B
  8
OS
  6
CONTINUOUS
 62
     2
 10
56.624215786190391
 20
0.4812617617112985
 30
0.0
 11
37.62421578619022
 21
19.481261761711352
 31
0.0
  0
TEXT
  5
19F8C
  8
SU
  6
CONTINUOUS
 62
     3
 10
-356.3916483606157
 20
142.55307252983459
 30
0.0
 40
4.0
  1
24
 50
90.0
 41
0.8299999999999999
  0
TEXT
  5
19F8D
  8
SU
  6
CONTINUOUS
 62
     3
 10
-332.5164102653776
 20
235.0940249107951
 30
0.0
 40
4.0
  1
11
 41
0.8299999999999999
  0
TEXT
  5
19F8E
  8
SU
  6
CONTINUOUS
 62
     3
 10
-264.07164836061571
 20
235.0940249107951
 30
0.0
 40
4.0
  1
130
 41
0.8299999999999999
  0
TEXT
  5
19F8F
  8
SU
  6
CONTINUOUS
 62
     3
 10
-264.07164836061571
 20
220.0940249107949
 30
0.0
 40
4.0
  1
105
 41
0.8299999999999999
  0
TEXT
  5
19F90
  8
SU
  6
CONTINUOUS
 62
     3
 10
-346.47170447884548
 20
220.0940249107949
 30
0.0
 40
4.0
  1
12.5
 41
0.8299999999999999
  0
TEXT
  5
19F91
  8
SU
  6
CONTINUOUS
 62
     3
 10
-191.51641026537729
 20
235.0940249107951
 30
0.0
 40
4.0
  1
11
 41
0.8299999999999999
  0
TEXT
  5
19F92
  8
SU
  6
CONTINUOUS
 62
     3
 10
-183.2525446233382
 20
220.0940249107949
 30
0.0
 40
4.0
  1
12.5
 41
0.8299999999999999
  0
TEXT
  5
19F93
  8
SU
  6
CONTINUOUS
 62
     3
 10
-34.675786662338709
 20
-85.653332174685147
 30
0.0
 40
4.0
  1
12.5
 50
90.0
 41
0.8299999999999999
  0
TEXT
  5
19F94
  8
SU
  6
CONTINUOUS
 62
     3
 10
-49.675786662338702
 20
-71.698037961217437
 30
0.0
 40
4.0
  1
11
 50
90.0
 41
0.8299999999999999
  0
TEXT
  5
19F95
  8
SU
  6
CONTINUOUS
 62
     3
 10
-49.675786662338702
 20
69.301962038782619
 30
0.0
 40
4.0
  1
11
 50
90.0
 41
0.8299999999999999
  0
TEXT
  5
19F96
  8
SU
  6
CONTINUOUS
 62
     3
 10
-34.675786662338687
 20
77.565827680822267
 30
0.0
 40
4.0
  1
12.5
 50
90.0
 41
0.8299999999999999
  0
TEXT
  5
19F97
  8
SU
  6
CONTINUOUS
 62
     3
 10
-34.675786662338702
 20
-3.2532760564552961
 30
0.0
 40
4.0
  1
105
 50
90.0
 41
0.8299999999999999
  0
TEXT
  5
19F98
  8
SU
  6
CONTINUOUS
 62
     3
 10
-49.675786662338687
 20
-3.2532760564552961
 30
0.0
 40
4.0
  1
130
 50
90.0
 41
0.8299999999999999
  0
TEXT
  5
19F99
  8
SU
  6
CONTINUOUS
 62
     3
 10
46.38326340523794
 20
99.026723943544127
 30
0.0
 40
4.0
  1
24
 41
0.8299999999999999
  0
TEXT
  5
19F9A
  8
SU
  6
CONTINUOUS
 62
     3
 10
272.3832634052377
 20
99.026723943544127
 30
0.0
 40
4.0
  1
24
 41
0.8299999999999999
  0
TEXT
  5
19F9B
  8
SU
  6
CONTINUOUS
 62
     3
 10
-318.45355317927232
 20
-91.402131759633164
 30
0.0
 40
4.0
  1
42
 41
0.8299999999999999
  0
LINE
  5
19F9C
  8
SU
  6
CONTINUOUS
 62
     3
 10
-293.0916484741187
 20
-92.702131759633147
 30
0.0
 11
-295.49164847411862
 21
-92.702131759633147
 31
0.0
  0
TEXT
  5
19F9D
  8
SU
  6
CONTINUOUS
 62
     3
 10
-356.39164836061423
 20
-50.864033693646242
 30
0.0
 40
4.0
  1
20
 50
90.0
 41
0.8299999999999999
  0
TEXT
  5
19F9E
  8
SU
  6
CONTINUOUS
 62
     3
 10
-356.39164836061423
 20
-82.251655569149023
 30
0.0
 40
4.0
  1
15
 50
90.0
 41
0.8299999999999999
  0
TEXT
  5
19F9F
  8
SU
  6
CONTINUOUS
 62
     3
 10
-244.57164847868239
 20
-91.402131759633008
 30
0.0
 40
4.0
  1
107
 41
0.8299999999999999
  0
TEXT
  5
19FA0
  8
SU
  6
CONTINUOUS
 62
     3
 10
-176.15069598879069
 20
-91.40213175963278
 30
0.0
 40
4.0
  1
3
 41
0.8299999999999999
  0
LINE
  5
19FA1
  8
SU
  6
CONTINUOUS
 62
     3
 10
-186.0916484832459
 20
-92.702131759632749
 30
0.0
 11
-188.49164848324591
 21
-92.702131759632749
 31
0.0
  0
TEXT
  5
19FA2
  8
SU
  6
CONTINUOUS
 62
     3
 10
-341.47926740823277
 20
78.59402491078832
 30
0.0
 40
4.0
  1
3
 41
0.8299999999999999
  0
TEXT
  5
19FA3
  8
SU
  6
CONTINUOUS
 62
     3
 10
-356.39164836061423
 20
117.8812467456939
 30
0.0
 40
4.0
  1
（20）
 50
90.0
 41
0.8299999999999999
  0
TEXT
  5
19FA4
  8
SU
  6
CONTINUOUS
 62
     3
 10
-309.37498131298111
 20
93.594024910788875
 30
0.0
 40
4.0
  1
56.5
 41
0.8299999999999999
  0
TEXT
  5
19FA5
  8
SU
  6
CONTINUOUS
 62
     3
 10
-266.83260121708281
 20
93.594024910788946
 30
0.0
 40
4.0
  1
24
 41
0.8299999999999999
  0
TEXT
  5
19FA6
  8
SU
  6
CONTINUOUS
 62
     3
 10
-249.0164119779659
 20
93.594024910788804
 30
0.0
 40
4.0
  1
11
 41
0.8299999999999999
  0
TEXT
  5
19FA7
  8
SU
  6
CONTINUOUS
 62
     3
 10
-218.75355398072631
 20
93.594024910788633
 30
0.0
 40
4.0
  1
50
 41
0.8299999999999999
  0
TEXT
  5
19FA8
  8
SU
  6
CONTINUOUS
 62
     3
 10
-179.86593407490111
 20
78.594024910788548
 30
0.0
 40
4.0
  1
3
 41
0.8299999999999999
  0
TEXT
  5
19FA9
  8
SU
  6
CONTINUOUS
 62
     3
 10
-182.8659340749013
 20
93.594024910788633
 30
0.0
 40
4.0
  1
4.5
 41
0.8299999999999999
  0
TEXT
  5
19FAA
  8
SU
  6
CONTINUOUS
 62
     3
 10
-264.07164836061571
 20
78.59402491078832
 30
0.0
 40
4.0
  1
146
 41
0.8299999999999999
  0
TEXT
  5
19FAB
  8
SU
  6
CONTINUOUS
 62
     3
 10
-371.3916483606144
 20
-58.36403510758813
 30
0.0
 40
4.0
  1
35
 50
90.0
 41
0.8299999999999999
  0
TEXT
  5
19FAC
  8
SU
  6
CONTINUOUS
 62
     3
 10
-149.3916483606144
 20
18.06670989428471
 30
0.0
 40
4.0
  1
ドアH（DH）＝H－47
 50
90.0
 41
0.8299999999999999
  0
TEXT
  5
19FAD
  8
SU
  6
CONTINUOUS
 62
     3
 10
-134.3916483606157
 20
40.806898956533352
 30
0.0
 40
4.0
  1
H
 50
90.0
 41
0.8299999999999999
  0
TEXT
  5
19FAE
  8
SU
  6
CONTINUOUS
 62
     3
 10
-149.3916483606144
 20
-68.601177964730937
 30
0.0
 40
4.0
  1
15
 50
90.0
 41
0.8299999999999999
  0
TEXT
  5
19FAF
  8
SU
  6
CONTINUOUS
 62
     3
 10
-149.3916483606144
 20
-56.783081312693888
 30
0.0
 40
4.0
  1
5
 50
90.0
 41
0.8299999999999999
  0
LINE
  5
19FB0
  8
SU
  6
CONTINUOUS
 62
     3
 10
-139.01228512735611
 20
-62.834403815057811
 30
0.0
 11
-127.17101159387531
 21
-62.834403815057811
 31
0.0
  0
LINE
  5
19FB1
  8
SU
  6
CONTINUOUS
 62
     3
 10
-138.89228512735579
 20
-63.0344038150578
 30
0.0
 11
-127.2910115938753
 21
-63.0344038150578
 31
0.0
  0
LINE
  5
19FB2
  8
SU
  6
CONTINUOUS
 62
     3
 10
-138.7722851273561
 20
-63.234403815057782
 30
0.0
 11
-127.4110115938752
 21
-63.234403815057782
 31
0.0
  0
LINE
  5
19FB3
  8
SU
  6
CONTINUOUS
 62
     3
 10
-138.65228512735601
 20
-63.434403815057792
 30
0.0
 11
-127.53101159387511
 21
-63.434403815057792
 31
0.0
  0
LINE
  5
19FB4
  8
SU
  6
CONTINUOUS
 62
     3
 10
-138.532285127356
 20
-63.63440381505778
 30
0.0
 11
-127.6510115938753
 21
-63.63440381505778
 31
0.0
  0
LINE
  5
19FB5
  8
SU
  6
CONTINUOUS
 62
     3
 10
-138.41228512735611
 20
-63.834403815057811
 30
0.0
 11
-127.7710115938752
 21
-63.834403815057811
 31
0.0
  0
LINE
  5
19FB6
  8
SU
  6
CONTINUOUS
 62
     3
 10
-138.29228512735619
 20
-64.034403815057786
 30
0.0
 11
-127.89101159387531
 21
-64.034403815057786
 31
0.0
  0
LINE
  5
19FB7
  8
SU
  6
CONTINUOUS
 62
     3
 10
-138.17228512735591
 20
-64.234403815057789
 30
0.0
 11
-128.01101159387531
 21
-64.234403815057789
 31
0.0
  0
LINE
  5
19FB8
  8
SU
  6
CONTINUOUS
 62
     3
 10
-138.0522851273561
 20
-64.434403815057806
 30
0.0
 11
-128.13101159387529
 21
-64.434403815057806
 31
0.0
  0
LINE
  5
19FB9
  8
SU
  6
CONTINUOUS
 62
     3
 10
-137.93228512735581
 20
-64.634403815057794
 30
0.0
 11
-128.25101159387501
 21
-64.634403815057794
 31
0.0
  0
LINE
  5
19FBA
  8
SU
  6
CONTINUOUS
 62
     3
 10
-137.81228512735601
 20
-64.834403815057811
 30
0.0
 11
-128.37101159387521
 21
-64.834403815057811
 31
0.0
  0
LINE
  5
19FBB
  8
SU
  6
CONTINUOUS
 62
     3
 10
-137.692285127356
 20
-65.034403815057786
 30
0.0
 11
-128.4910115938753
 21
-65.034403815057786
 31
0.0
  0
LINE
  5
19FBC
  8
SU
  6
CONTINUOUS
 62
     3
 10
-137.57228512735611
 20
-65.234403815057775
 30
0.0
 11
-128.6110115938753
 21
-65.234403815057775
 31
0.0
  0
LINE
  5
19FBD
  8
SU
  6
CONTINUOUS
 62
     3
 10
-137.45228512735611
 20
-65.434403815057806
 30
0.0
 11
-128.73101159387531
 21
-65.434403815057806
 31
0.0
  0
LINE
  5
19FBE
  8
SU
  6
CONTINUOUS
 62
     3
 10
-137.3322851273561
 20
-65.634403815057794
 30
0.0
 11
-128.85101159387531
 21
-65.634403815057794
 31
0.0
  0
LINE
  5
19FBF
  8
SU
  6
CONTINUOUS
 62
     3
 10
-137.2122851273561
 20
-65.834403815057811
 30
0.0
 11
-128.9710115938752
 21
-65.834403815057811
 31
0.0
  0
LINE
  5
19FC0
  8
SU
  6
CONTINUOUS
 62
     3
 10
-137.09228512735601
 20
-66.034403815057786
 30
0.0
 11
-129.09101159387521
 21
-66.034403815057786
 31
0.0
  0
LINE
  5
19FC1
  8
SU
  6
CONTINUOUS
 62
     3
 10
-136.9722851273558
 20
-66.234403815057789
 30
0.0
 11
-129.21101159387501
 21
-66.234403815057789
 31
0.0
  0
LINE
  5
19FC2
  8
SU
  6
CONTINUOUS
 62
     3
 10
-136.85228512735611
 20
-66.434403815057806
 30
0.0
 11
-129.3310115938751
 21
-66.434403815057806
 31
0.0
  0
LINE
  5
19FC3
  8
SU
  6
CONTINUOUS
 62
     3
 10
-136.73228512735611
 20
-66.634403815057794
 30
0.0
 11
-129.45101159387531
 21
-66.634403815057794
 31
0.0
  0
LINE
  5
19FC4
  8
SU
  6
CONTINUOUS
 62
     3
 10
-136.6122851273561
 20
-66.834403815057811
 30
0.0
 11
-129.57101159387531
 21
-66.834403815057811
 31
0.0
  0
LINE
  5
19FC5
  8
SU
  6
CONTINUOUS
 62
     3
 10
-136.49228512735581
 20
-67.034403815057786
 30
0.0
 11
-129.6910115938752
 21
-67.034403815057786
 31
0.0
  0
LINE
  5
19FC6
  8
SU
  6
CONTINUOUS
 62
     3
 10
-136.37228512735601
 20
-67.234403815057789
 30
0.0
 11
-129.81101159387521
 21
-67.234403815057789
 31
0.0
  0
LINE
  5
19FC7
  8
SU
  6
CONTINUOUS
 62
     3
 10
-136.252285127356
 20
-67.434403815057806
 30
0.0
 11
-129.9310115938753
 21
-67.434403815057806
 31
0.0
  0
LINE
  5
19FC8
  8
SU
  6
CONTINUOUS
 62
     3
 10
-136.13228512735611
 20
-67.634403815057794
 30
0.0
 11
-130.0510115938753
 21
-67.634403815057794
 31
0.0
  0
LINE
  5
19FC9
  8
SU
  6
CONTINUOUS
 62
     3
 10
-136.01228512735611
 20
-67.834403815057811
 30
0.0
 11
-130.17101159387531
 21
-67.834403815057811
 31
0.0
  0
LINE
  5
19FCA
  8
SU
  6
CONTINUOUS
 62
     3
 10
-135.8922851273561
 20
-68.034403815057786
 30
0.0
 11
-130.29101159387531
 21
-68.034403815057786
 31
0.0
  0
LINE
  5
19FCB
  8
SU
  6
CONTINUOUS
 62
     3
 10
-135.77228512735621
 20
-68.234403815057789
 30
0.0
 11
-130.4110115938752
 21
-68.234403815057789
 31
0.0
  0
LINE
  5
19FCC
  8
SU
  6
CONTINUOUS
 62
     3
 10
-135.65228512735621
 20
-68.434403815057806
 30
0.0
 11
-130.53101159387521
 21
-68.434403815057806
 31
0.0
  0
LINE
  5
19FCD
  8
SU
  6
CONTINUOUS
 62
     3
 10
-135.5322851273562
 20
-68.634403815057794
 30
0.0
 11
-130.65101159387521
 21
-68.634403815057794
 31
0.0
  0
LINE
  5
19FCE
  8
SU
  6
CONTINUOUS
 62
     3
 10
-135.41228512735611
 20
-68.834403815057811
 30
0.0
 11
-130.77101159387499
 21
-68.834403815057811
 31
0.0
  0
LINE
  5
19FCF
  8
SU
  6
CONTINUOUS
 62
     3
 10
-135.29228512735619
 20
-69.034403815057786
 30
0.0
 11
-130.89101159387531
 21
-69.034403815057786
 31
0.0
  0
LINE
  5
19FD0
  8
SU
  6
CONTINUOUS
 62
     3
 10
-135.17228512735591
 20
-69.234403815057789
 30
0.0
 11
-131.01101159387531
 21
-69.234403815057789
 31
0.0
  0
LINE
  5
19FD1
  8
SU
  6
CONTINUOUS
 62
     3
 10
-135.05228512735579
 20
-69.434403815057806
 30
0.0
 11
-131.1310115938752
 21
-69.434403815057806
 31
0.0
  0
LINE
  5
19FD2
  8
SU
  6
CONTINUOUS
 62
     3
 10
-134.93228512735581
 20
-69.634403815057794
 30
0.0
 11
-131.25101159387501
 21
-69.634403815057794
 31
0.0
  0
LINE
  5
19FD3
  8
SU
  6
CONTINUOUS
 62
     3
 10
-134.81228512735601
 20
-69.834403815057811
 30
0.0
 11
-131.37101159387521
 21
-69.834403815057811
 31
0.0
  0
LINE
  5
19FD4
  8
SU
  6
CONTINUOUS
 62
     3
 10
-134.692285127356
 20
-70.034403815057786
 30
0.0
 11
-131.4910115938753
 21
-70.034403815057786
 31
0.0
  0
LINE
  5
19FD5
  8
SU
  6
CONTINUOUS
 62
     3
 10
-134.57228512735611
 20
-70.234403815057775
 30
0.0
 11
-131.6110115938753
 21
-70.234403815057775
 31
0.0
  0
LINE
  5
19FD6
  8
SU
  6
CONTINUOUS
 62
     3
 10
-134.45228512735611
 20
-70.434403815057806
 30
0.0
 11
-131.73101159387531
 21
-70.434403815057806
 31
0.0
  0
LINE
  5
19FD7
  8
SU
  6
CONTINUOUS
 62
     3
 10
-134.3322851273561
 20
-70.634403815057794
 30
0.0
 11
-131.85101159387531
 21
-70.634403815057794
 31
0.0
  0
LINE
  5
19FD8
  8
SU
  6
CONTINUOUS
 62
     3
 10
-134.2122851273561
 20
-70.834403815057811
 30
0.0
 11
-131.9710115938752
 21
-70.834403815057811
 31
0.0
  0
LINE
  5
19FD9
  8
SU
  6
CONTINUOUS
 62
     3
 10
-134.09228512735601
 20
-71.034403815057786
 30
0.0
 11
-132.09101159387521
 21
-71.034403815057786
 31
0.0
  0
LINE
  5
19FDA
  8
SU
  6
CONTINUOUS
 62
     3
 10
-133.9722851273558
 20
-71.234403815057789
 30
0.0
 11
-132.21101159387501
 21
-71.234403815057789
 31
0.0
  0
LINE
  5
19FDB
  8
SU
  6
CONTINUOUS
 62
     3
 10
-133.85228512735611
 20
-71.434403815057806
 30
0.0
 11
-132.3310115938753
 21
-71.434403815057806
 31
0.0
  0
LINE
  5
19FDC
  8
SU
  6
CONTINUOUS
 62
     3
 10
-133.73228512735611
 20
-71.634403815057794
 30
0.0
 11
-132.45101159387531
 21
-71.634403815057794
 31
0.0
  0
LINE
  5
19FDD
  8
SU
  6
CONTINUOUS
 62
     3
 10
-133.6122851273561
 20
-71.834403815057811
 30
0.0
 11
-132.57101159387531
 21
-71.834403815057811
 31
0.0
  0
LINE
  5
19FDE
  8
SU
  6
CONTINUOUS
 62
     3
 10
-133.49228512735581
 20
-72.034403815057786
 30
0.0
 11
-132.691011593875
 21
-72.034403815057786
 31
0.0
  0
LINE
  5
19FDF
  8
SU
  6
CONTINUOUS
 62
     3
 10
-133.37228512735601
 20
-72.234403815057789
 30
0.0
 11
-132.81101159387521
 21
-72.234403815057789
 31
0.0
  0
LINE
  5
19FE0
  8
SU
  6
CONTINUOUS
 62
     3
 10
-133.252285127356
 20
-72.434403815057792
 30
0.0
 11
-132.9310115938753
 21
-72.434403815057792
 31
0.0
  0
LINE
  5
19FE1
  8
SU
  6
CONTINUOUS
 62
     3
 10
-133.13228512735611
 20
-72.634403815057794
 30
0.0
 11
-133.0510115938753
 21
-72.634403815057794
 31
0.0
  0
TEXT
  5
19FE2
  8
SU
  6
CONTINUOUS
 62
     3
 10
-164.39164836061551
 20
141.68891128175241
 30
0.0
 40
4.0
  1
3
 50
90.0
 41
0.8299999999999999
  0
TEXT
  5
19FE3
  8
SU
  6
CONTINUOUS
 62
     3
 10
-149.3916483606144
 20
142.55307252983471
 30
0.0
 40
4.0
  1
24
 50
90.0
 41
0.8299999999999999
  0
LINE
  5
19FE4
  8
SU
  6
CONTINUOUS
 62
     3
 10
-133.13228512735611
 20
157.72629696621979
 30
0.0
 11
-133.0510115938753
 21
157.72629696621979
 31
0.0
  0
LINE
  5
19FE5
  8
SU
  6
CONTINUOUS
 62
     3
 10
-133.252285127356
 20
157.5262969662198
 30
0.0
 11
-132.9310115938753
 21
157.5262969662198
 31
0.0
  0
LINE
  5
19FE6
  8
SU
  6
CONTINUOUS
 62
     3
 10
-133.37228512735601
 20
157.32629696621979
 30
0.0
 11
-132.81101159387521
 21
157.32629696621979
 31
0.0
  0
LINE
  5
19FE7
  8
SU
  6
CONTINUOUS
 62
     3
 10
-133.49228512735581
 20
157.1262969662198
 30
0.0
 11
-132.691011593875
 21
157.1262969662198
 31
0.0
  0
LINE
  5
19FE8
  8
SU
  6
CONTINUOUS
 62
     3
 10
-133.6122851273561
 20
156.92629696621961
 30
0.0
 11
-132.57101159387531
 21
156.92629696621961
 31
0.0
  0
LINE
  5
19FE9
  8
SU
  6
CONTINUOUS
 62
     3
 10
-133.73228512735611
 20
156.72629696621979
 30
0.0
 11
-132.45101159387531
 21
156.72629696621979
 31
0.0
  0
LINE
  5
19FEA
  8
SU
  6
CONTINUOUS
 62
     3
 10
-133.85228512735611
 20
156.5262969662198
 30
0.0
 11
-132.3310115938753
 21
156.5262969662198
 31
0.0
  0
LINE
  5
19FEB
  8
SU
  6
CONTINUOUS
 62
     3
 10
-133.9722851273558
 20
156.32629696621979
 30
0.0
 11
-132.21101159387501
 21
156.32629696621979
 31
0.0
  0
LINE
  5
19FEC
  8
SU
  6
CONTINUOUS
 62
     3
 10
-134.09228512735601
 20
156.12629696621971
 30
0.0
 11
-132.09101159387521
 21
156.12629696621971
 31
0.0
  0
LINE
  5
19FED
  8
SU
  6
CONTINUOUS
 62
     3
 10
-134.2122851273561
 20
155.92629696621981
 30
0.0
 11
-131.9710115938752
 21
155.92629696621981
 31
0.0
  0
LINE
  5
19FEE
  8
SU
  6
CONTINUOUS
 62
     3
 10
-134.3322851273561
 20
155.72629696621979
 30
0.0
 11
-131.85101159387531
 21
155.72629696621979
 31
0.0
  0
LINE
  5
19FEF
  8
SU
  6
CONTINUOUS
 62
     3
 10
-134.45228512735611
 20
155.5262969662198
 30
0.0
 11
-131.73101159387531
 21
155.5262969662198
 31
0.0
  0
LINE
  5
19FF0
  8
SU
  6
CONTINUOUS
 62
     3
 10
-134.57228512735611
 20
155.32629696621979
 30
0.0
 11
-131.6110115938753
 21
155.32629696621979
 31
0.0
  0
LINE
  5
19FF1
  8
SU
  6
CONTINUOUS
 62
     3
 10
-134.692285127356
 20
155.1262969662198
 30
0.0
 11
-131.4910115938753
 21
155.1262969662198
 31
0.0
  0
LINE
  5
19FF2
  8
SU
  6
CONTINUOUS
 62
     3
 10
-134.81228512735601
 20
154.92629696621981
 30
0.0
 11
-131.37101159387521
 21
154.92629696621981
 31
0.0
  0
LINE
  5
19FF3
  8
SU
  6
CONTINUOUS
 62
     3
 10
-134.93228512735581
 20
154.72629696621979
 30
0.0
 11
-131.25101159387501
 21
154.72629696621979
 31
0.0
  0
LINE
  5
19FF4
  8
SU
  6
CONTINUOUS
 62
     3
 10
-135.05228512735579
 20
154.5262969662196
 30
0.0
 11
-131.1310115938752
 21
154.5262969662196
 31
0.0
  0
LINE
  5
19FF5
  8
SU
  6
CONTINUOUS
 62
     3
 10
-135.17228512735591
 20
154.32629696621979
 30
0.0
 11
-131.01101159387531
 21
154.32629696621979
 31
0.0
  0
LINE
  5
19FF6
  8
SU
  6
CONTINUOUS
 62
     3
 10
-135.29228512735611
 20
154.1262969662198
 30
0.0
 11
-130.89101159387531
 21
154.1262969662198
 31
0.0
  0
LINE
  5
19FF7
  8
SU
  6
CONTINUOUS
 62
     3
 10
-135.412285127356
 20
153.92629696621981
 30
0.0
 11
-130.77101159387499
 21
153.92629696621981
 31
0.0
  0
LINE
  5
19FF8
  8
SU
  6
CONTINUOUS
 62
     3
 10
-135.532285127356
 20
153.72629696621979
 30
0.0
 11
-130.65101159387541
 21
153.72629696621979
 31
0.0
  0
LINE
  5
19FF9
  8
SU
  6
CONTINUOUS
 62
     3
 10
-135.65228512735601
 20
153.5262969662196
 30
0.0
 11
-130.53101159387541
 21
153.5262969662196
 31
0.0
  0
LINE
  5
19FFA
  8
SU
  6
CONTINUOUS
 62
     3
 10
-135.7722851273561
 20
153.32629696621979
 30
0.0
 11
-130.4110115938754
 21
153.32629696621979
 31
0.0
  0
LINE
  5
19FFB
  8
SU
  6
CONTINUOUS
 62
     3
 10
-135.8922851273561
 20
153.12629696621971
 30
0.0
 11
-130.29101159387531
 21
153.12629696621971
 31
0.0
  0
LINE
  5
19FFC
  8
SU
  6
CONTINUOUS
 62
     3
 10
-136.01228512735611
 20
152.92629696621981
 30
0.0
 11
-130.17101159387531
 21
152.92629696621981
 31
0.0
  0
LINE
  5
19FFD
  8
SU
  6
CONTINUOUS
 62
     3
 10
-136.13228512735611
 20
152.72629696621979
 30
0.0
 11
-130.0510115938753
 21
152.72629696621979
 31
0.0
  0
LINE
  5
19FFE
  8
SU
  6
CONTINUOUS
 62
     3
 10
-136.252285127356
 20
152.5262969662198
 30
0.0
 11
-129.9310115938753
 21
152.5262969662198
 31
0.0
  0
LINE
  5
19FFF
  8
SU
  6
CONTINUOUS
 62
     3
 10
-136.37228512735601
 20
152.32629696621979
 30
0.0
 11
-129.81101159387521
 21
152.32629696621979
 31
0.0
  0
LINE
  5
1A000
  8
SU
  6
CONTINUOUS
 62
     3
 10
-136.49228512735581
 20
152.12629696621971
 30
0.0
 11
-129.6910115938752
 21
152.12629696621971
 31
0.0
  0
LINE
  5
1A001
  8
SU
  6
CONTINUOUS
 62
     3
 10
-136.6122851273561
 20
151.92629696621981
 30
0.0
 11
-129.57101159387531
 21
151.92629696621981
 31
0.0
  0
LINE
  5
1A002
  8
SU
  6
CONTINUOUS
 62
     3
 10
-136.73228512735611
 20
151.72629696621979
 30
0.0
 11
-129.45101159387531
 21
151.72629696621979
 31
0.0
  0
LINE
  5
1A003
  8
SU
  6
CONTINUOUS
 62
     3
 10
-136.85228512735611
 20
151.52629696621949
 30
0.0
 11
-129.3310115938751
 21
151.52629696621949
 31
0.0
  0
LINE
  5
1A004
  8
SU
  6
CONTINUOUS
 62
     3
 10
-136.9722851273558
 20
151.32629696621979
 30
0.0
 11
-129.21101159387501
 21
151.32629696621979
 31
0.0
  0
LINE
  5
1A005
  8
SU
  6
CONTINUOUS
 62
     3
 10
-137.09228512735601
 20
151.12629696621971
 30
0.0
 11
-129.09101159387521
 21
151.12629696621971
 31
0.0
  0
LINE
  5
1A006
  8
SU
  6
CONTINUOUS
 62
     3
 10
-137.2122851273561
 20
150.92629696621989
 30
0.0
 11
-128.9710115938752
 21
150.92629696621989
 31
0.0
  0
LINE
  5
1A007
  8
SU
  6
CONTINUOUS
 62
     3
 10
-137.3322851273561
 20
150.72629696621979
 30
0.0
 11
-128.85101159387531
 21
150.72629696621979
 31
0.0
  0
LINE
  5
1A008
  8
SU
  6
CONTINUOUS
 62
     3
 10
-137.45228512735611
 20
150.52629696621949
 30
0.0
 11
-128.73101159387531
 21
150.52629696621949
 31
0.0
  0
LINE
  5
1A009
  8
SU
  6
CONTINUOUS
 62
     3
 10
-137.57228512735611
 20
150.32629696621979
 30
0.0
 11
-128.6110115938753
 21
150.32629696621979
 31
0.0
  0
LINE
  5
1A00A
  8
SU
  6
CONTINUOUS
 62
     3
 10
-137.692285127356
 20
150.1262969662198
 30
0.0
 11
-128.4910115938753
 21
150.1262969662198
 31
0.0
  0
LINE
  5
1A00B
  8
SU
  6
CONTINUOUS
 62
     3
 10
-137.81228512735601
 20
149.92629696621989
 30
0.0
 11
-128.37101159387521
 21
149.92629696621989
 31
0.0
  0
LINE
  5
1A00C
  8
SU
  6
CONTINUOUS
 62
     3
 10
-137.93228512735581
 20
149.72629696621979
 30
0.0
 11
-128.25101159387501
 21
149.72629696621979
 31
0.0
  0
LINE
  5
1A00D
  8
SU
  6
CONTINUOUS
 62
     3
 10
-138.0522851273561
 20
149.5262969662196
 30
0.0
 11
-128.13101159387529
 21
149.5262969662196
 31
0.0
  0
LINE
  5
1A00E
  8
SU
  6
CONTINUOUS
 62
     3
 10
-138.17228512735591
 20
149.32629696621979
 30
0.0
 11
-128.01101159387531
 21
149.32629696621979
 31
0.0
  0
LINE
  5
1A00F
  8
SU
  6
CONTINUOUS
 62
     3
 10
-138.29228512735611
 20
149.12629696621971
 30
0.0
 11
-127.89101159387531
 21
149.12629696621971
 31
0.0
  0
LINE
  5
1A010
  8
SU
  6
CONTINUOUS
 62
     3
 10
-138.41228512735611
 20
148.92629696621989
 30
0.0
 11
-127.7710115938752
 21
148.92629696621989
 31
0.0
  0
LINE
  5
1A011
  8
SU
  6
CONTINUOUS
 62
     3
 10
-138.532285127356
 20
148.72629696621979
 30
0.0
 11
-127.6510115938753
 21
148.72629696621979
 31
0.0
  0
LINE
  5
1A012
  8
SU
  6
CONTINUOUS
 62
     3
 10
-138.65228512735601
 20
148.5262969662196
 30
0.0
 11
-127.53101159387511
 21
148.5262969662196
 31
0.0
  0
LINE
  5
1A013
  8
SU
  6
CONTINUOUS
 62
     3
 10
-138.7722851273561
 20
148.32629696621979
 30
0.0
 11
-127.4110115938752
 21
148.32629696621979
 31
0.0
  0
LINE
  5
1A014
  8
SU
  6
CONTINUOUS
 62
     3
 10
-138.89228512735571
 20
148.12629696621971
 30
0.0
 11
-127.2910115938753
 21
148.12629696621971
 31
0.0
  0
LINE
  5
1A015
  8
SU
  6
CONTINUOUS
 62
     3
 10
-139.01228512735611
 20
147.92629696621989
 30
0.0
 11
-127.17101159387541
 21
147.92629696621989
 31
0.0
  0
TEXT
  5
1A016
  8
SU
  6
CONTINUOUS
 62
     3
 10
-149.3916482471115
 20
-171.299808040855
 30
0.0
 40
4.0
  1
ドアH（DH）
 50
90.0
 41
0.8299999999999999
  0
TEXT
  5
1A017
  8
SU
  6
CONTINUOUS
 62
     3
 10
-134.3916482471125
 20
-164.94456994561691
 30
0.0
 40
4.0
  1
H
 50
90.0
 41
0.8299999999999999
  0
TEXT
  5
1A018
  8
SU
  6
CONTINUOUS
 62
     3
 10
-149.3916482471115
 20
-210.11050588572431
 30
0.0
 40
4.0
  1
8
 50
90.0
 41
0.8299999999999999
  0
LINE
  5
1A019
  8
SU
  6
CONTINUOUS
 62
     3
 10
-139.01228501385319
 20
-202.66182556020439
 30
0.0
 11
-127.1710114803725
 21
-202.66182556020439
 31
0.0
  0
LINE
  5
1A01A
  8
SU
  6
CONTINUOUS
 62
     3
 10
-138.89228501385321
 20
-202.8618255602043
 30
0.0
 11
-127.2910114803724
 21
-202.8618255602043
 31
0.0
  0
LINE
  5
1A01B
  8
SU
  6
CONTINUOUS
 62
     3
 10
-138.77228501385329
 20
-203.06182556020431
 30
0.0
 11
-127.41101148037239
 21
-203.06182556020431
 31
0.0
  0
LINE
  5
1A01C
  8
SU
  6
CONTINUOUS
 62
     3
 10
-138.6522850138532
 20
-203.2618255602043
 30
0.0
 11
-127.5310114803724
 21
-203.2618255602043
 31
0.0
  0
LINE
  5
1A01D
  8
SU
  6
CONTINUOUS
 62
     3
 10
-138.53228501385331
 20
-203.46182556020429
 30
0.0
 11
-127.6510114803725
 21
-203.46182556020429
 31
0.0
  0
LINE
  5
1A01E
  8
SU
  6
CONTINUOUS
 62
     3
 10
-138.41228501385331
 20
-203.66182556020399
 30
0.0
 11
-127.77101148037239
 21
-203.66182556020399
 31
0.0
  0
LINE
  5
1A01F
  8
SU
  6
CONTINUOUS
 62
     3
 10
-138.2922850138533
 20
-203.86182556020441
 30
0.0
 11
-127.8910114803724
 21
-203.86182556020441
 31
0.0
  0
LINE
  5
1A020
  8
SU
  6
CONTINUOUS
 62
     3
 10
-138.1722850138533
 20
-204.06182556020431
 30
0.0
 11
-128.0110114803725
 21
-204.06182556020431
 31
0.0
  0
LINE
  5
1A021
  8
SU
  6
CONTINUOUS
 62
     3
 10
-138.05228501385321
 20
-204.26182556020439
 30
0.0
 11
-128.13101148037251
 21
-204.26182556020439
 31
0.0
  0
LINE
  5
1A022
  8
SU
  6
CONTINUOUS
 62
     3
 10
-137.932285013853
 20
-204.4618255602042
 30
0.0
 11
-128.25101148037251
 21
-204.4618255602042
 31
0.0
  0
LINE
  5
1A023
  8
SU
  6
CONTINUOUS
 62
     3
 10
-137.81228501385331
 20
-204.66182556020439
 30
0.0
 11
-128.3710114803722
 21
-204.66182556020439
 31
0.0
  0
LINE
  5
1A024
  8
SU
  6
CONTINUOUS
 62
     3
 10
-137.69228501385331
 20
-204.8618255602043
 30
0.0
 11
-128.49101148037241
 21
-204.8618255602043
 31
0.0
  0
LINE
  5
1A025
  8
SU
  6
CONTINUOUS
 62
     3
 10
-137.5722850138533
 20
-205.06182556020431
 30
0.0
 11
-128.6110114803725
 21
-205.06182556020431
 31
0.0
  0
LINE
  5
1A026
  8
SU
  6
CONTINUOUS
 62
     3
 10
-137.45228501385321
 20
-205.2618255602043
 30
0.0
 11
-128.7310114803725
 21
-205.2618255602043
 31
0.0
  0
LINE
  5
1A027
  8
SU
  6
CONTINUOUS
 62
     3
 10
-137.33228501385329
 20
-205.46182556020429
 30
0.0
 11
-128.85101148037251
 21
-205.46182556020429
 31
0.0
  0
LINE
  5
1A028
  8
SU
  6
CONTINUOUS
 62
     3
 10
-137.2122850138532
 20
-205.66182556020399
 30
0.0
 11
-128.97101148037251
 21
-205.66182556020399
 31
0.0
  0
LINE
  5
1A029
  8
SU
  6
CONTINUOUS
 62
     3
 10
-137.09228501385331
 20
-205.86182556020441
 30
0.0
 11
-129.0910114803724
 21
-205.86182556020441
 31
0.0
  0
LINE
  5
1A02A
  8
SU
  6
CONTINUOUS
 62
     3
 10
-136.97228501385331
 20
-206.06182556020431
 30
0.0
 11
-129.21101148037241
 21
-206.06182556020431
 31
0.0
  0
LINE
  5
1A02B
  8
SU
  6
CONTINUOUS
 62
     3
 10
-136.8522850138533
 20
-206.26182556020439
 30
0.0
 11
-129.33101148037241
 21
-206.26182556020439
 31
0.0
  0
LINE
  5
1A02C
  8
SU
  6
CONTINUOUS
 62
     3
 10
-136.7322850138533
 20
-206.4618255602042
 30
0.0
 11
-129.4510114803725
 21
-206.4618255602042
 31
0.0
  0
LINE
  5
1A02D
  8
SU
  6
CONTINUOUS
 62
     3
 10
-136.61228501385321
 20
-206.66182556020439
 30
0.0
 11
-129.5710114803725
 21
-206.66182556020439
 31
0.0
  0
LINE
  5
1A02E
  8
SU
  6
CONTINUOUS
 62
     3
 10
-136.49228501385301
 20
-206.8618255602043
 30
0.0
 11
-129.69101148037251
 21
-206.8618255602043
 31
0.0
  0
LINE
  5
1A02F
  8
SU
  6
CONTINUOUS
 62
     3
 10
-136.3722850138532
 20
-207.06182556020431
 30
0.0
 11
-129.81101148037251
 21
-207.06182556020431
 31
0.0
  0
LINE
  5
1A030
  8
SU
  6
CONTINUOUS
 62
     3
 10
-136.25228501385331
 20
-207.2618255602043
 30
0.0
 11
-129.9310114803724
 21
-207.2618255602043
 31
0.0
  0
LINE
  5
1A031
  8
SU
  6
CONTINUOUS
 62
     3
 10
-136.13228501385331
 20
-207.4618255602042
 30
0.0
 11
-130.05101148037249
 21
-207.4618255602042
 31
0.0
  0
LINE
  5
1A032
  8
SU
  6
CONTINUOUS
 62
     3
 10
-136.01228501385319
 20
-207.66182556020399
 30
0.0
 11
-130.1710114803725
 21
-207.66182556020399
 31
0.0
  0
LINE
  5
1A033
  8
SU
  6
CONTINUOUS
 62
     3
 10
-135.8922850138533
 20
-207.86182556020441
 30
0.0
 11
-130.29101148037239
 21
-207.86182556020441
 31
0.0
  0
LINE
  5
1A034
  8
SU
  6
CONTINUOUS
 62
     3
 10
-135.77228501385341
 20
-208.0618255602042
 30
0.0
 11
-130.41101148037239
 21
-208.0618255602042
 31
0.0
  0
LINE
  5
1A035
  8
SU
  6
CONTINUOUS
 62
     3
 10
-135.6522850138534
 20
-208.26182556020439
 30
0.0
 11
-130.5310114803724
 21
-208.26182556020439
 31
0.0
  0
LINE
  5
1A036
  8
SU
  6
CONTINUOUS
 62
     3
 10
-135.53228501385331
 20
-208.4618255602042
 30
0.0
 11
-130.6510114803724
 21
-208.4618255602042
 31
0.0
  0
LINE
  5
1A037
  8
SU
  6
CONTINUOUS
 62
     3
 10
-135.41228501385331
 20
-208.66182556020439
 30
0.0
 11
-130.77101148037241
 21
-208.66182556020439
 31
0.0
  0
LINE
  5
1A038
  8
SU
  6
CONTINUOUS
 62
     3
 10
-135.2922850138533
 20
-208.8618255602043
 30
0.0
 11
-130.89101148037241
 21
-208.8618255602043
 31
0.0
  0
LINE
  5
1A039
  8
SU
  6
CONTINUOUS
 62
     3
 10
-135.17228501385321
 20
-209.06182556020431
 30
0.0
 11
-131.0110114803725
 21
-209.06182556020431
 31
0.0
  0
LINE
  5
1A03A
  8
SU
  6
CONTINUOUS
 62
     3
 10
-135.05228501385321
 20
-209.2618255602043
 30
0.0
 11
-131.13101148037251
 21
-209.2618255602043
 31
0.0
  0
LINE
  5
1A03B
  8
SU
  6
CONTINUOUS
 62
     3
 10
-134.9322850138532
 20
-209.4618255602042
 30
0.0
 11
-131.25101148037251
 21
-209.4618255602042
 31
0.0
  0
LINE
  5
1A03C
  8
SU
  6
CONTINUOUS
 62
     3
 10
-134.81228501385331
 20
-209.66182556020399
 30
0.0
 11
-131.3710114803724
 21
-209.66182556020399
 31
0.0
  0
LINE
  5
1A03D
  8
SU
  6
CONTINUOUS
 62
     3
 10
-134.69228501385331
 20
-209.8618255602043
 30
0.0
 11
-131.49101148037241
 21
-209.8618255602043
 31
0.0
  0
LINE
  5
1A03E
  8
SU
  6
CONTINUOUS
 62
     3
 10
-134.57228501385319
 20
-210.0618255602042
 30
0.0
 11
-131.6110114803725
 21
-210.0618255602042
 31
0.0
  0
LINE
  5
1A03F
  8
SU
  6
CONTINUOUS
 62
     3
 10
-134.4522850138533
 20
-210.26182556020439
 30
0.0
 11
-131.73101148037239
 21
-210.26182556020439
 31
0.0
  0
LINE
  5
1A040
  8
SU
  6
CONTINUOUS
 62
     3
 10
-134.33228501385329
 20
-210.4618255602042
 30
0.0
 11
-131.85101148037251
 21
-210.4618255602042
 31
0.0
  0
LINE
  5
1A041
  8
SU
  6
CONTINUOUS
 62
     3
 10
-134.2122850138532
 20
-210.66182556020439
 30
0.0
 11
-131.97101148037251
 21
-210.66182556020439
 31
0.0
  0
LINE
  5
1A042
  8
SU
  6
CONTINUOUS
 62
     3
 10
-134.09228501385331
 20
-210.8618255602043
 30
0.0
 11
-132.0910114803724
 21
-210.8618255602043
 31
0.0
  0
LINE
  5
1A043
  8
SU
  6
CONTINUOUS
 62
     3
 10
-133.97228501385331
 20
-211.06182556020431
 30
0.0
 11
-132.21101148037221
 21
-211.06182556020431
 31
0.0
  0
LINE
  5
1A044
  8
SU
  6
CONTINUOUS
 62
     3
 10
-133.8522850138533
 20
-211.2618255602043
 30
0.0
 11
-132.33101148037241
 21
-211.2618255602043
 31
0.0
  0
LINE
  5
1A045
  8
SU
  6
CONTINUOUS
 62
     3
 10
-133.7322850138533
 20
-211.46182556020401
 30
0.0
 11
-132.4510114803725
 21
-211.46182556020401
 31
0.0
  0
LINE
  5
1A046
  8
SU
  6
CONTINUOUS
 62
     3
 10
-133.61228501385321
 20
-211.66182556020399
 30
0.0
 11
-132.5710114803725
 21
-211.66182556020399
 31
0.0
  0
LINE
  5
1A047
  8
SU
  6
CONTINUOUS
 62
     3
 10
-133.49228501385321
 20
-211.8618255602043
 30
0.0
 11
-132.69101148037251
 21
-211.8618255602043
 31
0.0
  0
LINE
  5
1A048
  8
SU
  6
CONTINUOUS
 62
     3
 10
-133.3722850138532
 20
-212.0618255602042
 30
0.0
 11
-132.81101148037251
 21
-212.0618255602042
 31
0.0
  0
LINE
  5
1A049
  8
SU
  6
CONTINUOUS
 62
     3
 10
-133.25228501385331
 20
-212.26182556020439
 30
0.0
 11
-132.9310114803724
 21
-212.26182556020439
 31
0.0
  0
LINE
  5
1A04A
  8
SU
  6
CONTINUOUS
 62
     3
 10
-133.13228501385331
 20
-212.4618255602042
 30
0.0
 11
-133.05101148037249
 21
-212.4618255602042
 31
0.0
  0
TEXT
  5
1A04B
  8
SU
  6
CONTINUOUS
 62
     3
 10
-134.39164824711261
 20
-221.92860112381959
 30
0.0
 40
4.0
  1
12
 50
90.0
 41
0.8299999999999999
  0
TEXT
  5
1A04C
  8
SU
  6
CONTINUOUS
 62
     3
 10
141.10745388142871
 20
-131.47327605644091
 30
0.0
 40
4.0
  1
ドアW（DW）＝W-56
 41
0.8299999999999999
  0
TEXT
  5
1A04D
  8
SU
  6
CONTINUOUS
 62
     3
 10
252.7785014848894
 20
-116.4732760564406
 30
0.0
 40
4.0
  1
4
 41
0.8299999999999999
  0
TEXT
  5
1A04E
  8
SU
  6
CONTINUOUS
 62
     3
 10
160.72707292904741
 20
-146.47327605644091
 30
0.0
 40
4.0
  1
W
 41
0.8299999999999999
  0
TEXT
  5
1A04F
  8
SU
  6
CONTINUOUS
 62
     3
 10
46.383263413031472
 20
-131.47327605644091
 30
0.0
 40
4.0
  1
24
 41
0.8299999999999999
  0
TEXT
  5
1A050
  8
SU
  6
CONTINUOUS
 62
     3
 10
69.149930087491612
 20
-116.4732760564406
 30
0.0
 40
4.0
  1
4
 41
0.8299999999999999
  0
LINE
  5
1A051
  8
SU
  6
CONTINUOUS
 62
     3
 10
37.691943730757771
 20
-147.81391282318131
 30
0.0
 11
37.691943730757771
 21
-147.73263928970059
 31
0.0
  0
LINE
  5
1A052
  8
SU
  6
CONTINUOUS
 62
     3
 10
37.89194373075776
 20
-147.9339128231812
 30
0.0
 11
37.89194373075776
 21
-147.61263928970041
 31
0.0
  0
LINE
  5
1A053
  8
SU
  6
CONTINUOUS
 62
     3
 10
38.091943730757777
 20
-148.05391282318109
 30
0.0
 11
38.091943730757777
 21
-147.49263928970029
 31
0.0
  0
LINE
  5
1A054
  8
SU
  6
CONTINUOUS
 62
     3
 10
38.291943730757772
 20
-148.1739128231813
 30
0.0
 11
38.291943730757772
 21
-147.3726392897004
 31
0.0
  0
LINE
  5
1A055
  8
SU
  6
CONTINUOUS
 62
     3
 10
38.491943730757747
 20
-148.29391282318099
 30
0.0
 11
38.491943730757747
 21
-147.25263928970051
 31
0.0
  0
LINE
  5
1A056
  8
SU
  6
CONTINUOUS
 62
     3
 10
38.691943730757778
 20
-148.41391282318131
 30
0.0
 11
38.691943730757778
 21
-147.13263928970051
 31
0.0
  0
LINE
  5
1A057
  8
SU
  6
CONTINUOUS
 62
     3
 10
38.89194373075776
 20
-148.53391282318131
 30
0.0
 11
38.89194373075776
 21
-147.0126392897005
 31
0.0
  0
LINE
  5
1A058
  8
SU
  6
CONTINUOUS
 62
     3
 10
39.09194373075777
 20
-148.65391282318129
 30
0.0
 11
39.09194373075777
 21
-146.8926392897005
 31
0.0
  0
LINE
  5
1A059
  8
SU
  6
CONTINUOUS
 62
     3
 10
39.291943730757772
 20
-148.77391282318101
 30
0.0
 11
39.291943730757772
 21
-146.77263928970041
 31
0.0
  0
LINE
  5
1A05A
  8
SU
  6
CONTINUOUS
 62
     3
 10
39.491943730757747
 20
-148.8939128231811
 30
0.0
 11
39.491943730757747
 21
-146.6526392897002
 31
0.0
  0
LINE
  5
1A05B
  8
SU
  6
CONTINUOUS
 62
     3
 10
39.691943730757778
 20
-149.0139128231813
 30
0.0
 11
39.691943730757778
 21
-146.53263928970051
 31
0.0
  0
LINE
  5
1A05C
  8
SU
  6
CONTINUOUS
 62
     3
 10
39.891943730757752
 20
-149.13391282318139
 30
0.0
 11
39.891943730757752
 21
-146.41263928970051
 31
0.0
  0
LINE
  5
1A05D
  8
SU
  6
CONTINUOUS
 62
     3
 10
40.091943730757777
 20
-149.25391282318131
 30
0.0
 11
40.091943730757777
 21
-146.2926392897005
 31
0.0
  0
LINE
  5
1A05E
  8
SU
  6
CONTINUOUS
 62
     3
 10
40.291943730757772
 20
-149.3739128231814
 30
0.0
 11
40.291943730757772
 21
-146.1726392897005
 31
0.0
  0
LINE
  5
1A05F
  8
SU
  6
CONTINUOUS
 62
     3
 10
40.491943730757747
 20
-149.4939128231814
 30
0.0
 11
40.491943730757747
 21
-146.05263928970041
 31
0.0
  0
LINE
  5
1A060
  8
SU
  6
CONTINUOUS
 62
     3
 10
40.691943730757771
 20
-149.61391282318141
 30
0.0
 11
40.691943730757771
 21
-145.9326392897004
 31
0.0
  0
LINE
  5
1A061
  8
SU
  6
CONTINUOUS
 62
     3
 10
40.89194373075776
 20
-149.73391282318141
 30
0.0
 11
40.89194373075776
 21
-145.81263928970051
 31
0.0
  0
LINE
  5
1A062
  8
SU
  6
CONTINUOUS
 62
     3
 10
41.09194373075777
 20
-149.8539128231811
 30
0.0
 11
41.09194373075777
 21
-145.69263928970051
 31
0.0
  0
LINE
  5
1A063
  8
SU
  6
CONTINUOUS
 62
     3
 10
41.291943730757772
 20
-149.97391282318131
 30
0.0
 11
41.291943730757772
 21
-145.5726392897005
 31
0.0
  0
LINE
  5
1A064
  8
SU
  6
CONTINUOUS
 62
     3
 10
41.491943730757747
 20
-150.09391282318131
 30
0.0
 11
41.491943730757747
 21
-145.45263928970039
 31
0.0
  0
LINE
  5
1A065
  8
SU
  6
CONTINUOUS
 62
     3
 10
41.691943730757778
 20
-150.2139128231812
 30
0.0
 11
41.691943730757778
 21
-145.3326392897005
 31
0.0
  0
LINE
  5
1A066
  8
SU
  6
CONTINUOUS
 62
     3
 10
41.891943730757767
 20
-150.33391282318101
 30
0.0
 11
41.891943730757767
 21
-145.21263928970041
 31
0.0
  0
LINE
  5
1A067
  8
SU
  6
CONTINUOUS
 62
     3
 10
42.09194373075777
 20
-150.4539128231813
 30
0.0
 11
42.09194373075777
 21
-145.0926392897002
 31
0.0
  0
LINE
  5
1A068
  8
SU
  6
CONTINUOUS
 62
     3
 10
42.291943730757772
 20
-150.5739128231813
 30
0.0
 11
42.291943730757772
 21
-144.97263928970051
 31
0.0
  0
LINE
  5
1A069
  8
SU
  6
CONTINUOUS
 62
     3
 10
42.491943730757747
 20
-150.69391282318131
 30
0.0
 11
42.491943730757747
 21
-144.85263928970051
 31
0.0
  0
LINE
  5
1A06A
  8
SU
  6
CONTINUOUS
 62
     3
 10
42.691943730757771
 20
-150.81391282318131
 30
0.0
 11
42.691943730757771
 21
-144.7326392897005
 31
0.0
  0
LINE
  5
1A06B
  8
SU
  6
CONTINUOUS
 62
     3
 10
42.891943730757752
 20
-150.9339128231812
 30
0.0
 11
42.891943730757752
 21
-144.61263928970041
 31
0.0
  0
LINE
  5
1A06C
  8
SU
  6
CONTINUOUS
 62
     3
 10
43.09194373075777
 20
-151.05391282318129
 30
0.0
 11
43.09194373075777
 21
-144.49263928970041
 31
0.0
  0
LINE
  5
1A06D
  8
SU
  6
CONTINUOUS
 62
     3
 10
43.291943730757772
 20
-151.1739128231813
 30
0.0
 11
43.291943730757772
 21
-144.3726392897004
 31
0.0
  0
LINE
  5
1A06E
  8
SU
  6
CONTINUOUS
 62
     3
 10
43.491943730757761
 20
-151.2939128231811
 30
0.0
 11
43.491943730757761
 21
-144.2526392897006
 31
0.0
  0
LINE
  5
1A06F
  8
SU
  6
CONTINUOUS
 62
     3
 10
43.691943730757771
 20
-151.41391282318131
 30
0.0
 11
43.691943730757771
 21
-144.13263928970051
 31
0.0
  0
LINE
  5
1A070
  8
SU
  6
CONTINUOUS
 62
     3
 10
43.891943730757767
 20
-151.53391282318131
 30
0.0
 11
43.891943730757767
 21
-144.01263928970039
 31
0.0
  0
LINE
  5
1A071
  8
SU
  6
CONTINUOUS
 62
     3
 10
44.091943730757762
 20
-151.6539128231812
 30
0.0
 11
44.091943730757762
 21
-143.8926392897005
 31
0.0
  0
LINE
  5
1A072
  8
SU
  6
CONTINUOUS
 62
     3
 10
44.291943730757772
 20
-151.77391282318101
 30
0.0
 11
44.291943730757772
 21
-143.77263928970041
 31
0.0
  0
LINE
  5
1A073
  8
SU
  6
CONTINUOUS
 62
     3
 10
44.491943730757747
 20
-151.8939128231813
 30
0.0
 11
44.491943730757747
 21
-143.6526392897004
 31
0.0
  0
LINE
  5
1A074
  8
SU
  6
CONTINUOUS
 62
     3
 10
44.691943730757771
 20
-152.0139128231813
 30
0.0
 11
44.691943730757771
 21
-143.53263928970051
 31
0.0
  0
LINE
  5
1A075
  8
SU
  6
CONTINUOUS
 62
     3
 10
44.891943730757752
 20
-152.1339128231813
 30
0.0
 11
44.891943730757752
 21
-143.41263928970051
 31
0.0
  0
LINE
  5
1A076
  8
SU
  6
CONTINUOUS
 62
     3
 10
45.091943730757777
 20
-152.25391282318111
 30
0.0
 11
45.091943730757777
 21
-143.2926392897005
 31
0.0
  0
LINE
  5
1A077
  8
SU
  6
CONTINUOUS
 62
     3
 10
45.291943730757772
 20
-152.3739128231814
 30
0.0
 11
45.291943730757772
 21
-143.17263928970041
 31
0.0
  0
LINE
  5
1A078
  8
SU
  6
CONTINUOUS
 62
     3
 10
45.491943730757761
 20
-152.4939128231814
 30
0.0
 11
45.491943730757761
 21
-143.05263928970041
 31
0.0
  0
LINE
  5
1A079
  8
SU
  6
CONTINUOUS
 62
     3
 10
45.691943730757757
 20
-152.61391282318141
 30
0.0
 11
45.691943730757757
 21
-142.9326392897004
 31
0.0
  0
LINE
  5
1A07A
  8
SU
  6
CONTINUOUS
 62
     3
 10
45.89194373075776
 20
-152.73391282318141
 30
0.0
 11
45.89194373075776
 21
-142.81263928970051
 31
0.0
  0
LINE
  5
1A07B
  8
SU
  6
CONTINUOUS
 62
     3
 10
46.091943730757762
 20
-152.8539128231813
 30
0.0
 11
46.091943730757762
 21
-142.69263928970051
 31
0.0
  0
LINE
  5
1A07C
  8
SU
  6
CONTINUOUS
 62
     3
 10
46.291943730757772
 20
-152.97391282318131
 30
0.0
 11
46.291943730757772
 21
-142.57263928970039
 31
0.0
  0
LINE
  5
1A07D
  8
SU
  6
CONTINUOUS
 62
     3
 10
46.491943730757761
 20
-153.09391282318131
 30
0.0
 11
46.491943730757761
 21
-142.4526392897005
 31
0.0
  0
LINE
  5
1A07E
  8
SU
  6
CONTINUOUS
 62
     3
 10
46.691943730757778
 20
-153.213912823181
 30
0.0
 11
46.691943730757778
 21
-142.3326392897005
 31
0.0
  0
LINE
  5
1A07F
  8
SU
  6
CONTINUOUS
 62
     3
 10
46.891943730757767
 20
-153.33391282318101
 30
0.0
 11
46.891943730757767
 21
-142.21263928970041
 31
0.0
  0
LINE
  5
1A080
  8
SU
  6
CONTINUOUS
 62
     3
 10
47.09194373075777
 20
-153.4539128231813
 30
0.0
 11
47.09194373075777
 21
-142.0926392897002
 31
0.0
  0
LINE
  5
1A081
  8
SU
  6
CONTINUOUS
 62
     3
 10
47.291943730757772
 20
-153.57391282318139
 30
0.0
 11
47.291943730757772
 21
-141.97263928970051
 31
0.0
  0
LINE
  5
1A082
  8
SU
  6
CONTINUOUS
 62
     3
 10
47.491943730757761
 20
-153.69391282318131
 30
0.0
 11
47.491943730757761
 21
-141.85263928970051
 31
0.0
  0
TEXT
  5
1A083
  8
SU
  6
CONTINUOUS
 62
     3
 10
272.38326339744481
 20
-131.47327605644091
 30
0.0
 40
4.0
  1
24
 41
0.8299999999999999
  0
LINE
  5
1A084
  8
SU
  6
CONTINUOUS
 62
     3
 10
277.7564878416232
 20
-153.69391282318131
 30
0.0
 11
277.7564878416232
 21
-141.85263928970051
 31
0.0
  0
LINE
  5
1A085
  8
SU
  6
CONTINUOUS
 62
     3
 10
277.9564878416233
 20
-153.5739128231813
 30
0.0
 11
277.9564878416233
 21
-141.9726392897006
 31
0.0
  0
LINE
  5
1A086
  8
SU
  6
CONTINUOUS
 62
     3
 10
278.15648784162329
 20
-153.4539128231813
 30
0.0
 11
278.15648784162329
 21
-142.09263928970029
 31
0.0
  0
LINE
  5
1A087
  8
SU
  6
CONTINUOUS
 62
     3
 10
278.35648784162311
 20
-153.33391282318101
 30
0.0
 11
278.35648784162311
 21
-142.21263928970041
 31
0.0
  0
LINE
  5
1A088
  8
SU
  6
CONTINUOUS
 62
     3
 10
278.55648784162321
 20
-153.213912823181
 30
0.0
 11
278.55648784162321
 21
-142.3326392897005
 31
0.0
  0
LINE
  5
1A089
  8
SU
  6
CONTINUOUS
 62
     3
 10
278.75648784162308
 20
-153.09391282318131
 30
0.0
 11
278.75648784162308
 21
-142.4526392897005
 31
0.0
  0
LINE
  5
1A08A
  8
SU
  6
CONTINUOUS
 62
     3
 10
278.9564878416233
 20
-152.97391282318131
 30
0.0
 11
278.9564878416233
 21
-142.57263928970039
 31
0.0
  0
LINE
  5
1A08B
  8
SU
  6
CONTINUOUS
 62
     3
 10
279.15648784162312
 20
-152.8539128231813
 30
0.0
 11
279.15648784162312
 21
-142.69263928970051
 31
0.0
  0
LINE
  5
1A08C
  8
SU
  6
CONTINUOUS
 62
     3
 10
279.35648784162328
 20
-152.73391282318099
 30
0.0
 11
279.35648784162328
 21
-142.8126392897006
 31
0.0
  0
LINE
  5
1A08D
  8
SU
  6
CONTINUOUS
 62
     3
 10
279.55648784162321
 20
-152.61391282318129
 30
0.0
 11
279.55648784162321
 21
-142.9326392897004
 31
0.0
  0
LINE
  5
1A08E
  8
SU
  6
CONTINUOUS
 62
     3
 10
279.7564878416232
 20
-152.49391282318101
 30
0.0
 11
279.7564878416232
 21
-143.05263928970041
 31
0.0
  0
LINE
  5
1A08F
  8
SU
  6
CONTINUOUS
 62
     3
 10
279.9564878416233
 20
-152.37391282318131
 30
0.0
 11
279.9564878416233
 21
-143.17263928970041
 31
0.0
  0
LINE
  5
1A090
  8
SU
  6
CONTINUOUS
 62
     3
 10
280.15648784162329
 20
-152.25391282318111
 30
0.0
 11
280.15648784162329
 21
-143.2926392897005
 31
0.0
  0
LINE
  5
1A091
  8
SU
  6
CONTINUOUS
 62
     3
 10
280.35648784162311
 20
-152.1339128231813
 30
0.0
 11
280.35648784162311
 21
-143.41263928970059
 31
0.0
  0
LINE
  5
1A092
  8
SU
  6
CONTINUOUS
 62
     3
 10
280.55648784162338
 20
-152.0139128231813
 30
0.0
 11
280.55648784162338
 21
-143.53263928970051
 31
0.0
  0
LINE
  5
1A093
  8
SU
  6
CONTINUOUS
 62
     3
 10
280.75648784162308
 20
-151.8939128231813
 30
0.0
 11
280.75648784162308
 21
-143.6526392897004
 31
0.0
  0
LINE
  5
1A094
  8
SU
  6
CONTINUOUS
 62
     3
 10
280.9564878416233
 20
-151.77391282318101
 30
0.0
 11
280.9564878416233
 21
-143.77263928970041
 31
0.0
  0
LINE
  5
1A095
  8
SU
  6
CONTINUOUS
 62
     3
 10
281.15648784162312
 20
-151.6539128231812
 30
0.0
 11
281.15648784162312
 21
-143.8926392897005
 31
0.0
  0
LINE
  5
1A096
  8
SU
  6
CONTINUOUS
 62
     3
 10
281.35648784162328
 20
-151.53391282318131
 30
0.0
 11
281.35648784162328
 21
-144.01263928970039
 31
0.0
  0
LINE
  5
1A097
  8
SU
  6
CONTINUOUS
 62
     3
 10
281.55648784162321
 20
-151.41391282318131
 30
0.0
 11
281.55648784162321
 21
-144.13263928970051
 31
0.0
  0
LINE
  5
1A098
  8
SU
  6
CONTINUOUS
 62
     3
 10
281.7564878416232
 20
-151.2939128231811
 30
0.0
 11
281.7564878416232
 21
-144.2526392897006
 31
0.0
  0
LINE
  5
1A099
  8
SU
  6
CONTINUOUS
 62
     3
 10
281.9564878416233
 20
-151.1739128231813
 30
0.0
 11
281.9564878416233
 21
-144.3726392897004
 31
0.0
  0
LINE
  5
1A09A
  8
SU
  6
CONTINUOUS
 62
     3
 10
282.15648784162312
 20
-151.05391282318129
 30
0.0
 11
282.15648784162312
 21
-144.49263928970041
 31
0.0
  0
LINE
  5
1A09B
  8
SU
  6
CONTINUOUS
 62
     3
 10
282.35648784162311
 20
-150.9339128231812
 30
0.0
 11
282.35648784162311
 21
-144.61263928970041
 31
0.0
  0
LINE
  5
1A09C
  8
SU
  6
CONTINUOUS
 62
     3
 10
282.55648784162321
 20
-150.81391282318131
 30
0.0
 11
282.55648784162321
 21
-144.7326392897005
 31
0.0
  0
LINE
  5
1A09D
  8
SU
  6
CONTINUOUS
 62
     3
 10
282.75648784162308
 20
-150.69391282318131
 30
0.0
 11
282.75648784162308
 21
-144.85263928970051
 31
0.0
  0
LINE
  5
1A09E
  8
SU
  6
CONTINUOUS
 62
     3
 10
282.9564878416233
 20
-150.5739128231813
 30
0.0
 11
282.9564878416233
 21
-144.97263928970051
 31
0.0
  0
LINE
  5
1A09F
  8
SU
  6
CONTINUOUS
 62
     3
 10
283.15648784162317
 20
-150.4539128231813
 30
0.0
 11
283.15648784162317
 21
-145.0926392897002
 31
0.0
  0
LINE
  5
1A0A0
  8
SU
  6
CONTINUOUS
 62
     3
 10
283.35648784162311
 20
-150.33391282318101
 30
0.0
 11
283.35648784162311
 21
-145.21263928970041
 31
0.0
  0
LINE
  5
1A0A1
  8
SU
  6
CONTINUOUS
 62
     3
 10
283.5564878416231
 20
-150.2139128231812
 30
0.0
 11
283.5564878416231
 21
-145.3326392897005
 31
0.0
  0
LINE
  5
1A0A2
  8
SU
  6
CONTINUOUS
 62
     3
 10
283.75648784162343
 20
-150.09391282318131
 30
0.0
 11
283.75648784162343
 21
-145.45263928970039
 31
0.0
  0
LINE
  5
1A0A3
  8
SU
  6
CONTINUOUS
 62
     3
 10
283.95648784162302
 20
-149.97391282318131
 30
0.0
 11
283.95648784162302
 21
-145.5726392897005
 31
0.0
  0
LINE
  5
1A0A4
  8
SU
  6
CONTINUOUS
 62
     3
 10
284.15648784162329
 20
-149.8539128231811
 30
0.0
 11
284.15648784162329
 21
-145.69263928970051
 31
0.0
  0
LINE
  5
1A0A5
  8
SU
  6
CONTINUOUS
 62
     3
 10
284.35648784162311
 20
-149.7339128231811
 30
0.0
 11
284.35648784162311
 21
-145.8126392897006
 31
0.0
  0
LINE
  5
1A0A6
  8
SU
  6
CONTINUOUS
 62
     3
 10
284.55648784162321
 20
-149.61391282318129
 30
0.0
 11
284.55648784162321
 21
-145.9326392897004
 31
0.0
  0
LINE
  5
1A0A7
  8
SU
  6
CONTINUOUS
 62
     3
 10
284.7564878416232
 20
-149.49391282318129
 30
0.0
 11
284.7564878416232
 21
-146.05263928970041
 31
0.0
  0
LINE
  5
1A0A8
  8
SU
  6
CONTINUOUS
 62
     3
 10
284.9564878416233
 20
-149.37391282318131
 30
0.0
 11
284.9564878416233
 21
-146.1726392897005
 31
0.0
  0
LINE
  5
1A0A9
  8
SU
  6
CONTINUOUS
 62
     3
 10
285.15648784162312
 20
-149.25391282318131
 30
0.0
 11
285.15648784162312
 21
-146.2926392897005
 31
0.0
  0
LINE
  5
1A0AA
  8
SU
  6
CONTINUOUS
 62
     3
 10
285.35648784162311
 20
-149.1339128231813
 30
0.0
 11
285.35648784162311
 21
-146.41263928970051
 31
0.0
  0
LINE
  5
1A0AB
  8
SU
  6
CONTINUOUS
 62
     3
 10
285.5564878416231
 20
-149.0139128231813
 30
0.0
 11
285.5564878416231
 21
-146.53263928970051
 31
0.0
  0
LINE
  5
1A0AC
  8
SU
  6
CONTINUOUS
 62
     3
 10
285.7564878416232
 20
-148.8939128231811
 30
0.0
 11
285.7564878416232
 21
-146.65263928970029
 31
0.0
  0
LINE
  5
1A0AD
  8
SU
  6
CONTINUOUS
 62
     3
 10
285.95648784162302
 20
-148.77391282318101
 30
0.0
 11
285.95648784162302
 21
-146.77263928970041
 31
0.0
  0
LINE
  5
1A0AE
  8
SU
  6
CONTINUOUS
 62
     3
 10
286.15648784162329
 20
-148.65391282318129
 30
0.0
 11
286.15648784162329
 21
-146.8926392897005
 31
0.0
  0
LINE
  5
1A0AF
  8
SU
  6
CONTINUOUS
 62
     3
 10
286.35648784162299
 20
-148.53391282318131
 30
0.0
 11
286.35648784162299
 21
-147.0126392897005
 31
0.0
  0
LINE
  5
1A0B0
  8
SU
  6
CONTINUOUS
 62
     3
 10
286.55648784162321
 20
-148.41391282318131
 30
0.0
 11
286.55648784162321
 21
-147.13263928970051
 31
0.0
  0
LINE
  5
1A0B1
  8
SU
  6
CONTINUOUS
 62
     3
 10
286.75648784162308
 20
-148.29391282318099
 30
0.0
 11
286.75648784162308
 21
-147.25263928970051
 31
0.0
  0
LINE
  5
1A0B2
  8
SU
  6
CONTINUOUS
 62
     3
 10
286.9564878416233
 20
-148.1739128231813
 30
0.0
 11
286.9564878416233
 21
-147.3726392897004
 31
0.0
  0
LINE
  5
1A0B3
  8
SU
  6
CONTINUOUS
 62
     3
 10
287.15648784162312
 20
-148.05391282318109
 30
0.0
 11
287.15648784162312
 21
-147.49263928970029
 31
0.0
  0
LINE
  5
1A0B4
  8
SU
  6
CONTINUOUS
 62
     3
 10
287.35648784162311
 20
-147.9339128231812
 30
0.0
 11
287.35648784162311
 21
-147.61263928970041
 31
0.0
  0
LINE
  5
1A0B5
  8
SU
  6
CONTINUOUS
 62
     3
 10
287.5564878416231
 20
-147.81391282318131
 30
0.0
 11
287.5564878416231
 21
-147.7326392897005
 31
0.0
  0
TEXT
  5
1A0B6
  8
SU
  6
CONTINUOUS
 62
     3
 10
100.32421578619051
 20
2.9857720378549271
 30
0.0
 40
4.0
  1
24
 50
90.0
 41
0.8299999999999999
  0
TEXT
  5
1A0B7
  8
SU
  6
CONTINUOUS
 62
     3
 10
111.0242182347193
 20
-3.2532760564557681
 30
0.0
 40
4.0
  1
152
 50
90.0
 41
0.8299999999999999
  0
TEXT
  5
1A0B8
  8
SU
  6
CONTINUOUS
 62
     3
 10
100.32421578619051
 20
-85.403752246931916
 30
0.0
 40
4.0
  1
7.5
 50
90.0
 41
0.8299999999999999
  0
TEXT
  5
1A0B9
  8
SU
  6
CONTINUOUS
 62
     3
 10
100.32421578619051
 20
-44.93517996212136
 30
0.0
 40
4.0
  1
50
 50
90.0
 41
0.8299999999999999
  0
TEXT
  5
1A0BA
  8
SU
  6
CONTINUOUS
 62
     3
 10
100.32421578619051
 20
-14.19803624875553
 30
0.0
 40
4.0
  1
11
 50
90.0
 41
0.8299999999999999
  0
TEXT
  5
1A0BB
  8
SU
  6
CONTINUOUS
 62
     3
 10
247.7114538814283
 20
99.026730109711508
 30
0.0
 40
4.0
  1
（20）
 41
0.8299999999999999
  0
TEXT
  5
1A0BC
  8
SU
  6
CONTINUOUS
 62
     3
 10
100.32421578619039
 20
47.932971859506289
 30
0.0
 40
4.0
  1
59.5
 50
90.0
 41
0.8299999999999999
  0
TEXT
  5
1A0BD
  8
SU
  6
CONTINUOUS
 62
     3
 10
65.711453881428611
 20
99.026730109711423
 30
0.0
 40
4.0
  1
（20）
 41
0.8299999999999999
  0
ARC
  5
1A0BE
  8
SU
  6
CONTINUOUS
 62
     3
 10
81.624215786190618
 20
97.726730109711383
 30
0.0
 40
0.2999999999999971
 50
180.0
 51
0.0
  0
ARC
  5
1A0BF
  8
SU
  6
CONTINUOUS
 62
     3
 10
81.624215786190618
 20
97.726730109711383
 30
0.0
 40
0.2999999999999971
 50
0.0
 51
180.0
  0
ARC
  5
1A0C0
  8
SU
  6
CONTINUOUS
 62
     3
 10
101.6242157861904
 20
77.726723943544187
 30
0.0
 40
0.2999999999999971
 50
270.0
 51
90.0
  0
ARC
  5
1A0C1
  8
SU
  6
CONTINUOUS
 62
     3
 10
101.6242157861904
 20
77.726723943544187
 30
0.0
 40
0.2999999999999971
 50
90.0
 51
270.0
  0
ARC
  5
1A0C2
  8
SU
  6
CONTINUOUS
 62
     3
 10
243.6242157861904
 20
97.726730109711525
 30
0.0
 40
0.3000000000000114
 50
0.0
 51
180.0
  0
ARC
  5
1A0C3
  8
SU
  6
CONTINUOUS
 62
     3
 10
243.6242157861904
 20
97.726730109711525
 30
0.0
 40
0.3000000000000114
 50
180.0
 51
0.0
  0
ARC
  5
1A0C4
  8
SU
  6
CONTINUOUS
 62
     3
 10
101.6242157861904
 20
-16.773274343993641
 30
0.0
 40
0.3000000000000007
 50
90.0
 51
270.0
  0
ARC
  5
1A0C5
  8
SU
  6
CONTINUOUS
 62
     3
 10
101.6242157861904
 20
-16.773274343993641
 30
0.0
 40
0.3000000000000007
 50
270.0
 51
90.0
  0
ARC
  5
1A0C6
  8
SU
  6
CONTINUOUS
 62
     3
 10
101.6242157861904
 20
-5.7732743439936431
 30
0.0
 40
0.2999999999999998
 50
270.0
 51
90.0
  0
ARC
  5
1A0C7
  8
SU
  6
CONTINUOUS
 62
     3
 10
101.6242157861904
 20
-5.7732743439936431
 30
0.0
 40
0.2999999999999998
 50
90.0
 51
270.0
  0
ARC
  5
1A0C8
  8
SU
  6
CONTINUOUS
 62
     3
 10
101.6242157861904
 20
-66.773276056439613
 30
0.0
 40
0.2999999999999971
 50
90.0
 51
270.0
  0
ARC
  5
1A0C9
  8
SU
  6
CONTINUOUS
 62
     3
 10
101.6242157861904
 20
-66.773276056439613
 30
0.0
 40
0.2999999999999971
 50
270.0
 51
90.0
  0
ARC
  5
1A0CA
  8
SU
  6
CONTINUOUS
 62
     3
 10
101.6242157861904
 20
-66.773276056439613
 30
0.0
 40
0.2999999999999971
 50
270.0
 51
90.0
  0
ARC
  5
1A0CB
  8
SU
  6
CONTINUOUS
 62
     3
 10
101.6242157861904
 20
-66.773276056439613
 30
0.0
 40
0.2999999999999971
 50
90.0
 51
270.0
  0
ARC
  5
1A0CC
  8
SU
  6
CONTINUOUS
 62
     3
 10
101.6242157861904
 20
-74.273276056455785
 30
0.0
 40
0.2999999999999971
 50
90.0
 51
270.0
  0
ARC
  5
1A0CD
  8
SU
  6
CONTINUOUS
 62
     3
 10
101.6242157861904
 20
-74.273276056455785
 30
0.0
 40
0.2999999999999971
 50
270.0
 51
90.0
  0
ARC
  5
1A0CE
  8
SU
  6
CONTINUOUS
 62
     3
 10
112.3242182347192
 20
77.726723943544187
 30
0.0
 40
0.2999999999999971
 50
270.0
 51
90.0
  0
ARC
  5
1A0CF
  8
SU
  6
CONTINUOUS
 62
     3
 10
112.3242182347192
 20
77.726723943544187
 30
0.0
 40
0.2999999999999971
 50
90.0
 51
270.0
  0
ARC
  5
1A0D0
  8
SU
  6
CONTINUOUS
 62
     3
 10
112.3242182347192
 20
-74.273276056455785
 30
0.0
 40
0.2999999999999971
 50
90.0
 51
270.0
  0
ARC
  5
1A0D1
  8
SU
  6
CONTINUOUS
 62
     3
 10
112.3242182347192
 20
-74.273276056455785
 30
0.0
 40
0.2999999999999971
 50
270.0
 51
90.0
  0
ARC
  5
1A0D2
  8
SU
  6
CONTINUOUS
 62
     3
 10
101.6242157861904
 20
18.226723181608222
 30
0.0
 40
0.3000000000000007
 50
270.0
 51
90.0
  0
ARC
  5
1A0D3
  8
SU
  6
CONTINUOUS
 62
     3
 10
101.6242157861904
 20
18.226723181608222
 30
0.0
 40
0.3000000000000007
 50
90.0
 51
270.0
  0
ARC
  5
1A0D4
  8
SU
  6
CONTINUOUS
 62
     3
 10
287.62421578619052
 20
-132.77327605644061
 30
0.0
 40
0.3000000000000114
 50
180.0
 51
0.0
  0
ARC
  5
1A0D5
  8
SU
  6
CONTINUOUS
 62
     3
 10
287.62421578619052
 20
-132.77327605644061
 30
0.0
 40
0.3000000000000114
 50
0.0
 51
180.0
  0
ARC
  5
1A0D6
  8
SU
  6
CONTINUOUS
 62
     3
 10
65.624215801777325
 20
-132.77327605644061
 30
0.0
 40
0.2999999999999971
 50
180.0
 51
0.0
  0
ARC
  5
1A0D7
  8
SU
  6
CONTINUOUS
 62
     3
 10
65.624215801777325
 20
-132.77327605644061
 30
0.0
 40
0.2999999999999971
 50
0.0
 51
180.0
  0
ARC
  5
1A0D8
  8
SU
  6
CONTINUOUS
 62
     3
 10
61.624215786190462
 20
-132.77327605644061
 30
0.0
 40
0.2999999999999971
 50
0.0
 51
180.0
  0
ARC
  5
1A0D9
  8
SU
  6
CONTINUOUS
 62
     3
 10
61.624215786190462
 20
-132.77327605644061
 30
0.0
 40
0.2999999999999971
 50
180.0
 51
0.0
  0
ARC
  5
1A0DA
  8
SU
  6
CONTINUOUS
 62
     3
 10
37.624215786190398
 20
-132.77327605644061
 30
0.0
 40
0.2999999999999971
 50
0.0
 51
180.0
  0
ARC
  5
1A0DB
  8
SU
  6
CONTINUOUS
 62
     3
 10
37.624215786190398
 20
-132.77327605644061
 30
0.0
 40
0.2999999999999971
 50
180.0
 51
0.0
  0
ARC
  5
1A0DC
  8
SU
  6
CONTINUOUS
 62
     3
 10
259.62421577060348
 20
-132.77327605644061
 30
0.0
 40
0.3000000000000114
 50
0.0
 51
180.0
  0
ARC
  5
1A0DD
  8
SU
  6
CONTINUOUS
 62
     3
 10
259.62421577060348
 20
-132.77327605644061
 30
0.0
 40
0.3000000000000114
 50
180.0
 51
0.0
  0
ARC
  5
1A0DE
  8
SU
  6
CONTINUOUS
 62
     3
 10
263.6242157861904
 20
-132.77327605644061
 30
0.0
 40
0.3000000000000114
 50
180.0
 51
0.0
  0
ARC
  5
1A0DF
  8
SU
  6
CONTINUOUS
 62
     3
 10
263.6242157861904
 20
-132.77327605644061
 30
0.0
 40
0.3000000000000114
 50
0.0
 51
180.0
  0
ARC
  5
1A0E0
  8
SU
  6
CONTINUOUS
 62
     3
 10
259.62421577060348
 20
-132.77327605644061
 30
0.0
 40
0.3000000000000114
 50
180.0
 51
0.0
  0
ARC
  5
1A0E1
  8
SU
  6
CONTINUOUS
 62
     3
 10
259.62421577060348
 20
-132.77327605644061
 30
0.0
 40
0.3000000000000114
 50
0.0
 51
180.0
  0
ARC
  5
1A0E2
  8
SU
  6
CONTINUOUS
 62
     3
 10
65.624215801777538
 20
-132.77327605644061
 30
0.0
 40
0.2999999999999971
 50
0.0
 51
180.0
  0
ARC
  5
1A0E3
  8
SU
  6
CONTINUOUS
 62
     3
 10
65.624215801777538
 20
-132.77327605644061
 30
0.0
 40
0.2999999999999971
 50
180.0
 51
0.0
  0
ARC
  5
1A0E4
  8
SU
  6
CONTINUOUS
 62
     3
 10
-133.0916482471126
 20
-224.52955350477191
 30
0.0
 40
0.3000000000000114
 50
90.0
 51
270.0
  0
ARC
  5
1A0E5
  8
SU
  6
CONTINUOUS
 62
     3
 10
-133.0916482471126
 20
-224.52955350477191
 30
0.0
 40
0.3000000000000114
 50
270.0
 51
90.0
  0
ARC
  5
1A0E6
  8
SU
  6
CONTINUOUS
 62
     3
 10
-148.09164824711141
 20
-212.5295535047718
 30
0.0
 40
0.3000000000000114
 50
90.0
 51
270.0
  0
ARC
  5
1A0E7
  8
SU
  6
CONTINUOUS
 62
     3
 10
-148.09164824711141
 20
-212.5295535047718
 30
0.0
 40
0.3000000000000114
 50
270.0
 51
90.0
  0
ARC
  5
1A0E8
  8
SU
  6
CONTINUOUS
 62
     3
 10
-148.09164824711141
 20
-204.52955350477191
 30
0.0
 40
0.3000000000000114
 50
90.0
 51
270.0
  0
ARC
  5
1A0E9
  8
SU
  6
CONTINUOUS
 62
     3
 10
-148.09164824711141
 20
-204.52955350477191
 30
0.0
 40
0.3000000000000114
 50
270.0
 51
90.0
  0
ARC
  5
1A0EA
  8
SU
  6
CONTINUOUS
 62
     3
 10
-148.09164836061441
 20
133.7940249107869
 30
0.0
 40
0.3000000000000114
 50
90.0
 51
270.0
  0
ARC
  5
1A0EB
  8
SU
  6
CONTINUOUS
 62
     3
 10
-148.09164836061441
 20
133.7940249107869
 30
0.0
 40
0.3000000000000114
 50
270.0
 51
90.0
  0
ARC
  5
1A0EC
  8
SU
  6
CONTINUOUS
 62
     3
 10
-148.09164836061441
 20
157.79402491078719
 30
0.0
 40
0.3000000000000114
 50
270.0
 51
90.0
  0
ARC
  5
1A0ED
  8
SU
  6
CONTINUOUS
 62
     3
 10
-148.09164836061441
 20
157.79402491078719
 30
0.0
 40
0.3000000000000114
 50
90.0
 51
270.0
  0
ARC
  5
1A0EE
  8
SU
  6
CONTINUOUS
 62
     3
 10
-148.09164836061441
 20
130.7940249107869
 30
0.0
 40
0.3000000000000114
 50
90.0
 51
270.0
  0
ARC
  5
1A0EF
  8
SU
  6
CONTINUOUS
 62
     3
 10
-148.09164836061441
 20
130.7940249107869
 30
0.0
 40
0.3000000000000114
 50
270.0
 51
90.0
  0
ARC
  5
1A0F0
  8
SU
  6
CONTINUOUS
 62
     3
 10
-148.09164836061441
 20
133.7940249107869
 30
0.0
 40
0.3000000000000114
 50
270.0
 51
90.0
  0
ARC
  5
1A0F1
  8
SU
  6
CONTINUOUS
 62
     3
 10
-148.09164836061441
 20
133.7940249107869
 30
0.0
 40
0.3000000000000114
 50
90.0
 51
270.0
  0
ARC
  5
1A0F2
  8
SU
  6
CONTINUOUS
 62
     3
 10
-148.09164836061441
 20
-57.702128931741463
 30
0.0
 40
0.2999999999999971
 50
90.0
 51
270.0
  0
ARC
  5
1A0F3
  8
SU
  6
CONTINUOUS
 62
     3
 10
-148.09164836061441
 20
-57.702128931741463
 30
0.0
 40
0.2999999999999971
 50
270.0
 51
90.0
  0
ARC
  5
1A0F4
  8
SU
  6
CONTINUOUS
 62
     3
 10
-148.09164836061441
 20
-72.702131759625161
 30
0.0
 40
0.2999999999999971
 50
90.0
 51
270.0
  0
ARC
  5
1A0F5
  8
SU
  6
CONTINUOUS
 62
     3
 10
-148.09164836061441
 20
-72.702131759625161
 30
0.0
 40
0.2999999999999971
 50
270.0
 51
90.0
  0
ARC
  5
1A0F6
  8
SU
  6
CONTINUOUS
 62
     3
 10
-148.09164836061441
 20
-52.702128931741463
 30
0.0
 40
0.2999999999999971
 50
90.0
 51
270.0
  0
ARC
  5
1A0F7
  8
SU
  6
CONTINUOUS
 62
     3
 10
-148.09164836061441
 20
-52.702128931741463
 30
0.0
 40
0.2999999999999971
 50
270.0
 51
90.0
  0
ARC
  5
1A0F8
  8
SU
  6
CONTINUOUS
 62
     3
 10
-370.09164836061427
 20
-72.702131759625161
 30
0.0
 40
0.2999999999999971
 50
90.0
 51
270.0
  0
ARC
  5
1A0F9
  8
SU
  6
CONTINUOUS
 62
     3
 10
-370.09164836061427
 20
-72.702131759625161
 30
0.0
 40
0.2999999999999971
 50
270.0
 51
90.0
  0
ARC
  5
1A0FA
  8
SU
  6
CONTINUOUS
 62
     3
 10
-370.09164836061427
 20
-37.702128931741441
 30
0.0
 40
0.2999999999999971
 50
270.0
 51
90.0
  0
ARC
  5
1A0FB
  8
SU
  6
CONTINUOUS
 62
     3
 10
-370.09164836061427
 20
-37.702128931741441
 30
0.0
 40
0.2999999999999971
 50
90.0
 51
270.0
  0
ARC
  5
1A0FC
  8
SU
  6
CONTINUOUS
 62
     3
 10
-186.09164836061569
 20
77.294024910788323
 30
0.0
 40
0.3000000000000114
 50
180.0
 51
0.0
  0
ARC
  5
1A0FD
  8
SU
  6
CONTINUOUS
 62
     3
 10
-186.09164836061569
 20
77.294024910788323
 30
0.0
 40
0.3000000000000114
 50
0.0
 51
180.0
  0
ARC
  5
1A0FE
  8
SU
  6
CONTINUOUS
 62
     3
 10
-332.09164836061558
 20
77.294024910788323
 30
0.0
 40
0.3000000000000114
 50
0.0
 51
180.0
  0
ARC
  5
1A0FF
  8
SU
  6
CONTINUOUS
 62
     3
 10
-332.09164836061558
 20
77.294024910788323
 30
0.0
 40
0.3000000000000114
 50
180.0
 51
0.0
  0
ARC
  5
1A100
  8
SU
  6
CONTINUOUS
 62
     3
 10
-190.59164836061569
 20
92.294024910788636
 30
0.0
 40
0.3000000000000114
 50
0.0
 51
180.0
  0
ARC
  5
1A101
  8
SU
  6
CONTINUOUS
 62
     3
 10
-190.59164836061569
 20
92.294024910788636
 30
0.0
 40
0.3000000000000114
 50
180.0
 51
0.0
  0
ARC
  5
1A102
  8
SU
  6
CONTINUOUS
 62
     3
 10
-186.09164836061569
 20
92.294024910788636
 30
0.0
 40
0.3000000000000114
 50
180.0
 51
0.0
  0
ARC
  5
1A103
  8
SU
  6
CONTINUOUS
 62
     3
 10
-186.09164836061569
 20
92.294024910788636
 30
0.0
 40
0.3000000000000114
 50
0.0
 51
180.0
  0
ARC
  5
1A104
  8
SU
  6
CONTINUOUS
 62
     3
 10
-183.09164836061541
 20
77.294024910788551
 30
0.0
 40
0.3000000000000114
 50
180.0
 51
0.0
  0
ARC
  5
1A105
  8
SU
  6
CONTINUOUS
 62
     3
 10
-183.09164836061541
 20
77.294024910788551
 30
0.0
 40
0.3000000000000114
 50
0.0
 51
180.0
  0
ARC
  5
1A106
  8
SU
  6
CONTINUOUS
 62
     3
 10
-190.5916483645652
 20
92.294024910788636
 30
0.0
 40
0.3000000000000114
 50
180.0
 51
0.0
  0
ARC
  5
1A107
  8
SU
  6
CONTINUOUS
 62
     3
 10
-190.5916483645652
 20
92.294024910788636
 30
0.0
 40
0.3000000000000114
 50
0.0
 51
180.0
  0
ARC
  5
1A108
  8
SU
  6
CONTINUOUS
 62
     3
 10
-240.59165007307831
 20
92.294024910788636
 30
0.0
 40
0.3000000000000114
 50
0.0
 51
180.0
  0
ARC
  5
1A109
  8
SU
  6
CONTINUOUS
 62
     3
 10
-240.59165007307831
 20
92.294024910788636
 30
0.0
 40
0.3000000000000114
 50
180.0
 51
0.0
  0
ARC
  5
1A10A
  8
SU
  6
CONTINUOUS
 62
     3
 10
-240.59165007307831
 20
92.294024910788806
 30
0.0
 40
0.3000000000000114
 50
180.0
 51
0.0
  0
ARC
  5
1A10B
  8
SU
  6
CONTINUOUS
 62
     3
 10
-240.59165007307831
 20
92.294024910788806
 30
0.0
 40
0.3000000000000114
 50
0.0
 51
180.0
  0
ARC
  5
1A10C
  8
SU
  6
CONTINUOUS
 62
     3
 10
-251.5916500733295
 20
92.294024910788806
 30
0.0
 40
0.3000000000000114
 50
0.0
 51
180.0
  0
ARC
  5
1A10D
  8
SU
  6
CONTINUOUS
 62
     3
 10
-251.5916500733295
 20
92.294024910788806
 30
0.0
 40
0.3000000000000114
 50
180.0
 51
0.0
  0
ARC
  5
1A10E
  8
SU
  6
CONTINUOUS
 62
     3
 10
-251.5916500733295
 20
92.294024910788877
 30
0.0
 40
0.3000000000000114
 50
180.0
 51
0.0
  0
ARC
  5
1A10F
  8
SU
  6
CONTINUOUS
 62
     3
 10
-251.5916500733295
 20
92.294024910788877
 30
0.0
 40
0.3000000000000114
 50
0.0
 51
180.0
  0
ARC
  5
1A110
  8
SU
  6
CONTINUOUS
 62
     3
 10
-275.59164759893122
 20
92.294024910788877
 30
0.0
 40
0.3000000000000114
 50
0.0
 51
180.0
  0
ARC
  5
1A111
  8
SU
  6
CONTINUOUS
 62
     3
 10
-275.59164759893122
 20
92.294024910788877
 30
0.0
 40
0.3000000000000114
 50
180.0
 51
0.0
  0
ARC
  5
1A112
  8
SU
  6
CONTINUOUS
 62
     3
 10
-275.5916475986802
 20
92.294024910788863
 30
0.0
 40
0.3000000000000114
 50
180.0
 51
0.0
  0
ARC
  5
1A113
  8
SU
  6
CONTINUOUS
 62
     3
 10
-275.5916475986802
 20
92.294024910788863
 30
0.0
 40
0.3000000000000114
 50
0.0
 51
180.0
  0
ARC
  5
1A114
  8
SU
  6
CONTINUOUS
 62
     3
 10
-332.09164836061558
 20
92.294024910788863
 30
0.0
 40
0.3000000000000114
 50
0.0
 51
180.0
  0
ARC
  5
1A115
  8
SU
  6
CONTINUOUS
 62
     3
 10
-332.09164836061558
 20
92.294024910788863
 30
0.0
 40
0.3000000000000114
 50
180.0
 51
0.0
  0
ARC
  5
1A116
  8
SU
  6
CONTINUOUS
 62
     3
 10
-355.09164836061422
 20
133.7940249107869
 30
0.0
 40
0.3000000000000114
 50
270.0
 51
90.0
  0
ARC
  5
1A117
  8
SU
  6
CONTINUOUS
 62
     3
 10
-355.09164836061422
 20
133.7940249107869
 30
0.0
 40
0.3000000000000114
 50
90.0
 51
270.0
  0
ARC
  5
1A118
  8
SU
  6
CONTINUOUS
 62
     3
 10
-355.09164836061422
 20
113.7939923901247
 30
0.0
 40
0.2999999999999971
 50
90.0
 51
270.0
  0
ARC
  5
1A119
  8
SU
  6
CONTINUOUS
 62
     3
 10
-355.09164836061422
 20
113.7939923901247
 30
0.0
 40
0.2999999999999971
 50
270.0
 51
90.0
  0
ARC
  5
1A11A
  8
SU
  6
CONTINUOUS
 62
     3
 10
-335.09164836061359
 20
77.294024910788323
 30
0.0
 40
0.3000000000000114
 50
0.0
 51
180.0
  0
ARC
  5
1A11B
  8
SU
  6
CONTINUOUS
 62
     3
 10
-335.09164836061359
 20
77.294024910788323
 30
0.0
 40
0.3000000000000114
 50
180.0
 51
0.0
  0
ARC
  5
1A11C
  8
SU
  6
CONTINUOUS
 62
     3
 10
-186.0916484832459
 20
-92.702131759632749
 30
0.0
 40
0.3000000000000114
 50
180.0
 51
0.0
  0
ARC
  5
1A11D
  8
SU
  6
CONTINUOUS
 62
     3
 10
-186.0916484832459
 20
-92.702131759632749
 30
0.0
 40
0.3000000000000114
 50
0.0
 51
180.0
  0
ARC
  5
1A11E
  8
SU
  6
CONTINUOUS
 62
     3
 10
-183.09164836974301
 20
-92.702131759632749
 30
0.0
 40
0.3000000000000114
 50
0.0
 51
180.0
  0
ARC
  5
1A11F
  8
SU
  6
CONTINUOUS
 62
     3
 10
-183.09164836974301
 20
-92.702131759632749
 30
0.0
 40
0.3000000000000114
 50
180.0
 51
0.0
  0
ARC
  5
1A120
  8
SU
  6
CONTINUOUS
 62
     3
 10
-293.0916484741187
 20
-92.702131759633005
 30
0.0
 40
0.3000000000000114
 50
0.0
 51
180.0
  0
ARC
  5
1A121
  8
SU
  6
CONTINUOUS
 62
     3
 10
-293.0916484741187
 20
-92.702131759633005
 30
0.0
 40
0.3000000000000114
 50
180.0
 51
0.0
  0
ARC
  5
1A122
  8
SU
  6
CONTINUOUS
 62
     3
 10
-186.0916484832459
 20
-92.702131759633005
 30
0.0
 40
0.3000000000000114
 50
180.0
 51
0.0
  0
ARC
  5
1A123
  8
SU
  6
CONTINUOUS
 62
     3
 10
-186.0916484832459
 20
-92.702131759633005
 30
0.0
 40
0.3000000000000114
 50
0.0
 51
180.0
  0
ARC
  5
1A124
  8
SU
  6
CONTINUOUS
 62
     3
 10
-355.09164836061422
 20
-57.702128931741463
 30
0.0
 40
0.2999999999999971
 50
270.0
 51
90.0
  0
ARC
  5
1A125
  8
SU
  6
CONTINUOUS
 62
     3
 10
-355.09164836061422
 20
-57.702128931741463
 30
0.0
 40
0.2999999999999971
 50
90.0
 51
270.0
  0
ARC
  5
1A126
  8
SU
  6
CONTINUOUS
 62
     3
 10
-355.09164836061422
 20
-72.702131759625161
 30
0.0
 40
0.2999999999999971
 50
90.0
 51
270.0
  0
ARC
  5
1A127
  8
SU
  6
CONTINUOUS
 62
     3
 10
-355.09164836061422
 20
-72.702131759625161
 30
0.0
 40
0.2999999999999971
 50
270.0
 51
90.0
  0
ARC
  5
1A128
  8
SU
  6
CONTINUOUS
 62
     3
 10
-355.09164836061422
 20
-57.702128931741463
 30
0.0
 40
0.2999999999999971
 50
90.0
 51
270.0
  0
ARC
  5
1A129
  8
SU
  6
CONTINUOUS
 62
     3
 10
-355.09164836061422
 20
-57.702128931741463
 30
0.0
 40
0.2999999999999971
 50
270.0
 51
90.0
  0
ARC
  5
1A12A
  8
SU
  6
CONTINUOUS
 62
     3
 10
-355.09164836061422
 20
-37.702128931741449
 30
0.0
 40
0.2999999999999971
 50
270.0
 51
90.0
  0
ARC
  5
1A12B
  8
SU
  6
CONTINUOUS
 62
     3
 10
-355.09164836061422
 20
-37.702128931741449
 30
0.0
 40
0.2999999999999971
 50
90.0
 51
270.0
  0
ARC
  5
1A12C
  8
SU
  6
CONTINUOUS
 62
     3
 10
-293.0916484741187
 20
-92.702131759633147
 30
0.0
 40
0.3000000000000114
 50
180.0
 51
0.0
  0
ARC
  5
1A12D
  8
SU
  6
CONTINUOUS
 62
     3
 10
-293.0916484741187
 20
-92.702131759633147
 30
0.0
 40
0.3000000000000114
 50
0.0
 51
180.0
  0
ARC
  5
1A12E
  8
SU
  6
CONTINUOUS
 62
     3
 10
-335.09164836061649
 20
-92.702131759633147
 30
0.0
 40
0.3000000000000114
 50
0.0
 51
180.0
  0
ARC
  5
1A12F
  8
SU
  6
CONTINUOUS
 62
     3
 10
-335.09164836061649
 20
-92.702131759633147
 30
0.0
 40
0.3000000000000114
 50
180.0
 51
0.0
  0
ARC
  5
1A130
  8
SU
  6
CONTINUOUS
 62
     3
 10
263.62421578619012
 20
97.726723943544144
 30
0.0
 40
0.3000000000000114
 50
0.0
 51
180.0
  0
ARC
  5
1A131
  8
SU
  6
CONTINUOUS
 62
     3
 10
263.62421578619012
 20
97.726723943544144
 30
0.0
 40
0.3000000000000114
 50
180.0
 51
0.0
  0
ARC
  5
1A132
  8
SU
  6
CONTINUOUS
 62
     3
 10
287.62421578618989
 20
97.726723943544144
 30
0.0
 40
0.3000000000000114
 50
180.0
 51
0.0
  0
ARC
  5
1A133
  8
SU
  6
CONTINUOUS
 62
     3
 10
287.62421578618989
 20
97.726723943544144
 30
0.0
 40
0.3000000000000114
 50
0.0
 51
180.0
  0
ARC
  5
1A134
  8
SU
  6
CONTINUOUS
 62
     3
 10
61.624215786190391
 20
97.726723943544144
 30
0.0
 40
0.2999999999999971
 50
180.0
 51
0.0
  0
ARC
  5
1A135
  8
SU
  6
CONTINUOUS
 62
     3
 10
61.624215786190391
 20
97.726723943544144
 30
0.0
 40
0.2999999999999971
 50
0.0
 51
180.0
  0
ARC
  5
1A136
  8
SU
  6
CONTINUOUS
 62
     3
 10
37.624215786190291
 20
97.726723943544144
 30
0.0
 40
0.2999999999999971
 50
0.0
 51
180.0
  0
ARC
  5
1A137
  8
SU
  6
CONTINUOUS
 62
     3
 10
37.624215786190291
 20
97.726723943544144
 30
0.0
 40
0.2999999999999971
 50
180.0
 51
0.0
  0
ARC
  5
1A138
  8
SU
  6
CONTINUOUS
 62
     3
 10
-33.375786662338712
 20
-50.773276056455281
 30
0.0
 40
0.2999999999999971
 50
90.0
 51
270.0
  0
ARC
  5
1A139
  8
SU
  6
CONTINUOUS
 62
     3
 10
-33.375786662338712
 20
-50.773276056455281
 30
0.0
 40
0.2999999999999971
 50
270.0
 51
90.0
  0
ARC
  5
1A13A
  8
SU
  6
CONTINUOUS
 62
     3
 10
-33.375786662338697
 20
54.226723943544712
 30
0.0
 40
0.2999999999999971
 50
270.0
 51
90.0
  0
ARC
  5
1A13B
  8
SU
  6
CONTINUOUS
 62
     3
 10
-33.375786662338697
 20
54.226723943544712
 30
0.0
 40
0.2999999999999971
 50
90.0
 51
270.0
  0
ARC
  5
1A13C
  8
SU
  6
CONTINUOUS
 62
     3
 10
-33.37578666233869
 20
66.726723943544698
 30
0.0
 40
0.2999999999999971
 50
270.0
 51
90.0
  0
ARC
  5
1A13D
  8
SU
  6
CONTINUOUS
 62
     3
 10
-33.37578666233869
 20
66.726723943544698
 30
0.0
 40
0.2999999999999971
 50
90.0
 51
270.0
  0
ARC
  5
1A13E
  8
SU
  6
CONTINUOUS
 62
     3
 10
-48.375786662338697
 20
66.726723943544712
 30
0.0
 40
0.2999999999999971
 50
90.0
 51
270.0
  0
ARC
  5
1A13F
  8
SU
  6
CONTINUOUS
 62
     3
 10
-48.375786662338697
 20
66.726723943544712
 30
0.0
 40
0.2999999999999971
 50
270.0
 51
90.0
  0
ARC
  5
1A140
  8
SU
  6
CONTINUOUS
 62
     3
 10
-48.375786662338697
 20
77.726723943544371
 30
0.0
 40
0.2999999999999971
 50
270.0
 51
90.0
  0
ARC
  5
1A141
  8
SU
  6
CONTINUOUS
 62
     3
 10
-48.375786662338697
 20
77.726723943544371
 30
0.0
 40
0.2999999999999971
 50
90.0
 51
270.0
  0
ARC
  5
1A142
  8
SU
  6
CONTINUOUS
 62
     3
 10
-48.375786662338712
 20
-63.273276056455281
 30
0.0
 40
0.2999999999999971
 50
270.0
 51
90.0
  0
ARC
  5
1A143
  8
SU
  6
CONTINUOUS
 62
     3
 10
-48.375786662338712
 20
-63.273276056455281
 30
0.0
 40
0.2999999999999971
 50
90.0
 51
270.0
  0
ARC
  5
1A144
  8
SU
  6
CONTINUOUS
 62
     3
 10
-48.375786662338712
 20
-74.273276056455742
 30
0.0
 40
0.2999999999999971
 50
90.0
 51
270.0
  0
ARC
  5
1A145
  8
SU
  6
CONTINUOUS
 62
     3
 10
-48.375786662338712
 20
-74.273276056455742
 30
0.0
 40
0.2999999999999971
 50
270.0
 51
90.0
  0
ARC
  5
1A146
  8
SU
  6
CONTINUOUS
 62
     3
 10
-33.375786662338719
 20
-63.273276056455281
 30
0.0
 40
0.2999999999999971
 50
90.0
 51
270.0
  0
ARC
  5
1A147
  8
SU
  6
CONTINUOUS
 62
     3
 10
-33.375786662338719
 20
-63.273276056455281
 30
0.0
 40
0.2999999999999971
 50
270.0
 51
90.0
  0
ARC
  5
1A148
  8
SU
  6
CONTINUOUS
 62
     3
 10
-194.09164836061569
 20
218.7940249107948
 30
0.0
 40
0.3000000000000114
 50
180.0
 51
0.0
  0
ARC
  5
1A149
  8
SU
  6
CONTINUOUS
 62
     3
 10
-194.09164836061569
 20
218.7940249107948
 30
0.0
 40
0.3000000000000114
 50
0.0
 51
180.0
  0
ARC
  5
1A14A
  8
SU
  6
CONTINUOUS
 62
     3
 10
-194.09164836061569
 20
233.7940249107948
 30
0.0
 40
0.3000000000000114
 50
0.0
 51
180.0
  0
ARC
  5
1A14B
  8
SU
  6
CONTINUOUS
 62
     3
 10
-194.09164836061569
 20
233.7940249107948
 30
0.0
 40
0.3000000000000114
 50
180.0
 51
0.0
  0
ARC
  5
1A14C
  8
SU
  6
CONTINUOUS
 62
     3
 10
-183.09164836061541
 20
233.7940249107948
 30
0.0
 40
0.3000000000000114
 50
180.0
 51
0.0
  0
ARC
  5
1A14D
  8
SU
  6
CONTINUOUS
 62
     3
 10
-183.09164836061541
 20
233.7940249107948
 30
0.0
 40
0.3000000000000114
 50
0.0
 51
180.0
  0
ARC
  5
1A14E
  8
SU
  6
CONTINUOUS
 62
     3
 10
-324.09164836061558
 20
218.7940249107948
 30
0.0
 40
0.3000000000000114
 50
0.0
 51
180.0
  0
ARC
  5
1A14F
  8
SU
  6
CONTINUOUS
 62
     3
 10
-324.09164836061558
 20
218.7940249107948
 30
0.0
 40
0.3000000000000114
 50
180.0
 51
0.0
  0
ARC
  5
1A150
  8
SU
  6
CONTINUOUS
 62
     3
 10
-311.59164836061558
 20
218.7940249107948
 30
0.0
 40
0.3000000000000114
 50
0.0
 51
180.0
  0
ARC
  5
1A151
  8
SU
  6
CONTINUOUS
 62
     3
 10
-311.59164836061558
 20
218.7940249107948
 30
0.0
 40
0.3000000000000114
 50
180.0
 51
0.0
  0
ARC
  5
1A152
  8
SU
  6
CONTINUOUS
 62
     3
 10
-206.59164836061541
 20
218.7940249107948
 30
0.0
 40
0.3000000000000114
 50
180.0
 51
0.0
  0
ARC
  5
1A153
  8
SU
  6
CONTINUOUS
 62
     3
 10
-206.59164836061541
 20
218.7940249107948
 30
0.0
 40
0.3000000000000114
 50
0.0
 51
180.0
  0
ARC
  5
1A154
  8
SU
  6
CONTINUOUS
 62
     3
 10
-324.09164836061558
 20
233.7940249107948
 30
0.0
 40
0.3000000000000114
 50
180.0
 51
0.0
  0
ARC
  5
1A155
  8
SU
  6
CONTINUOUS
 62
     3
 10
-324.09164836061558
 20
233.7940249107948
 30
0.0
 40
0.3000000000000114
 50
0.0
 51
180.0
  0
ARC
  5
1A156
  8
SU
  6
CONTINUOUS
 62
     3
 10
-335.09164836061569
 20
233.7940249107948
 30
0.0
 40
0.3000000000000114
 50
0.0
 51
180.0
  0
ARC
  5
1A157
  8
SU
  6
CONTINUOUS
 62
     3
 10
-335.09164836061569
 20
233.7940249107948
 30
0.0
 40
0.3000000000000114
 50
180.0
 51
0.0
  0
ARC
  5
1A158
  8
SU
  6
CONTINUOUS
 62
     3
 10
-355.09164836061558
 20
157.79402491078719
 30
0.0
 40
0.3000000000000114
 50
270.0
 51
90.0
  0
ARC
  5
1A159
  8
SU
  6
CONTINUOUS
 62
     3
 10
-355.09164836061558
 20
157.79402491078719
 30
0.0
 40
0.3000000000000114
 50
90.0
 51
270.0
  0
ENDSEC
  0
EOF
