  0
SECTION
  2
HEADER
  9
$ACADVER
  1
AC1009
  9
$INSBASE
 10
0.0
 20
0.0
 30
0.0
  9
$EXTMIN
 10
-377.0955333331317
 20
-269.33518848444231
 30
-0.0000000000112498
  9
$EXTMAX
 10
333.16851988500952
 20
250.48101934869891
 30
0.0000000000002956
  9
$LIMMIN
 10
-410.0
 20
-286.0
  9
$LIMMAX
 10
408.99999999999989
 20
279.0
  9
$ORTHOMODE
 70
     1
  9
$REGENMODE
 70
     1
  9
$FILLMODE
 70
     1
  9
$QTEXTMODE
 70
     0
  9
$MIRRTEXT
 70
     0
  9
$DRAGMODE
 70
     2
  9
$LTSCALE
 40
1.0
  9
$OSMODE
 70
     0
  9
$ATTMODE
 70
     1
  9
$TEXTSIZE
 40
2.5
  9
$TRACEWID
 40
1.0
  9
$TEXTSTYLE
  7
STANDARD
  9
$CLAYER
  8
0
  9
$CELTYPE
  6
BYLAYER
  9
$CECOLOR
 62
   256
  9
$DIMSCALE
 40
1.0
  9
$DIMASZ
 40
1.5
  9
$DIMEXO
 40
3.0
  9
$DIMDLI
 40
7.0
  9
$DIMRND
 40
0.0
  9
$DIMDLE
 40
0.0
  9
$DIMEXE
 40
1.0
  9
$DIMTP
 40
0.1
  9
$DIMTM
 40
0.1
  9
$DIMTXT
 40
10.0
  9
$DIMCEN
 40
0.0
  9
$DIMTSZ
 40
0.0
  9
$DIMTOL
 70
     0
  9
$DIMLIM
 70
     0
  9
$DIMTIH
 70
     0
  9
$DIMTOH
 70
     0
  9
$DIMSE1
 70
     0
  9
$DIMSE2
 70
     0
  9
$DIMTAD
 70
     1
  9
$DIMZIN
 70
     0
  9
$DIMBLK
  1
DOTSMALL
  9
$DIMASO
 70
     1
  9
$DIMSHO
 70
     1
  9
$DIMPOST
  1

  9
$DIMAPOST
  1
"
  9
$DIMALT
 70
     0
  9
$DIMALTD
 70
     2
  9
$DIMALTF
 40
0.0393701
  9
$DIMLFAC
 40
1.0
  9
$DIMTOFL
 70
     1
  9
$DIMTVP
 40
0.0
  9
$DIMTIX
 70
     0
  9
$DIMSOXD
 70
     0
  9
$DIMSAH
 70
     0
  9
$DIMBLK1
  1

  9
$DIMBLK2
  1

  9
$DIMSTYLE
  2
SANKYO
  9
$DIMCLRD
 70
   256
  9
$DIMCLRE
 70
   256
  9
$DIMCLRT
 70
   256
  9
$DIMTFAC
 40
0.71
  9
$DIMGAP
 40
0.5
  9
$LUNITS
 70
     2
  9
$LUPREC
 70
     4
  9
$SKETCHINC
 40
1.0
  9
$FILLETRAD
 40
0.5
  9
$AUNITS
 70
     0
  9
$AUPREC
 70
     0
  9
$MENU
  1
.
  9
$ELEVATION
 40
0.0
  9
$PELEVATION
 40
0.0
  9
$THICKNESS
 40
0.0
  9
$LIMCHECK
 70
     0
  9
$BLIPMODE
 70
     0
  9
$CHAMFERA
 40
10.0
  9
$CHAMFERB
 40
10.0
  9
$SKPOLY
 70
     0
  9
$TDCREATE
 40
2452388.6082117362
  9
$TDUPDATE
 40
2456027.6127510178
  9
$TDINDWG
 40
1.8463593403
  9
$TDUSRTIMER
 40
1.8463592245
  9
$USRTIMER
 70
     1
  9
$ANGBASE
 50
0.0
  9
$ANGDIR
 70
     0
  9
$PDMODE
 70
     0
  9
$PDSIZE
 40
0.0
  9
$PLINEWID
 40
0.0
  9
$COORDS
 70
     1
  9
$SPLFRAME
 70
     0
  9
$SPLINETYPE
 70
     6
  9
$SPLINESEGS
 70
     8
  9
$ATTDIA
 70
     0
  9
$ATTREQ
 70
     1
  9
$HANDLING
 70
-16383
  9
$HANDSEED
  5
1C6E7
  9
$SURFTAB1
 70
     6
  9
$SURFTAB2
 70
     6
  9
$SURFTYPE
 70
     6
  9
$SURFU
 70
     6
  9
$SURFV
 70
     6
  9
$UCSNAME
  2

  9
$UCSORG
 10
0.0
 20
0.0
 30
0.0
  9
$UCSXDIR
 10
1.0
 20
0.0
 30
0.0
  9
$UCSYDIR
 10
0.0
 20
1.0
 30
0.0
  9
$PUCSNAME
  2

  9
$PUCSORG
 10
0.0
 20
0.0
 30
0.0
  9
$PUCSXDIR
 10
1.0
 20
0.0
 30
0.0
  9
$PUCSYDIR
 10
0.0
 20
1.0
 30
0.0
  9
$USERI1
 70
     0
  9
$USERI2
 70
     1
  9
$USERI3
 70
     0
  9
$USERI4
 70
     0
  9
$USERI5
 70
     0
  9
$USERR1
 40
0.0
  9
$USERR2
 40
0.0
  9
$USERR3
 40
0.0
  9
$USERR4
 40
0.0
  9
$USERR5
 40
0.0
  9
$WORLDVIEW
 70
     1
  9
$SHADEDGE
 70
     3
  9
$SHADEDIF
 70
    70
  9
$TILEMODE
 70
     1
  9
$MAXACTVP
 70
    48
  9
$PLIMCHECK
 70
     0
  9
$PEXTMIN
 10
1.0000000000000000E+020
 20
1.0000000000000000E+020
 30
1.0000000000000000E+020
  9
$PEXTMAX
 10
-1.0000000000000000E+020
 20
-1.0000000000000000E+020
 30
-1.0000000000000000E+020
  9
$PLIMMIN
 10
0.0
 20
0.0
  9
$PLIMMAX
 10
420.0
 20
297.0
  9
$UNITMODE
 70
     0
  9
$VISRETAIN
 70
     1
  9
$PLINEGEN
 70
     0
  9
$PSLTSCALE
 70
     1
  0
ENDSEC
  0
SECTION
  2
TABLES
  0
TABLE
  2
VPORT
 70
     2
  0
VPORT
  2
*ACTIVE
 70
     0
 10
0.0
 20
0.0
 11
1.0
 21
1.0
 12
-21.96350672406107
 22
-9.4270845678717023
 13
0.0
 23
0.0
 14
2.5
 24
2.5
 15
10.0
 25
10.0
 16
0.0
 26
0.0
 36
1.0
 17
0.0
 27
0.0
 37
0.0
 40
524.06538664376637
 41
1.3969986357435189
 42
50.0
 43
0.0
 44
0.0
 50
0.0
 51
0.0
 71
    16
 72
   100
 73
     1
 74
     0
 75
     0
 76
     0
 77
     0
 78
     0
  0
ENDTAB
  0
TABLE
  2
LTYPE
 70
    17
  0
LTYPE
  2
CONTINUOUS
 70
     0
  3
Solid line
 72
    65
 73
     0
 40
0.0
  0
LTYPE
  2
CENTER2
 70
     0
  3
Center (.5x) ___ _ ___ _ ___ _ ___ _ ___ _ ___
 72
    65
 73
     4
 40
28.574999999999989
 49
19.050000000000001
 49
-3.174999999999998
 49
3.174999999999998
 49
-3.174999999999998
  0
LTYPE
  2
DASHED2
 70
     0
  3
Dashed (.5x) _ _ _ _ _ _ _ _ _ _ _ _ _ _ _ _ _
 72
    65
 73
     2
 40
9.5249999999999986
 49
6.349999999999997
 49
-3.174999999999998
  0
ENDTAB
  0
TABLE
  2
LAYER
 70
     4
  0
LAYER
  2
0
 70
     0
 62
     7
  6
CONTINUOUS
  0
LAYER
  2
SU
 70
     0
 62
     7
  6
CONTINUOUS
  0
LAYER
  2
KI
 70
     0
 62
     7
  6
CONTINUOUS
  0
LAYER
  2
OS
 70
     0
 62
     7
  6
CONTINUOUS
  0
ENDTAB
  0
TABLE
  2
STYLE
 70
     4
  0
STYLE
  2
STANDARD
 70
     0
 40
0.0
 41
0.8299999999999999
 50
0.0
 71
     0
 42
2.5
  3
txt.shx
  4
extfont.shx
  0
ENDTAB
  0
TABLE
  2
VIEW
 70
     6
  0
VIEW
  2
AM_VIEW1
 70
     0
 40
148.9999998536185
 10
126.61001776470241
 20
223.4999997804278
 41
253.2200355294051
 11
0.0
 21
0.0
 31
1.0
 12
0.0
 22
0.0
 32
0.0
 42
50.0
 43
0.0
 44
0.0
 50
0.0
 71
    16
  0
VIEW
  2
AM_VIEW2
 70
     0
 40
148.9999998536185
 10
294.38998139545481
 20
223.4999997804278
 41
253.2200355294051
 11
0.0
 21
0.0
 31
1.0
 12
0.0
 22
0.0
 32
0.0
 42
50.0
 43
0.0
 44
0.0
 50
0.0
 71
    16
  0
VIEW
  2
AM_VIEW3
 70
     0
 40
148.9999998536185
 10
126.61001776470241
 20
74.499999926809267
 41
253.2200355294051
 11
0.0
 21
0.0
 31
1.0
 12
0.0
 22
0.0
 32
0.0
 42
50.0
 43
0.0
 44
0.0
 50
0.0
 71
    16
  0
VIEW
  2
AM_VIEW4
 70
     0
 40
148.9999998536185
 10
294.38998139545481
 20
74.499999926809267
 41
253.2200355294051
 11
0.0
 21
0.0
 31
1.0
 12
0.0
 22
0.0
 32
0.0
 42
50.0
 43
0.0
 44
0.0
 50
0.0
 71
    16
  0
VIEW
  2
AM_VIEW5
 70
     0
 40
148.9999998536185
 10
210.49999958007871
 20
148.9999998536185
 41
253.2200355294051
 11
0.0
 21
0.0
 31
1.0
 12
0.0
 22
0.0
 32
0.0
 42
50.0
 43
0.0
 44
0.0
 50
0.0
 71
    16
  0
VIEW
  2
AM_VIEW6
 70
     0
 40
297.99701970723982
 10
210.49999958007871
 20
148.9999998536185
 41
506.43500665810018
 11
0.0
 21
0.0
 31
1.0
 12
0.0
 22
0.0
 32
0.0
 42
50.0
 43
0.0
 44
0.0
 50
0.0
 71
    16
  0
ENDTAB
  0
TABLE
  2
UCS
 70
     0
  0
ENDTAB
  0
TABLE
  2
APPID
 70
    22
  0
APPID
  2
ACAD
 70
     0
  0
APPID
  2
MCAD_NO_VIS
 70
     0
  0
APPID
  2
ACAD_TEMP_GRAPHIC
 70
     0
  0
APPID
  2
ACATTRIBSERVICES
 70
     0
  0
APPID
  2
GENIUS_GENDIMSH_14
 70
     0
  0
APPID
  2
GENIUS_GENOLIS_13
 70
     0
  0
APPID
  2
GENIUS_GENOENT_13
 70
     0
  0
APPID
  2
GENIUS_GENODEF_13
 70
     0
  0
APPID
  2
GENIUS_GENOBJ-N-TIT_13
 70
     0
  0
APPID
  2
GENIUS_GENTITLE_13
 70
     0
  0
APPID
  2
GENIUS_GENOREF_13
 70
     0
  0
APPID
  2
GENIUS_GENSCREG_15
 70
     0
  0
APPID
  2
GENIUS_GENOBJ-N-SDF_13
 70
     0
  0
APPID
  2
GENIUS_GENOBJ-N-FIL_13
 70
     0
  0
APPID
  2
GENIUS_GENREC_14
 70
     0
  0
APPID
  2
GENIUS_GENOBJ-N-REC_13
 70
     0
  0
APPID
  2
GENIUS_GENDTOL_13
 70
     0
  0
APPID
  2
GENIUS_GENOBJ-N-CEN_13
 70
     0
  0
APPID
  2
GENIUS_GENOBJ-N-HTC_13
 70
     0
  0
APPID
  2
GENIUS_GENHATCH_13
 70
     0
  0
APPID
  2
GENIUS_GENFIL_13
 70
     0
  0
APPID
  2
GENIUS_GENOBJ-N-CHA_13
 70
     0
  0
ENDTAB
  0
TABLE
  2
DIMSTYLE
 70
     7
  0
DIMSTYLE
  2
SANKYO
 70
     0
  3

  4
"
  5

  6

  7

 40
1.0
 41
2.399999999999999
 42
3.0
 43
7.0
 44
3.0
 45
0.0
 46
0.0
 47
0.1
 48
0.1
140
4.0
141
0.0
142
0.0
143
0.0393701
144
1.0
145
0.0
146
0.71
147
1.3
 71
     0
 72
     0
 73
     0
 74
     0
 75
     0
 76
     0
 77
     1
 78
     8
170
     0
171
     2
172
     1
173
     0
174
     0
175
     0
176
   256
177
   256
178
   256
  0
ENDTAB
  0
ENDSEC
  0
SECTION
  2
BLOCKS
  0
BLOCK
  8
0
  2
$MODEL_SPACE
 70
     0
 10
0.0
 20
0.0
 30
0.0
  3
$MODEL_SPACE
  1

  0
ENDBLK
  5
1C0B9
  8
0
  0
BLOCK
 67
     1
  8
0
  2
$PAPER_SPACE
 70
     0
 10
0.0
 20
0.0
 30
0.0
  3
$PAPER_SPACE
  1

  0
ENDBLK
  5
1C0B5
 67
     1
  8
0
  0
BLOCK
  8
0
  2
_DOTSMALL
 70
     0
 10
0.0
 20
0.0
 30
0.0
  3
_DOTSMALL
  1

  0
POLYLINE
  5
1C101
  8
0
  6
BYBLOCK
 62
     0
 66
     1
 10
0.0
 20
0.0
 30
0.0
 70
     1
 40
1.0
 41
1.0
  0
VERTEX
  5
1C102
  8
0
  6
BYBLOCK
 62
     0
 10
-0.125
 20
0.0
 30
0.0
 42
1.0
  0
VERTEX
  5
1C103
  8
0
  6
BYBLOCK
 62
     0
 10
0.125
 20
0.0
 30
0.0
 42
1.0
  0
SEQEND
  5
1C104
  8
0
  6
BYBLOCK
 62
     0
  0
ENDBLK
  5
1C105
  8
0
  0
ENDSEC
  0
SECTION
  2
ENTITIES
  0
TEXT
  5
1C10A
  8
KI
  6
CONTINUOUS
 62
     7
 10
218.72700534888969
 20
-260.34023246429672
 30
0.0
 40
7.0
  1
厚壁枠（ケーシング枠・L型タイプ）
 41
0.84552428
  0
TEXT
  5
1C10B
  8
KI
  6
CONTINUOUS
 62
     7
 10
-353.71134397188422
 20
243.4766688808366
 30
0.0
 40
7.0
  1
●標準たて枠
 41
0.84552428
  0
LINE
  5
1C10C
  8
KI
  6
CONTINUOUS
 62
     7
 10
-270.2633182952278
 20
25.456687438820119
 30
0.0
 11
-270.26331829522718
 21
-47.791388068497596
 31
0.0
  0
LINE
  5
1C10D
  8
KI
  6
CONTINUOUS
 62
     7
 10
-246.26332076962589
 20
-47.791388068497596
 30
0.0
 11
-246.2633207696262
 21
25.456687438820119
 31
0.0
  0
LINE
  5
1C10E
  8
KI
  6
CONTINUOUS
 62
     7
 10
-235.2633207693743
 20
-62.791388068497611
 30
0.0
 11
-235.26332076937479
 21
25.456687438820119
 31
0.0
  0
LINE
  5
1C10F
  8
KI
  6
CONTINUOUS
 62
     7
 10
-185.26331906086119
 20
-62.791388068497611
 30
0.0
 11
-185.2633190608617
 21
25.456687438820119
 31
0.0
  0
LINE
  5
1C110
  8
KI
  6
CONTINUOUS
 62
     7
 10
-317.76332064699801
 20
25.45668743882463
 30
0.0
 11
-317.76332064699659
 21
-70.791390896382183
 31
0.0
  0
LINE
  5
1C111
  8
KI
  6
CONTINUOUS
 62
     7
 10
-177.76332064709811
 20
25.45668743882463
 30
0.0
 11
-177.76332064709649
 21
-70.791390896381287
 31
0.0
  0
LINE
  5
1C112
  8
SU
  6
CONTINUOUS
 62
     3
 10
-248.7744492387867
 20
-246.87994046408329
 30
0.0
 11
-220.01332150520159
 21
-218.11881264152811
 31
0.0
  0
LINE
  5
1C113
  8
OS
  6
CONTINUOUS
 62
     2
 10
-136.263320647098
 20
-82.791390896381259
 30
0.0
 11
-357.76332064699562
 21
-82.791390896383817
 31
0.0
  0
LINE
  5
1C114
  8
OS
  6
CONTINUOUS
 62
     2
 10
-150.7633200747909
 20
-231.618812641528
 30
0.0
 11
-347.76332064699773
 21
-231.618812641528
 31
0.0
  0
LINE
  5
1C115
  8
OS
  6
CONTINUOUS
 62
     2
 10
-150.7633200747909
 20
-228.61881264152811
 30
0.0
 11
-347.76332064699773
 21
-228.61881264152811
 31
0.0
  0
LINE
  5
1C116
  8
OS
  6
CONTINUOUS
 62
     2
 10
-150.7633200747909
 20
-225.618812641528
 30
0.0
 11
-347.76332064699773
 21
-225.618812641528
 31
0.0
  0
LINE
  5
1C117
  8
OS
  6
CONTINUOUS
 62
     2
 10
-150.7633200747909
 20
-222.618812641528
 30
0.0
 11
-347.76332064699773
 21
-222.618812641528
 31
0.0
  0
LINE
  5
1C118
  8
OS
  6
CONTINUOUS
 62
     2
 10
-150.7633200747909
 20
-234.61881264152811
 30
0.0
 11
-347.76332064699773
 21
-234.61881264152811
 31
0.0
  0
LINE
  5
1C119
  8
KI
  6
CONTINUOUS
 62
     7
 10
-268.7633198853112
 20
-123.97075028512241
 30
0.0
 11
-268.76331988531081
 21
-222.618812641528
 31
0.0
  0
LINE
  5
1C11A
  8
SU
  6
CONTINUOUS
 62
     3
 10
-303.2335403276162
 20
-246.87994046408329
 30
0.0
 11
-248.7744492387867
 21
-246.87994046408329
 31
0.0
  0
LINE
  5
1C11B
  8
SU
  6
CONTINUOUS
 62
     3
 10
-278.84978097198399
 20
-34.286376946826053
 30
0.0
 11
-267.51834764988638
 21
-47.791388324606601
 31
0.0
  0
LINE
  5
1C11C
  8
OS
  6
CONTINUOUS
 62
     2
 10
-289.26331640997199
 20
-70.791390896385622
 30
0.0
 11
-357.76332064699562
 21
-70.791390896383803
 31
0.0
  0
LINE
  5
1C11D
  8
OS
  6
CONTINUOUS
 62
     2
 10
-289.26331640997199
 20
-79.791390896385622
 30
0.0
 11
-357.76332064699562
 21
-79.791390896376811
 31
0.0
  0
LINE
  5
1C11E
  8
OS
  6
CONTINUOUS
 62
     2
 10
-289.26331640997199
 20
-73.791390896385622
 30
0.0
 11
-357.76332064699562
 21
-73.791390896383817
 31
0.0
  0
LINE
  5
1C11F
  8
OS
  6
CONTINUOUS
 62
     2
 10
-289.26331640997199
 20
-76.791390896385622
 30
0.0
 11
-357.76332064699562
 21
-76.791390896383817
 31
0.0
  0
LINE
  5
1C120
  8
SU
  6
CONTINUOUS
 62
     3
 10
-316.4856656772173
 20
-34.286376946826053
 30
0.0
 11
-278.84978097198399
 21
-34.286376946826053
 31
0.0
  0
LINE
  5
1C121
  8
OS
  6
CONTINUOUS
 62
     2
 10
-289.26331640997199
 20
-82.791390896381259
 30
0.0
 11
-289.26331640997199
 21
-70.7913908963897
 31
0.0
  0
LINE
  5
1C122
  8
KI
  6
DASHED2
 62
     7
 10
-317.76332064699659
 20
-70.791390896381458
 30
0.0
 11
-317.76332064699659
 21
-82.791390896373287
 31
0.0
  0
LINE
  5
1C123
  8
KI
  6
CONTINUOUS
 62
     7
 10
-177.7633206470968
 20
-123.97075028512241
 30
0.0
 11
-177.7633206470968
 21
-222.618812641528
 31
0.0
  0
LINE
  5
1C124
  8
KI
  6
CONTINUOUS
 62
     7
 10
-201.26332150520159
 20
-214.618812641528
 30
0.0
 11
-201.26332150520159
 21
-184.118812641528
 31
0.0
  0
LINE
  5
1C125
  8
KI
  6
CONTINUOUS
 62
     7
 10
-216.26332150520159
 20
-214.618812641528
 30
0.0
 11
-216.26332150520159
 21
-184.118812641528
 31
0.0
  0
LINE
  5
1C126
  8
KI
  6
CONTINUOUS
 62
     7
 10
-183.7633206509451
 20
-214.618812641528
 30
0.0
 11
-183.7633206509453
 21
-123.97075028512241
 31
0.0
  0
LINE
  5
1C127
  8
KI
  6
CONTINUOUS
 62
     7
 10
-233.76332235945799
 20
-214.618812641528
 30
0.0
 11
-233.76332235945841
 21
-123.97075028512241
 31
0.0
  0
LINE
  5
1C128
  8
KI
  6
CONTINUOUS
 62
     7
 10
-244.76332235970969
 20
-222.618812641528
 30
0.0
 11
-244.76332235971
 21
-123.97075028512241
 31
0.0
  0
LINE
  5
1C129
  8
KI
  6
CONTINUOUS
 62
     7
 10
-197.51332150520159
 20
-165.86881264152811
 30
0.0
 11
-197.51332150520159
 21
-214.618812641528
 31
0.0
  0
LINE
  5
1C12A
  8
KI
  6
CONTINUOUS
 62
     7
 10
-220.01332150520159
 20
-165.86881264152811
 30
0.0
 11
-220.01332150520159
 21
-214.618812641528
 31
0.0
  0
LINE
  5
1C12B
  8
KI
  6
CONTINUOUS
 62
     7
 10
-233.76332235945799
 20
-214.618812641528
 30
0.0
 11
-216.26332150520159
 21
-214.618812641528
 31
0.0
  0
LINE
  5
1C12C
  8
KI
  6
DASHED2
 62
     7
 10
-177.7633206470968
 20
-222.618812641528
 30
0.0
 11
-177.7633206470968
 21
-234.61881264151981
 31
0.0
  0
LINE
  5
1C12D
  8
KI
  6
CONTINUOUS
 62
     7
 10
-201.26332150520159
 20
-214.618812641528
 30
0.0
 11
-183.7633206509451
 21
-214.618812641528
 31
0.0
  0
LINE
  5
1C12E
  8
KI
  6
CONTINUOUS
 62
     7
 10
-201.26332150520159
 20
-184.118812641528
 30
0.0
 11
-216.26332150520159
 21
-184.118812641528
 31
0.0
  0
ARC
  5
1C12F
  8
KI
  6
CONTINUOUS
 62
     7
 10
-208.76332150520159
 20
-165.86881264152811
 30
0.0
 40
11.25
 50
0.0
 51
180.0
  0
LINE
  5
1C130
  8
OS
  6
CONTINUOUS
 62
     2
 10
-136.263320647098
 20
-70.791390896381287
 30
0.0
 11
-179.26332064699571
 21
-70.791390896381287
 31
0.0
  0
LINE
  5
1C131
  8
OS
  6
CONTINUOUS
 62
     2
 10
-136.263320647098
 20
-79.791390896381259
 30
0.0
 11
-179.26332064699571
 21
-79.791390896381259
 31
0.0
  0
LINE
  5
1C132
  8
OS
  6
CONTINUOUS
 62
     2
 10
-136.263320647098
 20
-76.791390896381287
 30
0.0
 11
-179.26332064699571
 21
-76.791390896381287
 31
0.0
  0
LINE
  5
1C133
  8
OS
  6
CONTINUOUS
 62
     2
 10
-136.263320647098
 20
-73.791390896381287
 30
0.0
 11
-179.26332064699571
 21
-73.791390896381287
 31
0.0
  0
LINE
  5
1C134
  8
KI
  6
DASHED2
 62
     7
 10
-177.76332064709649
 20
-70.791390896381287
 30
0.0
 11
-177.76332064709649
 21
-82.791390896373088
 31
0.0
  0
LINE
  5
1C135
  8
OS
  6
CONTINUOUS
 62
     2
 10
-179.26332064699571
 20
-82.791390896381259
 30
0.0
 11
-179.26332064699571
 21
-70.7913908963897
 31
0.0
  0
LINE
  5
1C136
  8
KI
  6
CONTINUOUS
 62
     7
 10
-235.2633207693743
 20
-62.791388068497611
 30
0.0
 11
-185.26331906086119
 21
-62.791388068497611
 31
0.0
  0
LINE
  5
1C137
  8
KI
  6
CONTINUOUS
 62
     7
 10
-270.26331829522718
 20
103.7047332533683
 30
0.0
 11
-270.26331829522752
 21
27.456687438823309
 31
0.0
  0
LINE
  5
1C138
  8
KI
  6
CONTINUOUS
 62
     7
 10
-317.76332064699659
 20
27.4566874388161
 30
0.0
 11
-317.76332064699551
 21
123.70476577403061
 31
0.0
  0
LINE
  5
1C139
  8
KI
  6
CONTINUOUS
 62
     7
 10
-246.2633207696262
 20
27.456687438823309
 30
0.0
 11
-246.26332076962589
 21
103.7047332533683
 31
0.0
  0
LINE
  5
1C13A
  8
KI
  6
CONTINUOUS
 62
     7
 10
-235.2633207693743
 20
120.7047332533685
 30
0.0
 11
-235.26332076937479
 21
27.456687438823309
 31
0.0
  0
LINE
  5
1C13B
  8
KI
  6
CONTINUOUS
 62
     7
 10
-185.26331906086119
 20
120.7047332533685
 30
0.0
 11
-185.2633190608617
 21
27.456687438823309
 31
0.0
  0
LINE
  5
1C13C
  8
KI
  6
CONTINUOUS
 62
     7
 10
-177.7633206470968
 20
123.704765774031
 30
0.0
 11
-177.76332064709811
 21
27.4566874388161
 31
0.0
  0
LINE
  5
1C13D
  8
KI
  6
CONTINUOUS
 62
     7
 10
-185.26331906086119
 20
120.7047332533685
 30
0.0
 11
-235.2633207693743
 21
120.7047332533685
 31
0.0
  0
LINE
  5
1C13E
  8
KI
  6
CONTINUOUS
 62
     7
 10
-317.76332064699801
 20
-123.97075028512241
 30
0.0
 11
-317.76332064699659
 21
-222.6188126415268
 31
0.0
  0
LINE
  5
1C13F
  8
KI
  6
DASHED2
 62
     7
 10
-317.76332064699659
 20
-222.6188126415264
 30
0.0
 11
-317.76332064699659
 21
-234.6188126415181
 31
0.0
  0
LINE
  5
1C140
  8
KI
  6
CONTINUOUS
 62
     7
 10
236.71621988705471
 20
-100.2968680277299
 30
0.0
 11
234.6880960699778
 21
-100.2968680277299
 31
0.0
  0
LINE
  5
1C141
  8
KI
  6
CONTINUOUS
 62
     7
 10
235.0162198870548
 20
-44.296866315266477
 30
0.0
 11
139.016219887055
 21
-44.296866315266477
 31
0.0
  0
LINE
  5
1C142
  8
KI
  6
CONTINUOUS
 62
     7
 10
235.0162198870548
 20
-94.296868023779581
 30
0.0
 11
139.016219887055
 21
-94.296868023779581
 31
0.0
  0
LINE
  5
1C143
  8
KI
  6
CONTINUOUS
 62
     7
 10
37.016219887055129
 20
-100.2968680277299
 30
0.0
 11
137.016219887055
 21
-100.2968680277299
 31
0.0
  0
LINE
  5
1C144
  8
KI
  6
CONTINUOUS
 62
     7
 10
57.016219887055151
 20
-9.2968687896646145
 30
0.0
 11
137.016219887055
 21
-9.2968687896646145
 31
0.0
  0
LINE
  5
1C145
  8
KI
  6
CONTINUOUS
 62
     7
 10
137.016219887055
 20
-33.296866315266492
 30
0.0
 11
57.016219887055151
 21
-33.296866315266492
 31
0.0
  0
LINE
  5
1C146
  8
KI
  6
CONTINUOUS
 62
     7
 10
43.016228017220627
 20
-44.296866315266477
 30
0.0
 11
137.016219887055
 21
-44.296866315266477
 31
0.0
  0
LINE
  5
1C147
  8
KI
  6
CONTINUOUS
 62
     7
 10
41.01622530716562
 20
-94.296868023779581
 30
0.0
 11
137.016219887055
 21
-94.296868023779581
 31
0.0
  0
LINE
  5
1C148
  8
KI
  6
CONTINUOUS
 62
     7
 10
41.01622530716562
 20
-94.296868023779581
 30
0.0
 11
43.016228017220627
 21
-44.296866315266477
 31
0.0
  0
LINE
  5
1C149
  8
KI
  6
CONTINUOUS
 62
     7
 10
219.0162198870548
 20
-9.2968687896646145
 30
0.0
 11
139.016219887055
 21
-9.2968687896646145
 31
0.0
  0
LINE
  5
1C14A
  8
KI
  6
CONTINUOUS
 62
     7
 10
139.016219887055
 20
-33.296866315266492
 30
0.0
 11
219.0162198870548
 21
-33.296866315266492
 31
0.0
  0
LINE
  5
1C14B
  8
KI
  6
CONTINUOUS
 62
     7
 10
235.0162198870548
 20
-44.296866315266477
 30
0.0
 11
235.0162198870548
 21
-94.296868023779581
 31
0.0
  0
LINE
  5
1C14C
  8
KI
  6
CONTINUOUS
 62
     7
 10
239.0162198870548
 20
9.7031312103353837
 30
0.0
 11
139.016219887055
 21
9.7031312103353837
 31
0.0
  0
LINE
  5
1C14D
  8
KI
  6
CONTINUOUS
 62
     7
 10
239.0162198870548
 20
9.7031312103353837
 30
0.0
 11
139.016219887055
 21
9.7031312103353837
 31
0.0
  0
LINE
  5
1C14E
  8
KI
  6
CONTINUOUS
 62
     7
 10
37.016219887055129
 20
9.7031312103353837
 30
0.0
 11
137.016219887055
 21
9.7031312103353837
 31
0.0
  0
LINE
  5
1C14F
  8
KI
  6
CONTINUOUS
 62
     7
 10
37.016219887055129
 20
9.7031312103353837
 30
0.0
 11
137.016219887055
 21
9.7031312103353837
 31
0.0
  0
TEXT
  5
1C150
  8
KI
  6
CONTINUOUS
 62
     7
 10
218.6672664069456
 20
-242.4411371107378
 30
0.0
 40
7.0
  1
D TOS多機能商品シリーズ
 41
0.84552428
  0
TEXT
  5
1C151
  8
KI
  6
CONTINUOUS
 62
     7
 10
218.6672664069456
 20
-251.36442957220399
 30
0.0
 40
7.0
  1
高断熱・高気密ドア
 41
0.84552428
  0
TEXT
  5
1C152
  8
KI
  6
CONTINUOUS
 62
     7
 10
217.70790036644311
 20
-269.30914795167661
 30
0.0
 40
7.0
  1
dt05a011
 41
0.84552428
  0
LINE
  5
1C153
  8
KI
  6
CONTINUOUS
 62
     7
 10
239.0162198870548
 20
-5.2968663152683231
 30
0.0
 11
139.016219887055
 21
-5.2968663152683231
 31
0.0
  0
LINE
  5
1C154
  8
KI
  6
CONTINUOUS
 62
     7
 10
37.016219887055129
 20
-5.2968663152683231
 30
0.0
 11
137.016219887055
 21
-5.2968663152683231
 31
0.0
  0
LINE
  5
1C155
  8
KI
  6
CONTINUOUS
 62
     7
 10
232.37405214227161
 20
-100.2968680277299
 30
0.0
 11
139.016219887055
 21
-100.2968680277299
 31
0.0
  0
LINE
  5
1C156
  8
OS
  6
CONTINUOUS
 62
     2
 10
-268.3587750666216
 20
-82.791391534980448
 30
0.0
 11
-246.2633223400789
 21
-60.69593880843793
 31
0.0
  0
LINE
  5
1C157
  8
OS
  6
CONTINUOUS
 62
     2
 10
-258.45928013000992
 20
-82.791391534980676
 30
0.0
 11
-243.45927730212631
 21
-67.791388707097028
 31
0.0
  0
LINE
  5
1C158
  8
OS
  6
CONTINUOUS
 62
     2
 10
-248.5597851933984
 20
-82.791391534980619
 30
0.0
 11
-233.55978236551479
 21
-67.791388707097028
 31
0.0
  0
LINE
  5
1C159
  8
OS
  6
CONTINUOUS
 62
     2
 10
-288.15776493984481
 20
-82.791391534980733
 30
0.0
 11
-253.15776211196129
 21
-47.791388707097042
 31
0.0
  0
LINE
  5
1C15A
  8
OS
  6
CONTINUOUS
 62
     2
 10
-278.25827000323329
 20
-82.791391534980619
 30
0.0
 11
-246.2633223400789
 21
-50.796443871826277
 31
0.0
  0
LINE
  5
1C15B
  8
OS
  6
CONTINUOUS
 62
     2
 10
-208.96180544695139
 20
-82.791391534980619
 30
0.0
 11
-193.9618026190681
 21
-67.791388707097028
 31
0.0
  0
LINE
  5
1C15C
  8
OS
  6
CONTINUOUS
 62
     2
 10
-218.8613003835633
 20
-82.791391534980676
 30
0.0
 11
-203.86129755567981
 21
-67.791388707097028
 31
0.0
  0
LINE
  5
1C15D
  8
OS
  6
CONTINUOUS
 62
     2
 10
-238.66029025678671
 20
-82.791391534980733
 30
0.0
 11
-223.6602874289029
 21
-67.791388707097028
 31
0.0
  0
LINE
  5
1C15E
  8
OS
  6
CONTINUOUS
 62
     2
 10
-228.76079532017511
 20
-82.791391534980704
 30
0.0
 11
-213.76079249229119
 21
-67.791388707097028
 31
0.0
  0
LINE
  5
1C15F
  8
OS
  6
CONTINUOUS
 62
     2
 10
-199.06231051034001
 20
-82.791391534980733
 30
0.0
 11
-184.06230768245629
 21
-67.791388707097028
 31
0.0
  0
LINE
  5
1C160
  8
OS
  6
CONTINUOUS
 62
     2
 10
-189.16281557372841
 20
-82.791391534980619
 30
0.0
 11
-179.26332063711641
 21
-72.891896598368831
 31
0.0
  0
LINE
  5
1C161
  8
OS
  6
CONTINUOUS
 62
     2
 10
-289.26331627746231
 20
-73.997447935985932
 30
0.0
 11
-263.0572570485719
 21
-47.791388707097042
 31
0.0
  0
LINE
  5
1C162
  8
KI
  6
CONTINUOUS
 62
     7
 10
-156.76332064105191
 20
156.70476576901481
 30
0.0
 11
-161.76332064268871
 21
156.70476576675011
 31
0.0
  0
LINE
  5
1C163
  8
KI
  6
CONTINUOUS
 62
     7
 10
-159.26331873048619
 20
25.45668744005523
 30
0.0
 11
-159.26331873048619
 21
-70.791390895150045
 31
0.0
  0
LINE
  5
1C164
  8
KI
  6
CONTINUOUS
 62
     7
 10
-156.76332064105191
 20
25.45668744005523
 30
0.0
 11
-156.76332064105191
 21
-70.791390895150045
 31
0.0
  0
LINE
  5
1C165
  8
KI
  6
CONTINUOUS
 62
     7
 10
-159.26331873048619
 20
156.704765768502
 30
0.0
 11
-159.26331873048619
 21
27.456687440055241
 31
0.0
  0
LINE
  5
1C166
  8
KI
  6
CONTINUOUS
 62
     7
 10
-156.76332064105191
 20
156.7047657679891
 30
0.0
 11
-156.76332064105191
 21
27.456687440055241
 31
0.0
  0
LINE
  5
1C167
  8
KI
  6
CONTINUOUS
 62
     7
 10
-156.76332064105191
 20
-70.791390895150045
 30
0.0
 11
-177.76332064719909
 21
-70.791390894132988
 31
0.0
  0
LINE
  5
1C168
  8
KI
  6
CONTINUOUS
 62
     7
 10
-159.26331873048619
 20
-123.97075028285791
 30
0.0
 11
-159.26331873048619
 21
-222.61881263926341
 31
0.0
  0
LINE
  5
1C169
  8
KI
  6
CONTINUOUS
 62
     7
 10
-156.76332064105191
 20
-123.97075028285791
 30
0.0
 11
-156.76332064105191
 21
-222.61881263926341
 31
0.0
  0
LINE
  5
1C16A
  8
KI
  6
CONTINUOUS
 62
     7
 10
-338.76332065304041
 20
25.45668744005523
 30
0.0
 11
-338.76332065304041
 21
-70.791390895150045
 31
0.0
  0
LINE
  5
1C16B
  8
KI
  6
CONTINUOUS
 62
     7
 10
-336.2633225636061
 20
25.45668744005523
 30
0.0
 11
-336.2633225636061
 21
-70.791390895150045
 31
0.0
  0
LINE
  5
1C16C
  8
KI
  6
CONTINUOUS
 62
     7
 10
-338.76332065304041
 20
156.7047657679891
 30
0.0
 11
-338.76332065304041
 21
27.456687440055241
 31
0.0
  0
LINE
  5
1C16D
  8
KI
  6
CONTINUOUS
 62
     7
 10
-336.2633225636061
 20
156.704765768502
 30
0.0
 11
-336.2633225636061
 21
27.456687440055241
 31
0.0
  0
LINE
  5
1C16E
  8
KI
  6
CONTINUOUS
 62
     7
 10
-338.76332065304041
 20
-70.791390895150045
 30
0.0
 11
-317.76332064689302
 21
-70.791390894132988
 31
0.0
  0
LINE
  5
1C16F
  8
KI
  6
CONTINUOUS
 62
     7
 10
-338.76332065304041
 20
156.70476576901481
 30
0.0
 11
-333.76332065140349
 21
156.70476576675011
 31
0.0
  0
LINE
  5
1C170
  8
KI
  6
CONTINUOUS
 62
     7
 10
-338.76332065304041
 20
-123.97075028285791
 30
0.0
 11
-338.76332065304041
 21
-222.61881263926341
 31
0.0
  0
LINE
  5
1C171
  8
KI
  6
CONTINUOUS
 62
     7
 10
-336.2633225636061
 20
-123.97075028285791
 30
0.0
 11
-336.2633225636061
 21
-222.61881263926341
 31
0.0
  0
LINE
  5
1C172
  8
KI
  6
CONTINUOUS
 62
     7
 10
249.016219903051
 20
-93.796868969705642
 30
0.0
 11
248.0162199026409
 21
-94.796868969295375
 31
0.0
  0
LINE
  5
1C173
  8
KI
  6
CONTINUOUS
 62
     7
 10
255.01621990305111
 20
-93.796868018491864
 30
0.0
 11
249.016219903051
 21
-93.796868016030658
 31
0.0
  0
LINE
  5
1C174
  8
KI
  6
CONTINUOUS
 62
     7
 10
255.01621989689801
 20
-108.79686801849179
 30
0.0
 11
255.01621990305111
 21
-93.796868018491864
 31
0.0
  0
LINE
  5
1C175
  8
KI
  6
CONTINUOUS
 62
     7
 10
248.0162199026409
 20
-94.796868969295375
 30
0.0
 11
248.0162199026409
 21
-120.2968699334276
 31
0.0
  0
LINE
  5
1C176
  8
KI
  6
CONTINUOUS
 62
     7
 10
250.51621989115509
 20
-122.7968680166459
 30
0.0
 11
272.01621990264073
 21
-122.7968680254653
 31
0.0
  0
LINE
  5
1C177
  8
KI
  6
CONTINUOUS
 62
     7
 10
248.0162199026409
 20
-120.2968699334276
 30
0.0
 11
250.51621989115509
 21
-122.7968699239937
 31
0.0
  0
LINE
  5
1C178
  8
KI
  6
CONTINUOUS
 62
     7
 10
272.01621990264073
 20
-108.7968680254653
 30
0.0
 11
255.01621989689801
 21
-108.79686801849179
 31
0.0
  0
LINE
  5
1C179
  8
KI
  6
CONTINUOUS
 62
     7
 10
272.01621990264073
 20
-108.7968680254653
 30
0.0
 11
272.01621990264073
 21
-122.7968680254653
 31
0.0
  0
LINE
  5
1C17A
  8
KI
  6
CONTINUOUS
 62
     7
 10
249.01621990305071
 20
30.203132918775172
 30
0.0
 11
248.0162199026405
 21
31.203132918364869
 31
0.0
  0
LINE
  5
1C17B
  8
KI
  6
CONTINUOUS
 62
     7
 10
255.01621990305071
 20
30.203131967561362
 30
0.0
 11
249.01621990305071
 21
30.203131965100159
 31
0.0
  0
LINE
  5
1C17C
  8
KI
  6
CONTINUOUS
 62
     7
 10
255.01621989689781
 20
45.203131967561369
 30
0.0
 11
255.01621990305071
 21
30.203131967561362
 31
0.0
  0
LINE
  5
1C17D
  8
KI
  6
CONTINUOUS
 62
     7
 10
248.0162199026405
 20
31.203132918364869
 30
0.0
 11
248.0162199026405
 21
56.703133882497127
 31
0.0
  0
LINE
  5
1C17E
  8
KI
  6
CONTINUOUS
 62
     7
 10
250.516219891155
 20
59.203131965715443
 30
0.0
 11
272.01621990264073
 21
59.20313197453482
 31
0.0
  0
LINE
  5
1C17F
  8
KI
  6
CONTINUOUS
 62
     7
 10
248.0162199026405
 20
56.703133882497127
 30
0.0
 11
250.516219891155
 21
59.2031338730634
 31
0.0
  0
LINE
  5
1C180
  8
KI
  6
CONTINUOUS
 62
     7
 10
272.01621990264073
 20
45.203131974534813
 30
0.0
 11
255.01621989689781
 21
45.203131967561369
 31
0.0
  0
LINE
  5
1C181
  8
KI
  6
CONTINUOUS
 62
     7
 10
272.01621990264073
 20
45.203131974534813
 30
0.0
 11
272.01621990264073
 21
59.20313197453482
 31
0.0
  0
LINE
  5
1C182
  8
KI
  6
CONTINUOUS
 62
     7
 10
27.01621990223628
 20
-93.796868969705642
 30
0.0
 11
28.016219902646469
 21
-94.796868969295375
 31
0.0
  0
LINE
  5
1C183
  8
KI
  6
CONTINUOUS
 62
     7
 10
21.01621990223628
 20
-93.796868018491864
 30
0.0
 11
27.01621990223628
 21
-93.796868016030658
 31
0.0
  0
LINE
  5
1C184
  8
KI
  6
CONTINUOUS
 62
     7
 10
21.016219908389321
 20
-108.79686801849179
 30
0.0
 11
21.01621990223628
 21
-93.796868018491864
 31
0.0
  0
LINE
  5
1C185
  8
KI
  6
CONTINUOUS
 62
     7
 10
28.016219902646469
 20
-94.796868969295375
 30
0.0
 11
28.016219902646469
 21
-120.2968699334276
 31
0.0
  0
LINE
  5
1C186
  8
KI
  6
CONTINUOUS
 62
     7
 10
25.51621991413225
 20
-122.7968680166459
 30
0.0
 11
4.0162199026464691
 21
-122.7968680254653
 31
0.0
  0
LINE
  5
1C187
  8
KI
  6
CONTINUOUS
 62
     7
 10
28.016219902646469
 20
-120.2968699334276
 30
0.0
 11
25.51621991413225
 21
-122.7968699239937
 31
0.0
  0
LINE
  5
1C188
  8
KI
  6
CONTINUOUS
 62
     7
 10
4.0162199026464691
 20
-108.7968680254653
 30
0.0
 11
21.016219908389321
 21
-108.79686801849179
 31
0.0
  0
LINE
  5
1C189
  8
KI
  6
CONTINUOUS
 62
     7
 10
4.0162199026464691
 20
-108.7968680254653
 30
0.0
 11
4.0162199026464691
 21
-122.7968680254653
 31
0.0
  0
LINE
  5
1C18A
  8
KI
  6
CONTINUOUS
 62
     7
 10
27.01621990223617
 20
30.203132918774941
 30
0.0
 11
28.016219902646348
 21
31.203132918364631
 31
0.0
  0
LINE
  5
1C18B
  8
KI
  6
CONTINUOUS
 62
     7
 10
21.01621990223617
 20
30.203131967561148
 30
0.0
 11
27.01621990223617
 21
30.203131965099931
 31
0.0
  0
LINE
  5
1C18C
  8
KI
  6
CONTINUOUS
 62
     7
 10
21.016219908389228
 20
45.203131967561141
 30
0.0
 11
21.01621990223617
 21
30.203131967561148
 31
0.0
  0
LINE
  5
1C18D
  8
KI
  6
CONTINUOUS
 62
     7
 10
28.016219902646348
 20
31.203132918364631
 30
0.0
 11
28.016219902646348
 21
56.7031338824969
 31
0.0
  0
LINE
  5
1C18E
  8
KI
  6
CONTINUOUS
 62
     7
 10
25.51621991413213
 20
59.203131965715201
 30
0.0
 11
4.0162199026463554
 21
59.203131974534593
 31
0.0
  0
LINE
  5
1C18F
  8
KI
  6
CONTINUOUS
 62
     7
 10
28.016219902646348
 20
56.7031338824969
 30
0.0
 11
25.51621991413213
 21
59.203133873063152
 31
0.0
  0
LINE
  5
1C190
  8
KI
  6
CONTINUOUS
 62
     7
 10
4.0162199026463554
 20
45.203131974534557
 30
0.0
 11
21.016219908389228
 21
45.203131967561141
 31
0.0
  0
LINE
  5
1C191
  8
KI
  6
CONTINUOUS
 62
     7
 10
4.0162199026463554
 20
45.203131974534557
 30
0.0
 11
4.0162199026463554
 21
59.203131974534593
 31
0.0
  0
LINE
  5
1C192
  8
KI
  6
CONTINUOUS
 62
     7
 10
-161.76332064268871
 20
156.70476576675011
 30
0.0
 11
-161.76332064709851
 21
135.20476576675011
 31
0.0
  0
LINE
  5
1C193
  8
KI
  6
CONTINUOUS
 62
     7
 10
-170.7633206461756
 20
139.7047657685961
 30
0.0
 11
-170.76332064268871
 21
156.70476576859619
 31
0.0
  0
LINE
  5
1C194
  8
KI
  6
CONTINUOUS
 62
     7
 10
-161.76332064709851
 20
135.20476576675011
 30
0.0
 11
-164.26332017077419
 21
132.70476576726281
 31
0.0
  0
LINE
  5
1C195
  8
KI
  6
CONTINUOUS
 62
     7
 10
-170.76332064268871
 20
156.70476576859619
 30
0.0
 11
-161.76332064268871
 21
156.70476576675011
 31
0.0
  0
LINE
  5
1C196
  8
KI
  6
CONTINUOUS
 62
     7
 10
-185.7633206461754
 20
139.7047657716725
 30
0.0
 11
-170.7633206461756
 21
139.7047657685961
 31
0.0
  0
LINE
  5
1C197
  8
KI
  6
CONTINUOUS
 62
     7
 10
-164.26332064761141
 20
132.70476576726281
 30
0.0
 11
-184.76332064761121
 21
132.70476577146741
 31
0.0
  0
LINE
  5
1C198
  8
KI
  6
CONTINUOUS
 62
     7
 10
-185.7633206474062
 20
133.70476577167241
 30
0.0
 11
-185.7633206461754
 21
139.7047657716725
 31
0.0
  0
LINE
  5
1C199
  8
KI
  6
CONTINUOUS
 62
     7
 10
-185.76331969373121
 20
133.70476577167241
 30
0.0
 11
-184.76331969393641
 21
132.70476577146741
 31
0.0
  0
LINE
  5
1C19A
  8
KI
  6
CONTINUOUS
 62
     7
 10
-333.76332064268883
 20
156.70476577218491
 30
0.0
 11
-333.76332063827903
 21
135.204765772185
 31
0.0
  0
LINE
  5
1C19B
  8
KI
  6
CONTINUOUS
 62
     7
 10
-324.76332063920188
 20
139.7047657740309
 30
0.0
 11
-324.76332064268883
 21
156.70476577403079
 31
0.0
  0
LINE
  5
1C19C
  8
KI
  6
CONTINUOUS
 62
     7
 10
-333.76332063827903
 20
135.204765772185
 30
0.0
 11
-331.26332111460312
 21
132.70476577269761
 31
0.0
  0
LINE
  5
1C19D
  8
KI
  6
CONTINUOUS
 62
     7
 10
-324.76332064268883
 20
156.70476577403079
 30
0.0
 11
-333.76332064268883
 21
156.70476577218491
 31
0.0
  0
LINE
  5
1C19E
  8
KI
  6
CONTINUOUS
 62
     7
 10
-309.76332063920182
 20
139.70476577710741
 30
0.0
 11
-324.76332063920188
 21
139.7047657740309
 31
0.0
  0
LINE
  5
1C19F
  8
KI
  6
CONTINUOUS
 62
     7
 10
-331.26332063776618
 20
132.70476577269761
 30
0.0
 11
-310.7633206377663
 21
132.70476577690221
 31
0.0
  0
LINE
  5
1C1A0
  8
KI
  6
CONTINUOUS
 62
     7
 10
-309.76332063797122
 20
133.70476577710741
 30
0.0
 11
-309.76332063920182
 21
139.70476577710741
 31
0.0
  0
LINE
  5
1C1A1
  8
KI
  6
CONTINUOUS
 62
     7
 10
-309.76332159164622
 20
133.70476577710741
 30
0.0
 11
-310.76332159144113
 21
132.70476577690221
 31
0.0
  0
LINE
  5
1C1A2
  8
KI
  6
CONTINUOUS
 62
     7
 10
239.0162199026409
 20
-101.7968680277299
 30
0.0
 11
239.0162199026409
 21
-29.29686802773001
 31
0.0
  0
LINE
  5
1C1A3
  8
KI
  6
CONTINUOUS
 62
     7
 10
263.0162199026409
 20
38.203131972271358
 30
0.0
 11
263.0162199026409
 21
-101.79686802773
 31
0.0
  0
LINE
  5
1C1A4
  8
KI
  6
CONTINUOUS
 62
     7
 10
255.5162199026409
 20
27.20313197226988
 30
0.0
 11
255.5162199026409
 21
36.703131972271358
 31
0.0
  0
LINE
  5
1C1A5
  8
KI
  6
CONTINUOUS
 62
     7
 10
248.0162199026409
 20
38.203131972271358
 30
0.0
 11
248.0162199026409
 21
27.20313197226988
 31
0.0
  0
LINE
  5
1C1A6
  8
KI
  6
CONTINUOUS
 62
     7
 10
239.0162199026409
 20
-13.29686802773011
 30
0.0
 11
239.0162199026409
 21
38.203131972269887
 31
0.0
  0
LINE
  5
1C1A7
  8
KI
  6
CONTINUOUS
 62
     7
 10
239.0162199026409
 20
38.203131972269887
 30
0.0
 11
248.0162199026409
 21
38.203131972271358
 31
0.0
  0
LINE
  5
1C1A8
  8
KI
  6
CONTINUOUS
 62
     7
 10
257.01621990264078
 20
38.203131972271002
 30
0.0
 11
255.5162199026409
 21
36.703131972271358
 31
0.0
1001
GENIUS_GENFIL_13
1070
     0
1040
1.5
1040
1.5
1040
20.0
1040
0.0
1002
{
1002
}
1001
GENIUS_GENOBJ-N-CHA_13
1002
{
1000
OWNER
1000
GEN
1002
}
1001
GENIUS_GENODEF_13
1002
{
1000
HIER
1070
     0
1002
}
1002
{
1000
MANEDIT
1070
     0
1002
}
1002
{
1000
NOSEL
1070
     0
1002
}
1002
{
1000
BEHIND
1070
     0
1002
}
1002
{
1000
OTHER
1070
     0
1002
}
1002
{
1000
REACTOR
1002
}
  0
LINE
  5
1C1A9
  8
KI
  6
CONTINUOUS
 62
     7
 10
257.01621990264078
 20
38.203131972271002
 30
0.0
 11
263.0162199026409
 21
38.203131972269887
 31
0.0
  0
LINE
  5
1C1AA
  8
KI
  6
CONTINUOUS
 62
     7
 10
248.0162199026409
 20
27.20313197226988
 30
0.0
 11
255.5162199026409
 21
27.20313197226988
 31
0.0
  0
LINE
  5
1C1AB
  8
KI
  6
CONTINUOUS
 62
     7
 10
244.0162199026409
 20
-29.296868027729982
 30
0.0
 11
244.0162199026409
 21
-13.29686802773011
 31
0.0
  0
LINE
  5
1C1AC
  8
KI
  6
CONTINUOUS
 62
     7
 10
244.0162199026409
 20
-13.29686802773011
 30
0.0
 11
239.0162199026409
 21
-13.29686802773011
 31
0.0
  0
LINE
  5
1C1AD
  8
KI
  6
CONTINUOUS
 62
     7
 10
239.0162199026409
 20
-29.29686802773001
 30
0.0
 11
244.0162199026409
 21
-29.296868027729982
 31
0.0
  0
LINE
  5
1C1AE
  8
KI
  6
CONTINUOUS
 62
     7
 10
255.5162199026409
 20
-90.796868027730014
 30
0.0
 11
248.0162199026409
 21
-90.796868027730014
 31
0.0
  0
LINE
  5
1C1AF
  8
KI
  6
CONTINUOUS
 62
     7
 10
248.0162199026409
 20
-90.796868027730014
 30
0.0
 11
248.0162199026409
 21
-101.79686802773
 31
0.0
  0
LINE
  5
1C1B0
  8
KI
  6
CONTINUOUS
 62
     7
 10
248.0162199026409
 20
-101.79686802773
 30
0.0
 11
239.0162199026409
 21
-101.7968680277299
 31
0.0
  0
LINE
  5
1C1B1
  8
KI
  6
CONTINUOUS
 62
     7
 10
255.5162199026409
 20
-100.2968680277299
 30
0.0
 11
255.5162199026409
 21
-90.796868027730014
 31
0.0
  0
LINE
  5
1C1B2
  8
KI
  6
CONTINUOUS
 62
     7
 10
257.01621990264078
 20
-101.79686802773
 30
0.0
 11
255.5162199026409
 21
-100.2968680277299
 31
0.0
1001
GENIUS_GENFIL_13
1070
     0
1040
1.5
1040
1.5
1040
20.0
1040
0.0
1002
{
1002
}
1001
GENIUS_GENOBJ-N-CHA_13
1002
{
1000
OWNER
1000
GEN
1002
}
1001
GENIUS_GENODEF_13
1002
{
1000
HIER
1070
     0
1002
}
1002
{
1000
MANEDIT
1070
     0
1002
}
1002
{
1000
NOSEL
1070
     0
1002
}
1002
{
1000
BEHIND
1070
     0
1002
}
1002
{
1000
OTHER
1070
     0
1002
}
1002
{
1000
REACTOR
1002
}
  0
LINE
  5
1C1B3
  8
KI
  6
CONTINUOUS
 62
     7
 10
263.0162199026409
 20
-101.79686802773
 30
0.0
 11
257.01621990264078
 21
-101.79686802773
 31
0.0
  0
LINE
  5
1C1B4
  8
OS
  6
CONTINUOUS
 62
     2
 10
263.0162199026409
 20
-99.936299785564614
 30
0.0
 11
261.15565166047543
 21
-101.79686802773
 31
0.0
  0
LINE
  5
1C1B5
  8
OS
  6
CONTINUOUS
 62
     2
 10
263.0162199026409
 20
-90.03680484895294
 30
0.0
 11
255.5162199026409
 21
-97.53680484895294
 31
0.0
  0
LINE
  5
1C1B6
  8
OS
  6
CONTINUOUS
 62
     2
 10
263.01621990264101
 20
-80.137309912341266
 30
0.0
 11
252.35666178725231
 21
-90.796868027729985
 31
0.0
  0
LINE
  5
1C1B7
  8
OS
  6
CONTINUOUS
 62
     2
 10
248.0162199026409
 20
-95.137309912341195
 30
0.0
 11
241.35666178725231
 21
-101.7968680277299
 31
0.0
  0
LINE
  5
1C1B8
  8
OS
  6
CONTINUOUS
 62
     2
 10
263.0162199026409
 20
-70.237814975729648
 30
0.0
 11
239.0162199026409
 21
-94.23781497572962
 31
0.0
  0
LINE
  5
1C1B9
  8
OS
  6
CONTINUOUS
 62
     2
 10
263.0162199026409
 20
-60.338320039118003
 30
0.0
 11
239.0162199026409
 21
-84.338320039117946
 31
0.0
  0
LINE
  5
1C1BA
  8
OS
  6
CONTINUOUS
 62
     2
 10
263.01621990264101
 20
-50.438825102506243
 30
0.0
 11
239.0162199026409
 21
-74.438825102506271
 31
0.0
  0
LINE
  5
1C1BB
  8
OS
  6
CONTINUOUS
 62
     2
 10
263.0162199026409
 20
-40.539330165894633
 30
0.0
 11
239.0162199026409
 21
-64.539330165894569
 31
0.0
  0
LINE
  5
1C1BC
  8
OS
  6
CONTINUOUS
 62
     2
 10
263.0162199026409
 20
-30.639835229283008
 30
0.0
 11
239.0162199026409
 21
-54.639835229282859
 31
0.0
  0
LINE
  5
1C1BD
  8
OS
  6
CONTINUOUS
 62
     2
 10
263.0162199026409
 20
-20.740340292671348
 30
0.0
 11
239.0162199026409
 21
-44.740340292671291
 31
0.0
  0
LINE
  5
1C1BE
  8
OS
  6
CONTINUOUS
 62
     2
 10
263.0162199026409
 20
-10.84084535605967
 30
0.0
 11
239.0162199026409
 21
-34.840845356059731
 31
0.0
  0
LINE
  5
1C1BF
  8
OS
  6
CONTINUOUS
 62
     2
 10
263.01621990264101
 20
-0.941350419448014
 30
0.0
 11
244.0162199026409
 21
-19.941350419448032
 31
0.0
  0
LINE
  5
1C1C0
  8
OS
  6
CONTINUOUS
 62
     2
 10
263.0162199026409
 20
8.958144517163646
 30
0.0
 11
240.76120735774711
 21
-13.29686802773011
 31
0.0
  0
LINE
  5
1C1C1
  8
OS
  6
CONTINUOUS
 62
     2
 10
263.0162199026409
 20
18.857639453775349
 30
0.0
 11
239.0162199026409
 21
-5.1423605462245909
 31
0.0
  0
LINE
  5
1C1C2
  8
OS
  6
CONTINUOUS
 62
     2
 10
263.01621990264101
 20
28.75713439038698
 30
0.0
 11
239.0162199026409
 21
4.7571343903870371
 31
0.0
  0
LINE
  5
1C1C3
  8
OS
  6
CONTINUOUS
 62
     2
 10
262.5627225479123
 20
38.203131972270043
 30
0.0
 11
255.5162199026409
 21
31.156629326998669
 31
0.0
  0
LINE
  5
1C1C4
  8
OS
  6
CONTINUOUS
 62
     2
 10
251.56272254791199
 20
27.203131972269869
 30
0.0
 11
239.0162199026409
 21
14.65662932699869
 31
0.0
  0
LINE
  5
1C1C5
  8
OS
  6
CONTINUOUS
 62
     2
 10
248.0162199026409
 20
33.556124263610322
 30
0.0
 11
239.0162199026409
 21
24.55612426361035
 31
0.0
  0
LINE
  5
1C1C6
  8
OS
  6
CONTINUOUS
 62
     2
 10
242.76373267468961
 20
38.20313197227054
 30
0.0
 11
239.0162199026409
 21
34.455619200222003
 31
0.0
  0
LINE
  5
1C1C7
  8
KI
  6
CONTINUOUS
 62
     7
 10
37.016250601872962
 20
-101.79686802773
 30
0.0
 11
37.016250601872962
 21
-54.79686802773
 31
0.0
  0
LINE
  5
1C1C8
  8
KI
  6
CONTINUOUS
 62
     7
 10
13.01625060187304
 20
38.203131972271358
 30
0.0
 11
13.01625060187297
 21
-101.79686802773
 31
0.0
  0
LINE
  5
1C1C9
  8
KI
  6
CONTINUOUS
 62
     7
 10
20.51625060187304
 20
27.20313197226988
 30
0.0
 11
20.51625060187304
 21
36.703131972271358
 31
0.0
  0
LINE
  5
1C1CA
  8
KI
  6
CONTINUOUS
 62
     7
 10
28.016250601873029
 20
38.203131972271358
 30
0.0
 11
28.016250601873029
 21
27.20313197226988
 31
0.0
  0
LINE
  5
1C1CB
  8
KI
  6
CONTINUOUS
 62
     7
 10
37.016250601872962
 20
-35.79686802773012
 30
0.0
 11
37.016250601873033
 21
38.203131972269887
 31
0.0
  0
LINE
  5
1C1CC
  8
KI
  6
CONTINUOUS
 62
     7
 10
37.016250601873033
 20
38.203131972269887
 30
0.0
 11
28.016250601873029
 21
38.203131972271358
 31
0.0
  0
LINE
  5
1C1CD
  8
KI
  6
CONTINUOUS
 62
     7
 10
19.01625060187304
 20
38.203131972271002
 30
0.0
 11
20.51625060187304
 21
36.703131972271358
 31
0.0
1001
GENIUS_GENFIL_13
1070
     0
1040
1.5
1040
1.5
1040
20.0
1040
0.0
1002
{
1002
}
1001
GENIUS_GENOBJ-N-CHA_13
1002
{
1000
OWNER
1000
GEN
1002
}
1001
GENIUS_GENODEF_13
1002
{
1000
HIER
1070
     0
1002
}
1002
{
1000
MANEDIT
1070
     0
1002
}
1002
{
1000
NOSEL
1070
     0
1002
}
1002
{
1000
BEHIND
1070
     0
1002
}
1002
{
1000
OTHER
1070
     0
1002
}
1002
{
1000
REACTOR
1002
}
  0
LINE
  5
1C1CE
  8
KI
  6
CONTINUOUS
 62
     7
 10
19.01625060187304
 20
38.203131972271002
 30
0.0
 11
13.01625060187304
 21
38.203131972269887
 31
0.0
  0
LINE
  5
1C1CF
  8
KI
  6
CONTINUOUS
 62
     7
 10
28.016250601873029
 20
27.20313197226988
 30
0.0
 11
20.51625060187304
 21
27.20313197226988
 31
0.0
  0
LINE
  5
1C1D0
  8
KI
  6
CONTINUOUS
 62
     7
 10
30.016250601872979
 20
-54.79686802773
 30
0.0
 11
30.016250601872979
 21
-35.79686802773012
 31
0.0
  0
LINE
  5
1C1D1
  8
KI
  6
CONTINUOUS
 62
     7
 10
30.016250601872979
 20
-35.79686802773012
 30
0.0
 11
37.016250601872962
 21
-35.79686802773012
 31
0.0
  0
LINE
  5
1C1D2
  8
KI
  6
CONTINUOUS
 62
     7
 10
37.016250601872962
 20
-54.79686802773
 30
0.0
 11
30.016250601872979
 21
-54.79686802773
 31
0.0
  0
LINE
  5
1C1D3
  8
KI
  6
CONTINUOUS
 62
     7
 10
20.516250601872962
 20
-90.796868027730014
 30
0.0
 11
28.016250601872979
 21
-90.796868027730014
 31
0.0
  0
LINE
  5
1C1D4
  8
KI
  6
CONTINUOUS
 62
     7
 10
28.016250601872979
 20
-90.796868027730014
 30
0.0
 11
28.016250601872962
 21
-101.79686802773
 31
0.0
  0
LINE
  5
1C1D5
  8
KI
  6
CONTINUOUS
 62
     7
 10
28.016250601872962
 20
-101.79686802773
 30
0.0
 11
37.016250601872962
 21
-101.79686802773
 31
0.0
  0
LINE
  5
1C1D6
  8
KI
  6
CONTINUOUS
 62
     7
 10
20.516250601872962
 20
-100.2968680277299
 30
0.0
 11
20.516250601872962
 21
-90.796868027730014
 31
0.0
  0
LINE
  5
1C1D7
  8
KI
  6
CONTINUOUS
 62
     7
 10
19.016250601872969
 20
-101.79686802773
 30
0.0
 11
20.516250601872962
 21
-100.2968680277299
 31
0.0
1001
GENIUS_GENFIL_13
1070
     0
1040
1.5
1040
1.5
1040
20.0
1040
0.0
1002
{
1002
}
1001
GENIUS_GENOBJ-N-CHA_13
1002
{
1000
OWNER
1000
GEN
1002
}
1001
GENIUS_GENODEF_13
1002
{
1000
HIER
1070
     0
1002
}
1002
{
1000
MANEDIT
1070
     0
1002
}
1002
{
1000
NOSEL
1070
     0
1002
}
1002
{
1000
BEHIND
1070
     0
1002
}
1002
{
1000
OTHER
1070
     0
1002
}
1002
{
1000
REACTOR
1002
}
  0
LINE
  5
1C1D8
  8
KI
  6
CONTINUOUS
 62
     7
 10
13.01625060187297
 20
-101.79686802773
 30
0.0
 11
19.016250601872969
 21
-101.79686802773
 31
0.0
  0
LINE
  5
1C1D9
  8
KI
  6
CONTINUOUS
 62
     7
 10
-177.7633206469956
 20
123.704765774031
 30
0.0
 11
-250.2633195321751
 21
123.704765774031
 31
0.0
  0
LINE
  5
1C1DA
  8
KI
  6
CONTINUOUS
 62
     7
 10
-317.76332064699682
 20
147.7047657740309
 30
0.0
 11
-177.7633206469956
 21
147.7047657740309
 31
0.0
  0
LINE
  5
1C1DB
  8
KI
  6
CONTINUOUS
 62
     7
 10
-306.76332064699551
 20
140.2047657740309
 30
0.0
 11
-316.26332064699682
 21
140.2047657740309
 31
0.0
  0
LINE
  5
1C1DC
  8
KI
  6
CONTINUOUS
 62
     7
 10
-317.76332064699682
 20
132.7047657740307
 30
0.0
 11
-306.76332064699551
 21
132.7047657740307
 31
0.0
  0
LINE
  5
1C1DD
  8
KI
  6
CONTINUOUS
 62
     7
 10
-266.2633195321751
 20
123.704765774031
 30
0.0
 11
-317.76332064699551
 21
123.704765774031
 31
0.0
  0
LINE
  5
1C1DE
  8
KI
  6
CONTINUOUS
 62
     7
 10
-317.76332064699551
 20
123.704765774031
 30
0.0
 11
-317.76332064699682
 21
132.7047657740307
 31
0.0
  0
LINE
  5
1C1DF
  8
KI
  6
CONTINUOUS
 62
     7
 10
-317.76332064699659
 20
141.7047657740309
 30
0.0
 11
-316.26332064699682
 21
140.2047657740309
 31
0.0
1001
GENIUS_GENFIL_13
1070
     0
1040
1.5
1040
1.5
1040
20.0
1040
0.0
1002
{
1002
}
1001
GENIUS_GENOBJ-N-CHA_13
1002
{
1000
OWNER
1000
GEN
1002
}
1001
GENIUS_GENODEF_13
1002
{
1000
HIER
1070
     0
1002
}
1002
{
1000
MANEDIT
1070
     0
1002
}
1002
{
1000
NOSEL
1070
     0
1002
}
1002
{
1000
BEHIND
1070
     0
1002
}
1002
{
1000
OTHER
1070
     0
1002
}
1002
{
1000
REACTOR
1002
}
  0
LINE
  5
1C1E0
  8
KI
  6
CONTINUOUS
 62
     7
 10
-317.76332064699659
 20
141.7047657740309
 30
0.0
 11
-317.76332064699551
 21
147.7047657740309
 31
0.0
  0
LINE
  5
1C1E1
  8
KI
  6
CONTINUOUS
 62
     7
 10
-306.76332064699551
 20
132.7047657740307
 30
0.0
 11
-306.76332064699551
 21
140.2047657740309
 31
0.0
  0
LINE
  5
1C1E2
  8
KI
  6
CONTINUOUS
 62
     7
 10
-250.2633195321751
 20
128.7047657740309
 30
0.0
 11
-266.2633195321751
 21
128.7047657740309
 31
0.0
  0
LINE
  5
1C1E3
  8
KI
  6
CONTINUOUS
 62
     7
 10
-266.2633195321751
 20
128.7047657740309
 30
0.0
 11
-266.2633195321751
 21
123.704765774031
 31
0.0
  0
LINE
  5
1C1E4
  8
KI
  6
CONTINUOUS
 62
     7
 10
-250.2633195321751
 20
123.704765774031
 30
0.0
 11
-250.2633195321751
 21
128.7047657740309
 31
0.0
  0
LINE
  5
1C1E5
  8
KI
  6
CONTINUOUS
 62
     7
 10
-188.76332064699551
 20
140.2047657740309
 30
0.0
 11
-188.76332064699551
 21
132.7047657740307
 31
0.0
  0
LINE
  5
1C1E6
  8
KI
  6
CONTINUOUS
 62
     7
 10
-188.76332064699551
 20
132.7047657740307
 30
0.0
 11
-177.7633206469956
 21
132.7047657740307
 31
0.0
  0
LINE
  5
1C1E7
  8
KI
  6
CONTINUOUS
 62
     7
 10
-177.7633206469956
 20
132.7047657740307
 30
0.0
 11
-177.7633206469956
 21
123.704765774031
 31
0.0
  0
LINE
  5
1C1E8
  8
KI
  6
CONTINUOUS
 62
     7
 10
-179.26332064699551
 20
140.2047657740309
 30
0.0
 11
-188.76332064699551
 21
140.2047657740309
 31
0.0
  0
LINE
  5
1C1E9
  8
KI
  6
CONTINUOUS
 62
     7
 10
-177.7633206469956
 20
141.7047657740309
 30
0.0
 11
-179.26332064699551
 21
140.2047657740309
 31
0.0
1001
GENIUS_GENFIL_13
1070
     0
1040
1.5
1040
1.5
1040
20.0
1040
0.0
1002
{
1002
}
1001
GENIUS_GENOBJ-N-CHA_13
1002
{
1000
OWNER
1000
GEN
1002
}
1001
GENIUS_GENODEF_13
1002
{
1000
HIER
1070
     0
1002
}
1002
{
1000
MANEDIT
1070
     0
1002
}
1002
{
1000
NOSEL
1070
     0
1002
}
1002
{
1000
BEHIND
1070
     0
1002
}
1002
{
1000
OTHER
1070
     0
1002
}
1002
{
1000
REACTOR
1002
}
  0
LINE
  5
1C1EA
  8
KI
  6
CONTINUOUS
 62
     7
 10
-177.7633206469956
 20
147.7047657740309
 30
0.0
 11
-177.7633206469956
 21
141.7047657740309
 31
0.0
  0
LINE
  5
1C1EB
  8
OS
  6
CONTINUOUS
 62
     2
 10
-317.3357762348798
 20
141.2772213619142
 30
0.0
 11
-310.90823182276279
 21
147.7047657740309
 31
0.0
  0
LINE
  5
1C1EC
  8
OS
  6
CONTINUOUS
 62
     2
 10
-317.76332064699659
 20
130.9501820131857
 30
0.0
 11
-316.00873688615138
 21
132.70476577403059
 31
0.0
  0
LINE
  5
1C1ED
  8
OS
  6
CONTINUOUS
 62
     2
 10
-308.50873688615133
 20
140.2047657740309
 30
0.0
 11
-301.00873688615133
 21
147.7047657740309
 31
0.0
  0
LINE
  5
1C1EE
  8
OS
  6
CONTINUOUS
 62
     2
 10
-315.10924194953958
 20
123.704765774031
 30
0.0
 11
-291.10924194953958
 21
147.7047657740309
 31
0.0
  0
LINE
  5
1C1EF
  8
OS
  6
CONTINUOUS
 62
     2
 10
-305.20974701292801
 20
123.7047657740309
 30
0.0
 11
-281.20974701292801
 21
147.7047657740309
 31
0.0
  0
LINE
  5
1C1F0
  8
OS
  6
CONTINUOUS
 62
     2
 10
-295.31025207631632
 20
123.7047657740309
 30
0.0
 11
-271.31025207631632
 21
147.7047657740309
 31
0.0
  0
LINE
  5
1C1F1
  8
OS
  6
CONTINUOUS
 62
     2
 10
-285.41075713970451
 20
123.704765774031
 30
0.0
 11
-261.4107571397044
 21
147.7047657740309
 31
0.0
  0
LINE
  5
1C1F2
  8
OS
  6
CONTINUOUS
 62
     2
 10
-275.51126220309283
 20
123.704765774031
 30
0.0
 11
-251.51126220309271
 21
147.7047657740309
 31
0.0
  0
LINE
  5
1C1F3
  8
OS
  6
CONTINUOUS
 62
     2
 10
-260.61176726648119
 20
128.7047657740309
 30
0.0
 11
-241.61176726648131
 21
147.7047657740309
 31
0.0
  0
LINE
  5
1C1F4
  8
OS
  6
CONTINUOUS
 62
     2
 10
-250.71227232986951
 20
128.7047657740309
 30
0.0
 11
-231.71227232986951
 21
147.7047657740309
 31
0.0
  0
LINE
  5
1C1F5
  8
OS
  6
CONTINUOUS
 62
     2
 10
-245.81277739325799
 20
123.704765774031
 30
0.0
 11
-221.81277739325799
 21
147.7047657740309
 31
0.0
  0
LINE
  5
1C1F6
  8
OS
  6
CONTINUOUS
 62
     2
 10
-235.9133149773084
 20
123.7047332533684
 30
0.0
 11
-211.9132824566463
 21
147.7047657740309
 31
0.0
  0
LINE
  5
1C1F7
  8
OS
  6
CONTINUOUS
 62
     2
 10
-226.0138200406968
 20
123.7047332533684
 30
0.0
 11
-202.01378752003461
 21
147.7047657740309
 31
0.0
  0
LINE
  5
1C1F8
  8
OS
  6
CONTINUOUS
 62
     2
 10
-216.11429258342301
 20
123.7047657740309
 30
0.0
 11
-192.11429258342301
 21
147.7047657740309
 31
0.0
  0
LINE
  5
1C1F9
  8
OS
  6
CONTINUOUS
 62
     2
 10
-206.21479764681101
 20
123.704765774031
 30
0.0
 11
-182.21479764681089
 21
147.7047657740309
 31
0.0
  0
LINE
  5
1C1FA
  8
OS
  6
CONTINUOUS
 62
     2
 10
-196.3153027101994
 20
123.704765774031
 30
0.0
 11
-187.3153027101994
 21
132.7047657740307
 31
0.0
  0
LINE
  5
1C1FB
  8
OS
  6
CONTINUOUS
 62
     2
 10
-179.8153027101994
 20
140.2047657740309
 30
0.0
 11
-177.76332064699551
 21
142.256747837235
 31
0.0
  0
LINE
  5
1C1FC
  8
OS
  6
CONTINUOUS
 62
     2
 10
-186.41580777358769
 20
123.7047657740309
 30
0.0
 11
-177.7633206469956
 21
132.35725290062331
 31
0.0
  0
LINE
  5
1C1FD
  8
KI
  6
CONTINUOUS
 62
     7
 10
-274.26332234007862
 20
-47.791388707097042
 30
0.0
 11
-246.2633223400789
 21
-47.791388707097042
 31
0.0
  0
LINE
  5
1C1FE
  8
KI
  6
CONTINUOUS
 62
     7
 10
-289.26331674903849
 20
-67.791388707097028
 30
0.0
 11
-274.26332234007862
 21
-47.791388707097042
 31
0.0
  0
LINE
  5
1C1FF
  8
KI
  6
CONTINUOUS
 62
     7
 10
-289.26331674903849
 20
-67.791388707097028
 30
0.0
 11
-289.26331674903849
 21
-82.791391534980733
 31
0.0
  0
LINE
  5
1C200
  8
KI
  6
CONTINUOUS
 62
     7
 10
-246.2633223400789
 20
-67.791388707097028
 30
0.0
 11
-179.26332063711641
 21
-67.791388707097028
 31
0.0
  0
LINE
  5
1C201
  8
KI
  6
CONTINUOUS
 62
     7
 10
-246.2633223400789
 20
-67.791388707097028
 30
0.0
 11
-246.2633223400789
 21
-47.791388707097042
 31
0.0
  0
LINE
  5
1C202
  8
KI
  6
CONTINUOUS
 62
     7
 10
-179.26332063711641
 20
-67.791388707097028
 30
0.0
 11
-179.26332063711641
 21
-82.791391534980733
 31
0.0
  0
LINE
  5
1C203
  8
KI
  6
CONTINUOUS
 62
     7
 10
-289.26331674903849
 20
-82.791391534980733
 30
0.0
 11
-179.26332063711641
 21
-82.791391534980733
 31
0.0
  0
LINE
  5
1C204
  8
KI
  6
CONTINUOUS
 62
     7
 10
-245.7633163398269
 20
-47.791353712036447
 30
0.0
 11
-243.53722360859831
 21
-47.791353712036027
 31
0.0
  0
ARC
  5
1C205
  8
KI
  6
CONTINUOUS
 62
     7
 10
-236.25529329017121
 20
-59.352229602186341
 30
0.0
 40
9.2190722294335075
 50
182.80468734044729
 51
234.37413182448421
  0
LINE
  5
1C206
  8
KI
  6
CONTINUOUS
 62
     7
 10
-246.06332233982701
 20
-52.452435273758333
 30
0.0
 11
-245.4633163398272
 21
-51.852429273758219
 31
0.0
  0
LINE
  5
1C207
  8
KI
  6
CONTINUOUS
 62
     7
 10
-245.4633163398268
 20
-54.541363712035782
 30
0.0
 11
-245.4633163398268
 21
-48.791353712036482
 31
0.0
  0
LINE
  5
1C208
  8
KI
  6
CONTINUOUS
 62
     7
 10
-246.2633223398272
 20
-57.791353712035573
 30
0.0
 11
-246.26332233982751
 21
-49.791353712036447
 31
0.0
  0
LINE
  5
1C209
  8
KI
  6
CONTINUOUS
 62
     7
 10
-246.26332233982811
 20
-52.652435273758613
 30
0.0
 11
-246.06332233982701
 21
-52.452435273758333
 31
0.0
  0
LINE
  5
1C20A
  8
KI
  6
CONTINUOUS
 62
     7
 10
-246.06332233982701
 20
-53.350460885865061
 30
0.0
 11
-245.4633163398274
 21
-52.750454885864919
 31
0.0
  0
LINE
  5
1C20B
  8
KI
  6
CONTINUOUS
 62
     7
 10
-246.26332233982811
 20
-53.550460885865782
 30
0.0
 11
-246.06332233982701
 21
-53.350460885865061
 31
0.0
  0
LINE
  5
1C20C
  8
KI
  6
CONTINUOUS
 62
     7
 10
-246.0633223398263
 20
-54.24848649797223
 30
0.0
 11
-245.4633163398268
 21
-53.648480497972102
 31
0.0
  0
LINE
  5
1C20D
  8
KI
  6
CONTINUOUS
 62
     7
 10
-246.2633223398272
 20
-54.44848649797251
 30
0.0
 11
-246.0633223398267
 21
-54.24848649797223
 31
0.0
  0
LINE
  5
1C20E
  8
KI
  6
CONTINUOUS
 62
     7
 10
-246.0633223398263
 20
-55.146512110078497
 30
0.0
 11
-245.70816394178351
 21
-54.791353712035573
 31
0.0
  0
LINE
  5
1C20F
  8
KI
  6
CONTINUOUS
 62
     7
 10
-245.70816394178351
 20
-54.791353712035573
 30
0.0
 11
-245.483951806108
 21
-54.56714157636025
 31
0.0
  0
LINE
  5
1C210
  8
KI
  6
CONTINUOUS
 62
     7
 10
-246.2633223398264
 20
-55.346512110079232
 30
0.0
 11
-246.0633223398267
 21
-55.146512110078973
 31
0.0
  0
LINE
  5
1C211
  8
KI
  6
CONTINUOUS
 62
     7
 10
-246.0633223398267
 20
-56.044537722186128
 30
0.0
 11
-245.46332233982741
 21
-55.444537722186681
 31
0.0
  0
LINE
  5
1C212
  8
KI
  6
CONTINUOUS
 62
     7
 10
-246.2633223398264
 20
-56.244537722185953
 30
0.0
 11
-246.0633223398267
 21
-56.044537722186128
 31
0.0
  0
LINE
  5
1C213
  8
KI
  6
CONTINUOUS
 62
     7
 10
-246.0633223398267
 20
-56.942563334292871
 30
0.0
 11
-245.4633223398269
 21
-56.342563334292947
 31
0.0
  0
LINE
  5
1C214
  8
KI
  6
CONTINUOUS
 62
     7
 10
-246.2633223398272
 20
-57.142563334293143
 30
0.0
 11
-246.0633223398267
 21
-56.942563334292871
 31
0.0
  0
LINE
  5
1C215
  8
KI
  6
CONTINUOUS
 62
     7
 10
-246.01408710546269
 20
-57.791353712035118
 30
0.0
 11
-245.4633223398269
 21
-57.240588946399662
 31
0.0
  0
LINE
  5
1C216
  8
KI
  6
CONTINUOUS
 62
     7
 10
-246.2633223398272
 20
-57.791353712035573
 30
0.0
 11
-245.4633223398269
 21
-57.791353712035573
 31
0.0
  0
LINE
  5
1C217
  8
KI
  6
CONTINUOUS
 62
     7
 10
-245.4633223398265
 20
-58.80333246430547
 30
0.0
 11
-245.4633223398269
 21
-55.04136371203623
 31
0.0
  0
LINE
  5
1C218
  8
KI
  6
CONTINUOUS
 62
     7
 10
-245.66332233982709
 20
-54.791363712035761
 30
0.0
 11
-245.4633223398269
 21
-54.54135371203602
 31
0.0
  0
LINE
  5
1C219
  8
KI
  6
CONTINUOUS
 62
     7
 10
-245.66331633982739
 20
-54.791363712035761
 30
0.0
 11
-245.4633223398269
 21
-55.04136371203623
 31
0.0
  0
ARC
  5
1C21A
  8
KI
  6
CONTINUOUS
 62
     7
 10
-245.76332233982711
 20
-59.503332464305743
 30
0.0
 40
0.3
 50
180.00000000034751
 51
270.0000000000847
  0
LINE
  5
1C21B
  8
KI
  6
CONTINUOUS
 62
     7
 10
-245.4633223398269
 20
-59.803332464305463
 30
0.0
 11
-245.76332233982711
 21
-59.803332464305932
 31
0.0
  0
ARC
  5
1C21C
  8
KI
  6
CONTINUOUS
 62
     7
 10
-245.76332233982981
 20
-59.103332464306099
 30
0.0
 40
0.3
 50
90.000000000084668
 51
180.00000000034751
  0
LINE
  5
1C21D
  8
KI
  6
CONTINUOUS
 62
     7
 10
-246.06332233982701
 20
-59.503332464305743
 30
0.0
 11
-246.06332233982951
 21
-59.103332464306099
 31
0.0
  0
LINE
  5
1C21E
  8
KI
  6
CONTINUOUS
 62
     7
 10
-245.76332233982981
 20
-58.803332464305917
 30
0.0
 11
-245.4633223398265
 21
-58.80333246430547
 31
0.0
  0
LINE
  5
1C21F
  8
KI
  6
CONTINUOUS
 62
     7
 10
-246.26332233982811
 20
-49.958358437438449
 30
0.0
 11
-246.09631761442429
 21
-49.791353712034642
 31
0.0
  0
LINE
  5
1C220
  8
KI
  6
CONTINUOUS
 62
     7
 10
-246.06332233982701
 20
-50.656384049543973
 30
0.0
 11
-245.4633163398272
 21
-50.056378049544328
 31
0.0
  0
LINE
  5
1C221
  8
KI
  6
CONTINUOUS
 62
     7
 10
-246.26332233982751
 20
-50.856384049544722
 30
0.0
 11
-246.06332233982701
 21
-50.656384049544442
 31
0.0
  0
LINE
  5
1C222
  8
KI
  6
CONTINUOUS
 62
     7
 10
-246.06332233982701
 20
-51.554409661651619
 30
0.0
 11
-245.4633163398272
 21
-50.95440366165149
 31
0.0
  0
LINE
  5
1C223
  8
KI
  6
CONTINUOUS
 62
     7
 10
-246.26332233982811
 20
-51.754409661651891
 30
0.0
 11
-246.06332233982701
 21
-51.554409661651619
 31
0.0
  0
LINE
  5
1C224
  8
KI
  6
CONTINUOUS
 62
     7
 10
-246.26332233982751
 20
-49.791353712036447
 30
0.0
 11
-245.4633163398268
 21
-49.791353712035111
 31
0.0
  0
ARC
  5
1C225
  8
KI
  6
CONTINUOUS
 62
     7
 10
-245.76332233982981
 20
-48.4913537120363
 30
0.0
 40
0.3
 50
180.00000000034751
 51
270.0000000000847
  0
ARC
  5
1C226
  8
KI
  6
CONTINUOUS
 62
     7
 10
-245.76332233983169
 20
-48.091353712036657
 30
0.0
 40
0.3
 50
90.000000000084668
 51
180.00000000034751
  0
LINE
  5
1C227
  8
KI
  6
CONTINUOUS
 62
     7
 10
-246.06332233982911
 20
-48.4913537120363
 30
0.0
 11
-246.0633223398319
 21
-48.091353712036657
 31
0.0
  0
LINE
  5
1C228
  8
KI
  6
CONTINUOUS
 62
     7
 10
-245.4633163398268
 20
-48.791353712036482
 30
0.0
 11
-245.76332233982981
 21
-48.791353712036482
 31
0.0
  0
ARC
  5
1C229
  8
KI
  6
CONTINUOUS
 62
     7
 10
-259.78410580495529
 20
-62.0079448819859
 30
0.0
 40
24.521586859558742
 50
356.28881364656843
 51
30.70307659906543
  0
ARC
  5
1C22A
  8
KI
  6
CONTINUOUS
 62
     7
 10
-259.78410580495529
 20
-62.0079448819859
 30
0.0
 40
23.321944298558741
 50
356.28881364656843
 51
31.589100606041391
  0
LINE
  5
1C22B
  8
KI
  6
CONTINUOUS
 62
     7
 10
-243.4633529085103
 20
-60.303176778095171
 30
0.0
 11
-243.4633529085103
 21
-50.291353712035573
 31
0.0
  0
LINE
  5
1C22C
  8
KI
  6
CONTINUOUS
 62
     7
 10
-242.6476639069715
 20
-63.348072118356697
 30
0.0
 11
-242.64766414807369
 21
-63.348071921929026
 31
0.0
  0
ARC
  5
1C22D
  8
KI
  6
CONTINUOUS
 62
     7
 10
-240.34586046944389
 20
-67.29503080662046
 30
0.0
 40
0.3
 50
163.71693705722981
 51
347.14909562687671
  0
ARC
  5
1C22E
  8
KI
  6
CONTINUOUS
 62
     7
 10
-241.46131182060211
 20
-65.934200068127495
 30
0.0
 40
0.5
 50
49.327411972635872
 51
65.442606426039717
  0
ARC
  5
1C22F
  8
KI
  6
CONTINUOUS
 62
     7
 10
-237.67931746363061
 20
-57.657336806604071
 30
0.0
 40
10.0
 50
250.1968242058378
 51
252.81541990369061
  0
ARC
  5
1C230
  8
KI
  6
CONTINUOUS
 62
     7
 10
-241.34792045925909
 20
-66.960097260386931
 30
0.0
 40
0.3
 50
157.61329912440891
 51
339.33735528098322
  0
ARC
  5
1C231
  8
KI
  6
CONTINUOUS
 62
     7
 10
-239.3105842890333
 20
-63.431327501464523
 30
0.0
 40
4.0
 50
334.298191253742
 51
357.65265816413881
  0
ARC
  5
1C232
  8
KI
  6
CONTINUOUS
 62
     7
 10
-237.6793104258528
 20
-57.657336806594493
 30
0.0
 40
8.7999999999999972
 50
254.19808653013209
 51
254.2239622526468
  0
ARC
  5
1C233
  8
KI
  6
CONTINUOUS
 62
     7
 10
-235.84648267389559
 20
-65.431327501463613
 30
0.0
 40
0.3
 50
237.85090437317311
 51
62.149095626860827
  0
ARC
  5
1C234
  8
KI
  6
CONTINUOUS
 62
     7
 10
-239.3105842890333
 20
-63.431327501464523
 30
0.0
 40
4.0
 50
319.29819125370648
 51
325.70180874629222
  0
ARC
  5
1C235
  8
KI
  6
CONTINUOUS
 62
     7
 10
-236.4821571642884
 20
-66.259754626211659
 30
0.0
 40
0.3
 50
222.850904373123
 51
47.149095626853317
  0
ARC
  5
1C236
  8
KI
  6
CONTINUOUS
 62
     7
 10
-239.31058428903151
 20
-67.431327501464523
 30
0.0
 40
0.3
 50
177.85090437321941
 51
2.1490956268587862
  0
ARC
  5
1C237
  8
KI
  6
CONTINUOUS
 62
     7
 10
-238.27530810862081
 20
-67.295030806619991
 30
0.0
 40
0.3
 50
192.85090437317751
 51
17.149095626929501
  0
ARC
  5
1C238
  8
KI
  6
CONTINUOUS
 62
     7
 10
-239.3105842890333
 20
-63.431327501464523
 30
0.0
 40
4.0
 50
289.29819125377412
 51
295.70180874626232
  0
ARC
  5
1C239
  8
KI
  6
CONTINUOUS
 62
     7
 10
-237.3105842890339
 20
-66.895429116602656
 30
0.0
 40
0.3
 50
207.85090437311331
 51
32.149095626882911
  0
ARC
  5
1C23A
  8
KI
  6
CONTINUOUS
 62
     7
 10
-239.3105842890333
 20
-63.431327501464523
 30
0.0
 40
4.0
 50
304.29819125372239
 51
310.70180874624589
  0
ARC
  5
1C23B
  8
KI
  6
CONTINUOUS
 62
     7
 10
-239.3105842890333
 20
-63.431327501464523
 30
0.0
 40
4.0
 50
259.29819125371631
 51
265.7018087463
  0
ARC
  5
1C23C
  8
KI
  6
CONTINUOUS
 62
     7
 10
-239.3105842890333
 20
-63.431327501486791
 30
0.0
 40
4.0
 50
274.29819125375832
 51
280.7018087463199
  0
ARC
  5
1C23D
  8
KI
  6
CONTINUOUS
 62
     7
 10
-239.3105842890333
 20
-63.431327501464523
 30
0.0
 40
2.799999999999998
 50
229.3274119726444
 51
357.65265816413881
  0
ARC
  5
1C23E
  8
KI
  6
CONTINUOUS
 62
     7
 10
-236.2144298268455
 20
-60.26830681587608
 30
0.0
 40
7.2490069497939373
 50
180.2756114576494
 51
225.96157026527919
  0
ARC
  5
1C23F
  8
KI
  6
CONTINUOUS
 62
     7
 10
-238.26992349042769
 20
-49.232195655122091
 30
0.0
 40
0.5
 50
116.01906736229211
 51
210.7030765990653
  0
ARC
  5
1C240
  8
KI
  6
CONTINUOUS
 62
     7
 10
-241.681159214178
 20
-42.244029310484898
 30
0.0
 40
7.2763100519022599
 50
296.01906736229222
 51
331.88676723363841
  0
ARC
  5
1C241
  8
KI
  6
CONTINUOUS
 62
     7
 10
-241.681159214178
 20
-42.244029310484898
 30
0.0
 40
5.776310051902259
 50
286.18682820039709
 51
331.88676723363841
  0
LINE
  5
1C242
  8
KI
  6
CONTINUOUS
 62
     7
 10
-243.53722360859831
 20
-47.791353712035111
 30
0.0
 11
-240.07089532287009
 21
-47.79135371203693
 31
0.0
  0
LINE
  5
1C243
  8
KI
  6
CONTINUOUS
 62
     7
 10
-242.96335290851039
 20
-49.791353712035573
 30
0.0
 11
-239.9178533639089
 21
-49.791353712035573
 31
0.0
  0
ARC
  5
1C244
  8
KI
  6
CONTINUOUS
 62
     7
 10
-242.96335290851039
 20
-50.291353712035573
 30
0.0
 40
0.5
 50
89.999999999996732
 51
180.0
  0
ARC
  5
1C245
  8
KI
  6
CONTINUOUS
 62
     7
 10
-235.97438510941541
 20
-45.412074312828999
 30
0.0
 40
0.7573354118943643
 50
339.86775998205133
 51
143.90577448522509
  0
LINE
  5
1C246
  8
SU
  6
CONTINUOUS
 62
     3
 10
-358.76332064699562
 20
-82.791390896383817
 30
0.0
 11
-374.76332064699488
 21
-82.791390896383817
 31
0.0
  0
LINE
  5
1C247
  8
SU
  6
CONTINUOUS
 62
     3
 10
-275.26332234007862
 20
-47.791388707097042
 30
0.0
 11
-374.76332064699488
 21
-47.791388707096999
 31
0.0
  0
LINE
  5
1C248
  8
SU
  6
CONTINUOUS
 62
     3
 10
-371.76332064699471
 20
-82.791390896383817
 30
0.0
 11
-371.76332064699471
 21
-47.791388707096999
 31
0.0
  0
LINE
  5
1C249
  8
SU
  6
CONTINUOUS
 62
     3
 10
253.016219887055
 20
-181.2968680277138
 30
0.0
 11
263.016219887055
 21
-175.2968680277138
 31
0.0
  0
LINE
  5
1C24A
  8
SU
  6
CONTINUOUS
 62
     3
 10
253.016219887055
 20
-169.2968680277138
 30
0.0
 11
263.016219887055
 21
-175.2968680277138
 31
0.0
  0
LINE
  5
1C24B
  8
SU
  6
CONTINUOUS
 62
     3
 10
253.016219887055
 20
-181.2968680277138
 30
0.0
 11
253.016219887055
 21
-169.2968680277138
 31
0.0
  0
LINE
  5
1C24C
  8
SU
  6
CONTINUOUS
 62
     3
 10
239.01621987146791
 20
-160.2968680277138
 30
0.0
 11
263.01621988705512
 21
-160.2968680277138
 31
0.0
  0
LINE
  5
1C24D
  8
SU
  6
CONTINUOUS
 62
     3
 10
58.016219887055122
 20
-33.296866315266492
 30
0.0
 11
80.016219887055129
 21
-33.296866315266492
 31
0.0
  0
LINE
  5
1C24E
  8
SU
  6
CONTINUOUS
 62
     3
 10
58.016219887055122
 20
-9.2968687896646145
 30
0.0
 11
80.016219887055129
 21
-9.2968687896646216
 31
0.0
  0
LINE
  5
1C24F
  8
SU
  6
CONTINUOUS
 62
     3
 10
77.016219887055144
 20
-33.296866315266492
 30
0.0
 11
77.016219887055144
 21
-9.2968687896646216
 31
0.0
  0
LINE
  5
1C250
  8
SU
  6
CONTINUOUS
 62
     3
 10
77.016219887055144
 20
-44.296866315266477
 30
0.0
 11
77.016219887055144
 21
-33.296866315266492
 31
0.0
  0
LINE
  5
1C251
  8
SU
  6
CONTINUOUS
 62
     3
 10
77.016219887055144
 20
-44.296866315266477
 30
0.0
 11
77.016219887055144
 21
-94.296868027712463
 31
0.0
  0
LINE
  5
1C252
  8
KI
  6
CONTINUOUS
 62
     7
 10
32.516219887055144
 20
-15.2968687896646
 30
0.0
 11
32.516219887055144
 21
-27.296866315266929
 31
0.0
  0
LINE
  5
1C253
  8
KI
  6
CONTINUOUS
 62
     7
 10
32.516219887055144
 20
-27.296866315266929
 30
0.0
 11
37.016219887055129
 21
-27.296866315266929
 31
0.0
  0
LINE
  5
1C254
  8
KI
  6
CONTINUOUS
 62
     7
 10
37.016219887055129
 20
-27.29686631526652
 30
0.0
 11
37.016219887055129
 21
-33.296866315266492
 31
0.0
  0
LINE
  5
1C255
  8
KI
  6
CONTINUOUS
 62
     7
 10
32.516219887055144
 20
-15.2968687896646
 30
0.0
 11
37.016219887055129
 21
-15.2968687896646
 31
0.0
  0
LINE
  5
1C256
  8
KI
  6
CONTINUOUS
 62
     7
 10
37.016219887055129
 20
-9.2968687896646163
 30
0.0
 11
37.016219887055129
 21
-15.296868789664581
 31
0.0
  0
LINE
  5
1C257
  8
KI
  6
CONTINUOUS
 62
     7
 10
37.016219887055129
 20
-9.2968687896646163
 30
0.0
 11
57.016219887055151
 21
-9.2968687896646216
 31
0.0
  0
LINE
  5
1C258
  8
KI
  6
CONTINUOUS
 62
     7
 10
57.016219887055151
 20
-9.2968687896646216
 30
0.0
 11
57.016219887055151
 21
-33.296866315266492
 31
0.0
  0
LINE
  5
1C259
  8
KI
  6
CONTINUOUS
 62
     7
 10
37.016219887055129
 20
-33.296866315266492
 30
0.0
 11
57.016219887055151
 21
-33.296866315266492
 31
0.0
  0
LINE
  5
1C25A
  8
KI
  6
CONTINUOUS
 62
     7
 10
57.01625488211571
 20
-33.796872315267173
 30
0.0
 11
57.016254882116151
 21
-36.022965046495791
 31
0.0
  0
ARC
  5
1C25B
  8
KI
  6
CONTINUOUS
 62
     7
 10
45.455378991965802
 20
-43.304895364922707
 30
0.0
 40
9.2190722294335075
 50
92.804687340448481
 51
144.37413182448279
  0
LINE
  5
1C25C
  8
KI
  6
CONTINUOUS
 62
     7
 10
54.849250156713737
 20
-33.296866315266051
 30
0.0
 11
55.016254882117522
 21
-33.463871040669829
 31
0.0
  0
LINE
  5
1C25D
  8
KI
  6
CONTINUOUS
 62
     7
 10
54.151224544608212
 20
-33.496866315266772
 30
0.0
 11
54.751230544607409
 21
-34.0968723152669
 31
0.0
  0
LINE
  5
1C25E
  8
KI
  6
CONTINUOUS
 62
     7
 10
53.951224544607001
 20
-33.296866315266492
 30
0.0
 11
54.15122454460775
 21
-33.496866315266772
 31
0.0
  0
LINE
  5
1C25F
  8
KI
  6
CONTINUOUS
 62
     7
 10
53.253198932500567
 20
-33.496866315266772
 30
0.0
 11
53.853204932500688
 21
-34.0968723152669
 31
0.0
  0
LINE
  5
1C260
  8
KI
  6
CONTINUOUS
 62
     7
 10
53.053198932500287
 20
-33.296866315266051
 30
0.0
 11
53.253198932500567
 21
-33.496866315266772
 31
0.0
  0
LINE
  5
1C261
  8
KI
  6
CONTINUOUS
 62
     7
 10
52.355173320393853
 20
-33.496866315266772
 30
0.0
 11
52.955179320393967
 21
-34.0968723152669
 31
0.0
  0
LINE
  5
1C262
  8
KI
  6
CONTINUOUS
 62
     7
 10
52.155173320393573
 20
-33.296866315266037
 30
0.0
 11
52.355173320393853
 21
-33.496866315266772
 31
0.0
  0
LINE
  5
1C263
  8
KI
  6
CONTINUOUS
 62
     7
 10
51.457147708286641
 20
-33.496866315266772
 30
0.0
 11
52.057153708287231
 21
-34.096872315266431
 31
0.0
  0
LINE
  5
1C264
  8
KI
  6
CONTINUOUS
 62
     7
 10
51.257147708286404
 20
-33.296866315266037
 30
0.0
 11
51.457147708286641
 21
-33.496866315266772
 31
0.0
  0
LINE
  5
1C265
  8
KI
  6
CONTINUOUS
 62
     7
 10
50.559122096179927
 20
-33.496866315267667
 30
0.0
 11
51.1591280961796
 21
-34.096872315267348
 31
0.0
  0
LINE
  5
1C266
  8
KI
  6
CONTINUOUS
 62
     7
 10
50.35912209617922
 20
-33.296866315266954
 30
0.0
 11
50.559122096179927
 21
-33.496866315267212
 31
0.0
  0
LINE
  5
1C267
  8
KI
  6
CONTINUOUS
 62
     7
 10
49.661096484073212
 20
-33.496866315267667
 30
0.0
 11
50.016254882116613
 21
-33.852024713310598
 31
0.0
  0
LINE
  5
1C268
  8
KI
  6
CONTINUOUS
 62
     7
 10
50.016254882116613
 20
-33.852024713310598
 30
0.0
 11
50.24046701779146
 21
-34.076236848985928
 31
0.0
  0
LINE
  5
1C269
  8
KI
  6
CONTINUOUS
 62
     7
 10
49.461096484072947
 20
-33.296866315267401
 30
0.0
 11
49.661096484073212
 21
-33.496866315267212
 31
0.0
  0
LINE
  5
1C26A
  8
KI
  6
CONTINUOUS
 62
     7
 10
48.76307087196605
 20
-33.496866315267212
 30
0.0
 11
49.363070871965029
 21
-34.096866315266681
 31
0.0
  0
LINE
  5
1C26B
  8
KI
  6
CONTINUOUS
 62
     7
 10
48.563070871966218
 20
-33.296866315267401
 30
0.0
 11
48.76307087196605
 21
-33.496866315267212
 31
0.0
  0
LINE
  5
1C26C
  8
KI
  6
CONTINUOUS
 62
     7
 10
47.865045259858853
 20
-33.496866315267212
 30
0.0
 11
48.465045259859238
 21
-34.096866315267121
 31
0.0
  0
LINE
  5
1C26D
  8
KI
  6
CONTINUOUS
 62
     7
 10
47.665045259859042
 20
-33.296866315266954
 30
0.0
 11
47.865045259858853
 21
-33.496866315267212
 31
0.0
  0
LINE
  5
1C26E
  8
KI
  6
CONTINUOUS
 62
     7
 10
47.016254882116613
 20
-33.546101549631231
 30
0.0
 11
47.567019647752517
 21
-34.096866315267121
 31
0.0
  0
LINE
  5
1C26F
  8
KI
  6
CONTINUOUS
 62
     7
 10
47.016254882116613
 20
-33.296866315266954
 30
0.0
 11
47.016254882116613
 21
-34.096866315267121
 31
0.0
  0
LINE
  5
1C270
  8
KI
  6
CONTINUOUS
 62
     7
 10
55.01625488211571
 20
-33.296866315266492
 30
0.0
 11
55.016254882116613
 21
-34.096872315267348
 31
0.0
  0
LINE
  5
1C271
  8
KI
  6
CONTINUOUS
 62
     7
 10
46.004276129846701
 20
-34.09686631526759
 30
0.0
 11
49.766244882115927
 21
-34.096866315267121
 31
0.0
  0
LINE
  5
1C272
  8
KI
  6
CONTINUOUS
 62
     7
 10
50.016244882116389
 20
-33.896866315266863
 30
0.0
 11
50.266254882116158
 21
-34.096866315267121
 31
0.0
  0
LINE
  5
1C273
  8
KI
  6
CONTINUOUS
 62
     7
 10
50.016244882116389
 20
-33.89687231526662
 30
0.0
 11
49.766244882115927
 21
-34.096866315267121
 31
0.0
  0
LINE
  5
1C274
  8
KI
  6
CONTINUOUS
 62
     7
 10
50.266244882116389
 20
-34.096872315267348
 30
0.0
 11
56.01625488211571
 21
-34.096872315267348
 31
0.0
  0
ARC
  5
1C275
  8
KI
  6
CONTINUOUS
 62
     7
 10
45.304276129846443
 20
-33.796866315266954
 30
0.0
 40
0.3
 50
90.000000000348507
 51
180.000000000086
  0
LINE
  5
1C276
  8
KI
  6
CONTINUOUS
 62
     7
 10
45.004276129846723
 20
-34.096866315267121
 30
0.0
 11
45.004276129846247
 21
-33.796866315266954
 31
0.0
  0
ARC
  5
1C277
  8
KI
  6
CONTINUOUS
 62
     7
 10
45.704276129845617
 20
-33.796866315264211
 30
0.0
 40
0.3
 50
0.0000000000863075
 51
90.000000000348507
  0
LINE
  5
1C278
  8
KI
  6
CONTINUOUS
 62
     7
 10
45.304276129846443
 20
-33.496866315266772
 30
0.0
 11
45.704276129845617
 21
-33.496866315264491
 31
0.0
  0
ARC
  5
1C279
  8
KI
  6
CONTINUOUS
 62
     7
 10
56.316254882115892
 20
-33.796866315264232
 30
0.0
 40
0.3
 50
90.000000000348507
 51
180.000000000086
  0
ARC
  5
1C27A
  8
KI
  6
CONTINUOUS
 62
     7
 10
56.716254882115528
 20
-33.796866315262399
 30
0.0
 40
0.3
 50
0.0000000000863075
 51
90.000000000348507
  0
LINE
  5
1C27B
  8
KI
  6
CONTINUOUS
 62
     7
 10
56.316254882115892
 20
-33.49686631526496
 30
0.0
 11
56.716254882115528
 21
-33.496866315262231
 31
0.0
  0
LINE
  5
1C27C
  8
KI
  6
CONTINUOUS
 62
     7
 10
56.01625488211571
 20
-34.096872315267348
 30
0.0
 11
56.01625488211571
 21
-33.796866315264232
 31
0.0
  0
LINE
  5
1C27D
  8
KI
  6
CONTINUOUS
 62
     7
 10
46.004276129846261
 20
-33.796866315264211
 30
0.0
 11
46.004276129846701
 21
-34.09686631526759
 31
0.0
  0
LINE
  5
1C27E
  8
KI
  6
CONTINUOUS
 62
     7
 10
47.016254882116613
 20
-33.296866315266954
 30
0.0
 11
55.01625488211571
 21
-33.296866315266492
 31
0.0
  0
ARC
  5
1C27F
  8
KI
  6
CONTINUOUS
 62
     7
 10
55.575412939030088
 20
-41.290265164666401
 30
0.0
 40
0.5
 50
26.019067362292621
 51
120.7030765990647
  0
ARC
  5
1C280
  8
KI
  6
CONTINUOUS
 62
     7
 10
62.563579283667281
 20
-37.879029440915957
 30
0.0
 40
7.2763100519022599
 50
206.0190673622925
 51
241.88676723364111
  0
ARC
  5
1C281
  8
KI
  6
CONTINUOUS
 62
     7
 10
42.799663712166279
 20
-19.776082850138671
 30
0.0
 40
24.521586859558742
 50
266.28881364656843
 51
300.70307659906382
  0
ARC
  5
1C282
  8
KI
  6
CONTINUOUS
 62
     7
 10
62.563579283667281
 20
-37.879029440915957
 30
0.0
 40
5.776310051902259
 50
196.18682820039569
 51
241.88676723364111
  0
LINE
  5
1C283
  8
KI
  6
CONTINUOUS
 62
     7
 10
57.01625488211706
 20
-36.022965046495791
 30
0.0
 11
57.016254882115248
 21
-39.48929333222398
 31
0.0
  0
ARC
  5
1C284
  8
KI
  6
CONTINUOUS
 62
     7
 10
42.799663712166279
 20
-19.776082850138671
 30
0.0
 40
23.321944298558741
 50
266.28881364656843
 51
301.58910060604359
  0
LINE
  5
1C285
  8
KI
  6
CONTINUOUS
 62
     7
 10
55.016254882116613
 20
-36.596835746583601
 30
0.0
 11
55.016254882116613
 21
-39.642335291185212
 31
0.0
  0
LINE
  5
1C286
  8
KI
  6
CONTINUOUS
 62
     7
 10
41.459536475795481
 20
-36.912524748122479
 30
0.0
 11
41.459536672222683
 21
-36.9125245070204
 31
0.0
  0
LINE
  5
1C287
  8
KI
  6
CONTINUOUS
 62
     7
 10
44.504431816057007
 20
-36.096835746583587
 30
0.0
 11
54.516254882116613
 21
-36.096835746583601
 31
0.0
  0
ARC
  5
1C288
  8
KI
  6
CONTINUOUS
 62
     7
 10
54.516254882116613
 20
-36.596835746583601
 30
0.0
 40
0.5
 50
359.99999999999829
 51
90.0
  0
ARC
  5
1C289
  8
KI
  6
CONTINUOUS
 62
     7
 10
37.51257778753174
 20
-39.214328185650203
 30
0.0
 40
0.3
 50
73.716937057229572
 51
257.14909562687677
  0
ARC
  5
1C28A
  8
KI
  6
CONTINUOUS
 62
     7
 10
38.873408526024683
 20
-38.098876834491897
 30
0.0
 40
0.5
 50
319.32741197263852
 51
335.44260642604002
  0
ARC
  5
1C28B
  8
KI
  6
CONTINUOUS
 62
     7
 10
47.150271787548107
 20
-41.880871191463491
 30
0.0
 40
10.0
 50
160.196824205838
 51
162.81541990369081
  0
ARC
  5
1C28C
  8
KI
  6
CONTINUOUS
 62
     7
 10
37.84751133376524
 20
-38.212268195834923
 30
0.0
 40
0.3
 50
67.613299124407419
 51
249.3373552809833
  0
ARC
  5
1C28D
  8
KI
  6
CONTINUOUS
 62
     7
 10
41.376281092687663
 20
-40.249604366060822
 30
0.0
 40
4.0
 50
244.29819125374479
 51
267.65265816413881
  0
ARC
  5
1C28E
  8
KI
  6
CONTINUOUS
 62
     7
 10
47.150271787557642
 20
-41.88087822924129
 30
0.0
 40
8.7999999999999972
 50
164.19808653013251
 51
164.22396225264819
  0
ARC
  5
1C28F
  8
KI
  6
CONTINUOUS
 62
     7
 10
39.376281092688529
 20
-43.713705981198487
 30
0.0
 40
0.3
 50
147.8509043731726
 51
332.1490956268604
  0
ARC
  5
1C290
  8
KI
  6
CONTINUOUS
 62
     7
 10
41.376281092687663
 20
-40.249604366060822
 30
0.0
 40
4.0
 50
229.29819125370301
 51
235.70180874629281
  0
ARC
  5
1C291
  8
KI
  6
CONTINUOUS
 62
     7
 10
38.547853967940533
 20
-43.078031490805671
 30
0.0
 40
0.3
 50
132.85090437312351
 51
317.14909562685312
  0
ARC
  5
1C292
  8
KI
  6
CONTINUOUS
 62
     7
 10
37.376281092687648
 20
-40.249604366062641
 30
0.0
 40
0.3
 50
87.850904373219379
 51
272.14909562685881
  0
ARC
  5
1C293
  8
KI
  6
CONTINUOUS
 62
     7
 10
37.512577787532187
 20
-41.284880546473261
 30
0.0
 40
0.3
 50
102.85090437317641
 51
287.14909562692998
  0
ARC
  5
1C294
  8
KI
  6
CONTINUOUS
 62
     7
 10
41.376281092687663
 20
-40.249604366060822
 30
0.0
 40
4.0
 50
199.29819125377281
 51
205.701808746263
  0
ARC
  5
1C295
  8
KI
  6
CONTINUOUS
 62
     7
 10
37.912179477549522
 20
-42.249604366059877
 30
0.0
 40
0.3
 50
117.8509043731132
 51
302.14909562688081
  0
ARC
  5
1C296
  8
KI
  6
CONTINUOUS
 62
     7
 10
41.376281092687663
 20
-40.249604366060822
 30
0.0
 40
4.0
 50
214.2981912537214
 51
220.70180874624359
  0
ARC
  5
1C297
  8
KI
  6
CONTINUOUS
 62
     7
 10
41.376281092687663
 20
-40.249604366060822
 30
0.0
 40
4.0
 50
169.29819125371779
 51
175.7018087463002
  0
ARC
  5
1C298
  8
KI
  6
CONTINUOUS
 62
     7
 10
41.376281092664932
 20
-40.249604366060822
 30
0.0
 40
4.0
 50
184.2981912537584
 51
190.70180874632001
  0
ARC
  5
1C299
  8
KI
  6
CONTINUOUS
 62
     7
 10
41.376281092687663
 20
-40.249604366060822
 30
0.0
 40
2.799999999999998
 50
139.32741197264451
 51
267.65265816413881
  0
ARC
  5
1C29A
  8
KI
  6
CONTINUOUS
 62
     7
 10
44.539301778276091
 20
-43.345758828248599
 30
0.0
 40
7.2490069497939373
 50
90.275611457649703
 51
135.96157026528149
  0
ARC
  5
1C29B
  8
KI
  6
CONTINUOUS
 62
     7
 10
59.395534281322711
 20
-43.585803545678608
 30
0.0
 40
0.7573354118943643
 50
249.86775998205039
 51
53.905774485226729
  0
ARC
  5
1C29C
  8
KI
  6
CONTINUOUS
 62
     7
 10
58.066666621980723
 20
-26.797373688680668
 30
0.0
 40
2.5000001067820641
 50
268.84468078613151
 51
348.4749145507817
  0
LINE
  5
1C29D
  8
KI
  6
CONTINUOUS
 62
     7
 10
58.01623873961293
 20
-29.2968608991055
 30
0.0
 11
57.01625488211571
 21
-29.2968608991055
 31
0.0
  0
LINE
  5
1C29E
  8
KI
  6
DASHED2
 62
     7
 10
59.016257592171172
 20
-26.796866260301641
 30
0.0
 11
58.01623873961293
 21
-28.046872328468481
 31
0.0
  0
LINE
  5
1C29F
  8
KI
  6
DASHED2
 62
     7
 10
57.016219887055151
 20
-26.796866256352612
 30
0.0
 11
58.01623873961293
 21
-28.046872324519448
 31
0.0
  0
LINE
  5
1C2A0
  8
KI
  6
DASHED2
 62
     7
 10
59.016257592171172
 20
-15.796868852527981
 30
0.0
 11
59.016257592171172
 21
-26.796866260301641
 31
0.0
  0
LINE
  5
1C2A1
  8
KI
  6
DASHED2
 62
     7
 10
58.01623873961293
 20
-14.54686278436114
 30
0.0
 11
58.01623873961293
 21
-28.046872328468481
 31
0.0
  0
LINE
  5
1C2A2
  8
KI
  6
DASHED2
 62
     7
 10
58.01623873961293
 20
-14.54686278436114
 30
0.0
 11
57.01625488211571
 21
-15.796868852527981
 31
0.0
  0
LINE
  5
1C2A3
  8
KI
  6
DASHED2
 62
     7
 10
58.01623873961293
 20
-14.54686278436114
 30
0.0
 11
59.016257592171172
 21
-15.796868852527981
 31
0.0
  0
LINE
  5
1C2A4
  8
KI
  6
CONTINUOUS
 62
     7
 10
60.516250875947073
 20
-27.296875686580311
 30
0.0
 11
60.516250875947073
 21
-15.29685942624932
 31
0.0
  0
ARC
  5
1C2A5
  8
KI
  6
CONTINUOUS
 62
     7
 10
58.066666621980723
 20
-15.79636142414896
 30
0.0
 40
2.5000001067820641
 50
11.52507019042889
 51
91.155303955076519
  0
LINE
  5
1C2A6
  8
KI
  6
CONTINUOUS
 62
     7
 10
58.01623873961293
 20
-13.29687421372458
 30
0.0
 11
57.01625488211571
 21
-13.29687421372458
 31
0.0
  0
ARC
  5
1C2A7
  8
KI
  6
CONTINUOUS
 62
     7
 10
44.068444036709771
 20
-83.466532560675233
 30
0.0
 40
16.06232918379629
 50
100.9541706765956
 51
116.0435154452659
  0
LINE
  5
1C2A8
  8
KI
  6
CONTINUOUS
 62
     7
 10
41.016219887055129
 20
-67.696867169523131
 30
0.0
 11
42.080226746727959
 21
-67.696867169523117
 31
0.0
  0
LINE
  5
1C2A9
  8
KI
  6
DASHED2
 62
     7
 10
28.01621988705514
 20
-82.896867169523375
 30
0.0
 11
37.016219887055129
 21
-82.896867169523375
 31
0.0
  0
ARC
  5
1C2AA
  8
KI
  6
DASHED2
 62
     7
 10
44.068444036709771
 20
-83.466532560675233
 30
0.0
 40
16.06232918379629
 50
116.0435154452659
 51
177.96752584043799
  0
LINE
  5
1C2AB
  8
KI
  6
CONTINUOUS
 62
     7
 10
37.016219887055129
 20
-82.896867169523375
 30
0.0
 11
41.472225943646798
 21
-82.896867169523418
 31
0.0
  0
LINE
  5
1C2AC
  8
KI
  6
DASHED2
 62
     7
 10
57.01625488211571
 20
-22.346859355552649
 30
0.0
 11
59.016257592171172
 21
-23.845592817146109
 31
0.0
  0
LINE
  5
1C2AD
  8
KI
  6
DASHED2
 62
     7
 10
57.01625488211571
 20
-20.246875757277849
 30
0.0
 11
59.016257592171172
 21
-18.748142295684382
 31
0.0
  0
LINE
  5
1C2AE
  8
KI
  6
DASHED2
 62
     7
 10
33.272316215142688
 20
-20.136396346920272
 30
0.0
 11
35.088944807497541
 21
-22.585473172507601
 31
0.0
  0
LINE
  5
1C2AF
  8
KI
  6
DASHED2
 62
     7
 10
32.1621679067824
 20
-20.136396346920272
 30
0.0
 11
33.978796499137687
 21
-22.585473172507601
 31
0.0
  0
LINE
  5
1C2B0
  8
KI
  6
DASHED2
 62
     7
 10
31.051984603362001
 20
-20.136396346920272
 30
0.0
 11
32.86861319571684
 21
-22.585473172507601
 31
0.0
  0
LINE
  5
1C2B1
  8
KI
  6
DASHED2
 62
     7
 10
29.941836295002162
 20
-20.136396346920272
 30
0.0
 11
31.758464887357
 21
-22.585473172507601
 31
0.0
  0
LINE
  5
1C2B2
  8
KI
  6
DASHED2
 62
     7
 10
28.83168798664186
 20
-20.136396346920272
 30
0.0
 11
30.64831657899671
 21
-22.585473172507601
 31
0.0
  0
LINE
  5
1C2B3
  8
KI
  6
DASHED2
 62
     7
 10
27.721504683221472
 20
-20.136396346920272
 30
0.0
 11
29.53813327557631
 21
-22.585473172507601
 31
0.0
  0
LINE
  5
1C2B4
  8
KI
  6
DASHED2
 62
     7
 10
26.611356374861622
 20
-20.136396346920272
 30
0.0
 11
28.42798496721602
 21
-22.585473172507601
 31
0.0
  0
LINE
  5
1C2B5
  8
KI
  6
DASHED2
 62
     7
 10
25.501208066501331
 20
-20.136396346920272
 30
0.0
 11
27.317836658856169
 21
-22.585473172507601
 31
0.0
  0
LINE
  5
1C2B6
  8
KI
  6
DASHED2
 62
     7
 10
24.391024763080932
 20
-20.136396346920272
 30
0.0
 11
26.207653355435781
 21
-22.585473172507601
 31
0.0
  0
LINE
  5
1C2B7
  8
KI
  6
DASHED2
 62
     7
 10
23.280876454721088
 20
-20.136396346920272
 30
0.0
 11
25.09750504707549
 21
-22.585473172507601
 31
0.0
  0
LINE
  5
1C2B8
  8
KI
  6
DASHED2
 62
     7
 10
22.170693151300231
 20
-20.136396346920272
 30
0.0
 11
23.987321743655091
 21
-22.585473172507601
 31
0.0
  0
LINE
  5
1C2B9
  8
KI
  6
DASHED2
 62
     7
 10
36.602796135283221
 20
-20.136396346920289
 30
0.0
 11
38.419424727638052
 21
-22.585473172507601
 31
0.0
  0
LINE
  5
1C2BA
  8
KI
  6
DASHED2
 62
     7
 10
35.492647826922934
 20
-20.136396346920272
 30
0.0
 11
37.30927641927822
 21
-22.585473172507601
 31
0.0
  0
LINE
  5
1C2BB
  8
KI
  6
DASHED2
 62
     7
 10
34.38249951856308
 20
-20.136396346920272
 30
0.0
 11
36.199128110917933
 21
-22.585473172507601
 31
0.0
  0
LINE
  5
1C2BC
  8
KI
  6
DASHED2
 62
     7
 10
39.933311050484321
 20
-20.136396346920289
 30
0.0
 11
41.749904647778592
 21
-22.585473172507601
 31
0.0
  0
LINE
  5
1C2BD
  8
KI
  6
DASHED2
 62
     7
 10
38.823127747063452
 20
-20.136396346920289
 30
0.0
 11
40.639756339418753
 21
-22.585473172507601
 31
0.0
  0
LINE
  5
1C2BE
  8
KI
  6
DASHED2
 62
     7
 10
37.712979438703599
 20
-20.136396346920289
 30
0.0
 11
39.529608031058451
 21
-22.585473172507601
 31
0.0
  0
LINE
  5
1C2BF
  8
KI
  6
DASHED2
 62
     7
 10
33.272316215142688
 20
-20.136396350869308
 30
0.0
 11
35.088944807497541
 21
-22.585473176456642
 31
0.0
  0
LINE
  5
1C2C0
  8
KI
  6
DASHED2
 62
     7
 10
32.1621679067824
 20
-20.136396350869308
 30
0.0
 11
33.978796499137687
 21
-22.585473176456642
 31
0.0
  0
LINE
  5
1C2C1
  8
KI
  6
DASHED2
 62
     7
 10
31.051984603362001
 20
-20.136396350869308
 30
0.0
 11
32.86861319571684
 21
-22.585473176456642
 31
0.0
  0
LINE
  5
1C2C2
  8
KI
  6
DASHED2
 62
     7
 10
29.941836295002162
 20
-20.136396350869308
 30
0.0
 11
31.758464887357
 21
-22.585473176456642
 31
0.0
  0
LINE
  5
1C2C3
  8
KI
  6
DASHED2
 62
     7
 10
28.83168798664186
 20
-20.136396350869308
 30
0.0
 11
30.64831657899671
 21
-22.585473176456642
 31
0.0
  0
LINE
  5
1C2C4
  8
KI
  6
DASHED2
 62
     7
 10
27.721504683221472
 20
-20.136396350869308
 30
0.0
 11
29.53813327557631
 21
-22.585473176456642
 31
0.0
  0
LINE
  5
1C2C5
  8
KI
  6
DASHED2
 62
     7
 10
26.611356374861622
 20
-20.136396350869308
 30
0.0
 11
28.42798496721602
 21
-22.585473176456642
 31
0.0
  0
LINE
  5
1C2C6
  8
KI
  6
DASHED2
 62
     7
 10
25.501208066501331
 20
-20.136396350869308
 30
0.0
 11
27.317836658856169
 21
-22.585473176456642
 31
0.0
  0
LINE
  5
1C2C7
  8
KI
  6
DASHED2
 62
     7
 10
24.391024763080932
 20
-20.136396350869308
 30
0.0
 11
26.207653355435781
 21
-22.585473176456642
 31
0.0
  0
LINE
  5
1C2C8
  8
KI
  6
DASHED2
 62
     7
 10
23.280876454721088
 20
-20.136396350869308
 30
0.0
 11
25.09750504707549
 21
-22.585473176456642
 31
0.0
  0
LINE
  5
1C2C9
  8
KI
  6
DASHED2
 62
     7
 10
22.170693151300231
 20
-20.136396350869308
 30
0.0
 11
23.987321743655091
 21
-22.585473176456642
 31
0.0
  0
LINE
  5
1C2CA
  8
KI
  6
DASHED2
 62
     7
 10
21.06054484293994
 20
-20.136396350869308
 30
0.0
 11
22.877173435295251
 21
-22.585473176456642
 31
0.0
  0
LINE
  5
1C2CB
  8
KI
  6
DASHED2
 62
     7
 10
19.950396534580101
 20
-20.136396350869308
 30
0.0
 11
21.767025126934922
 21
-22.585473176456642
 31
0.0
  0
LINE
  5
1C2CC
  8
KI
  6
DASHED2
 62
     7
 10
18.84021323115968
 20
-20.136396350869308
 30
0.0
 11
20.656841823514551
 21
-22.585473176456642
 31
0.0
  0
LINE
  5
1C2CD
  8
KI
  6
DASHED2
 62
     7
 10
17.730064922799411
 20
-20.136396350869308
 30
0.0
 11
19.546693515154711
 21
-22.585473176456642
 31
0.0
  0
LINE
  5
1C2CE
  8
KI
  6
DASHED2
 62
     7
 10
57.01625488211571
 20
-20.246875757277849
 30
0.0
 11
18.901629562565031
 21
-20.246875757277849
 31
0.0
  0
LINE
  5
1C2CF
  8
KI
  6
DASHED2
 62
     7
 10
18.901629562565031
 20
-20.246875757277849
 30
0.0
 11
10.313316758096191
 21
-21.2924056861848
 31
0.0
  0
LINE
  5
1C2D0
  8
KI
  6
DASHED2
 62
     7
 10
18.901629562565031
 20
-22.346859355552631
 30
0.0
 11
10.313316758096191
 21
-21.30132942664569
 31
0.0
  0
LINE
  5
1C2D1
  8
KI
  6
DASHED2
 62
     7
 10
57.01625488211571
 20
-22.346859355552649
 30
0.0
 11
18.901629562565031
 21
-22.346859355552631
 31
0.0
  0
LINE
  5
1C2D2
  8
KI
  6
DASHED2
 62
     7
 10
36.602796135283221
 20
-20.136396350869308
 30
0.0
 11
38.419424727638052
 21
-22.585473176456642
 31
0.0
  0
LINE
  5
1C2D3
  8
KI
  6
DASHED2
 62
     7
 10
35.492647826922934
 20
-20.136396350869308
 30
0.0
 11
37.309276419277772
 21
-22.585473176456642
 31
0.0
  0
LINE
  5
1C2D4
  8
KI
  6
DASHED2
 62
     7
 10
34.38249951856308
 20
-20.136396350869308
 30
0.0
 11
36.199128110917933
 21
-22.585473176456642
 31
0.0
  0
LINE
  5
1C2D5
  8
KI
  6
DASHED2
 62
     7
 10
39.933311050484321
 20
-20.136396350869308
 30
0.0
 11
41.749904647778592
 21
-22.585473176456642
 31
0.0
  0
LINE
  5
1C2D6
  8
KI
  6
DASHED2
 62
     7
 10
38.823127747063452
 20
-20.136396350869308
 30
0.0
 11
40.639756339418753
 21
-22.585473176456642
 31
0.0
  0
LINE
  5
1C2D7
  8
KI
  6
DASHED2
 62
     7
 10
37.712979438703599
 20
-20.136396350869308
 30
0.0
 11
39.529608031058451
 21
-22.585473176456642
 31
0.0
  0
LINE
  5
1C2D8
  8
KI
  6
CENTER2
 62
     7
 10
63.371217912249747
 20
-21.296867556415261
 30
0.0
 11
4.9010156761476891
 21
-21.296867556415219
 31
0.0
  0
LINE
  5
1C2D9
  8
SU
  6
CONTINUOUS
 62
     3
 10
23.016219887054959
 20
-181.2968680277138
 30
0.0
 11
13.016219887054961
 21
-175.2968680277138
 31
0.0
  0
LINE
  5
1C2DA
  8
SU
  6
CONTINUOUS
 62
     3
 10
23.016219887054959
 20
-169.2968680277138
 30
0.0
 11
13.016219887054961
 21
-175.2968680277138
 31
0.0
  0
LINE
  5
1C2DB
  8
SU
  6
CONTINUOUS
 62
     3
 10
23.016219887054959
 20
-181.2968680277138
 30
0.0
 11
23.016219887054959
 21
-169.2968680277138
 31
0.0
  0
LINE
  5
1C2DC
  8
SU
  6
CONTINUOUS
 62
     3
 10
77.016219887055144
 20
-94.296868027712463
 30
0.0
 11
77.016219887055144
 21
-101.79686802772861
 31
0.0
  0
LINE
  5
1C2DD
  8
SU
  6
CONTINUOUS
 62
     3
 10
77.016219887055144
 20
-101.79686802772861
 30
0.0
 11
77.016219887055144
 21
-113.75305850391911
 31
0.0
  0
LINE
  5
1C2DE
  8
KI
  6
CONTINUOUS
 62
     7
 10
35.936219887055159
 20
-100.37686802772851
 30
0.0
 11
35.936219887055209
 21
-101.7868680277288
 31
0.0
  0
LINE
  5
1C2DF
  8
KI
  6
CONTINUOUS
 62
     7
 10
37.016219887055129
 20
-62.796868027728607
 30
0.0
 11
37.016219887055129
 21
-101.7868680277288
 31
0.0
  0
ARC
  5
1C2E0
  8
KI
  6
CONTINUOUS
 62
     7
 10
35.936219887055209
 20
-101.7868680277288
 30
0.0
 40
1.0800000000000001
 50
297.90344809752992
 51
0.0
  0
LINE
  5
1C2E1
  8
KI
  6
CONTINUOUS
 62
     7
 10
33.98164152602461
 20
-104.0439969999002
 30
0.0
 11
36.441641525983272
 21
-102.7413044933477
 31
0.0
  0
LINE
  5
1C2E2
  8
KI
  6
CONTINUOUS
 62
     7
 10
33.47621988705518
 20
-103.089560534303
 30
0.0
 11
33.98164152602461
 21
-104.0439969999002
 31
0.0
  0
LINE
  5
1C2E3
  8
KI
  6
CONTINUOUS
 62
     7
 10
33.47621988705518
 20
-103.089560534303
 30
0.0
 11
35.936219887055209
 21
-101.7868680277288
 31
0.0
  0
LINE
  5
1C2E4
  8
KI
  6
DASHED2
 62
     7
 10
27.066219887055318
 20
-84.246868027728866
 30
0.0
 11
27.066219887055318
 21
-73.060615414683539
 31
0.0
  0
LINE
  5
1C2E5
  8
KI
  6
DASHED2
 62
     7
 10
28.066219887055318
 20
-85.246868027728894
 30
0.0
 11
37.016219887055129
 21
-85.246868027728894
 31
0.0
  0
LINE
  5
1C2E6
  8
KI
  6
DASHED2
 62
     7
 10
28.066219887055318
 20
-80.826868027728779
 30
0.0
 11
37.016219887055129
 21
-80.826868027728779
 31
0.0
  0
ARC
  5
1C2E7
  8
KI
  6
DASHED2
 62
     7
 10
28.066219887055318
 20
-84.246868027728866
 30
0.0
 40
1.0
 50
180.0
 51
270.0
  0
ARC
  5
1C2E8
  8
KI
  6
DASHED2
 62
     7
 10
28.066219887055318
 20
-79.826868027728779
 30
0.0
 40
1.0
 50
180.0
 51
270.0
  0
LINE
  5
1C2E9
  8
KI
  6
DASHED2
 62
     7
 10
35.936219887055209
 20
-62.796868027728607
 30
0.0
 11
37.016219887055129
 21
-62.796868027728607
 31
0.0
  0
LINE
  5
1C2EA
  8
KI
  6
DASHED2
 62
     7
 10
35.936219887055209
 20
-62.796868027728607
 30
0.0
 11
35.936219887055159
 21
-100.37686802772851
 31
0.0
  0
LINE
  5
1C2EB
  8
SU
  6
CONTINUOUS
 62
     3
 10
37.016219887054959
 20
-102.796868027728
 30
0.0
 11
37.016219887054959
 21
-163.2968680277138
 31
0.0
  0
LINE
  5
1C2EC
  8
SU
  6
CONTINUOUS
 62
     3
 10
41.016219902641829
 20
-160.2968680277138
 30
0.0
 11
37.016219887054959
 21
-160.2968680277138
 31
0.0
  0
LINE
  5
1C2ED
  8
SU
  6
CONTINUOUS
 62
     3
 10
39.01621989484839
 20
-160.2968680277138
 30
0.0
 11
43.716219902641832
 21
-145.2968680277138
 31
0.0
  0
LINE
  5
1C2EE
  8
SU
  6
CONTINUOUS
 62
     3
 10
43.716219902641832
 20
-145.2968680277138
 30
0.0
 11
48.687648474070407
 21
-145.2968680277138
 31
0.0
  0
LINE
  5
1C2EF
  8
SU
  6
CONTINUOUS
 62
     3
 10
37.016219902641822
 20
-160.2968680277138
 30
0.0
 11
13.016219887054911
 21
-160.2968680277138
 31
0.0
  0
LINE
  5
1C2F0
  8
KI
  6
CONTINUOUS
 62
     7
 10
243.5162198870548
 20
-15.2968687896646
 30
0.0
 11
243.5162198870548
 21
-27.296866315266929
 31
0.0
  0
LINE
  5
1C2F1
  8
KI
  6
CONTINUOUS
 62
     7
 10
243.5162198870548
 20
-27.296866315266929
 30
0.0
 11
239.0162198870548
 21
-27.296866315266929
 31
0.0
  0
LINE
  5
1C2F2
  8
KI
  6
CONTINUOUS
 62
     7
 10
239.0162198870548
 20
-27.29686631526652
 30
0.0
 11
239.0162198870548
 21
-33.296866315266492
 31
0.0
  0
LINE
  5
1C2F3
  8
KI
  6
CONTINUOUS
 62
     7
 10
243.5162198870548
 20
-15.2968687896646
 30
0.0
 11
239.0162198870548
 21
-15.2968687896646
 31
0.0
  0
LINE
  5
1C2F4
  8
KI
  6
CONTINUOUS
 62
     7
 10
239.0162198870548
 20
-9.2968687896646145
 30
0.0
 11
239.0162198870548
 21
-15.296868789664581
 31
0.0
  0
LINE
  5
1C2F5
  8
KI
  6
CONTINUOUS
 62
     7
 10
239.0162198870548
 20
-9.2968687896646145
 30
0.0
 11
219.0162198870548
 21
-9.2968687896646074
 31
0.0
  0
LINE
  5
1C2F6
  8
KI
  6
CONTINUOUS
 62
     7
 10
219.0162198870548
 20
-9.2968687896646074
 30
0.0
 11
219.0162198870548
 21
-33.296866315266492
 31
0.0
  0
LINE
  5
1C2F7
  8
KI
  6
CONTINUOUS
 62
     7
 10
239.0162198870548
 20
-33.296866315266492
 30
0.0
 11
219.0162198870548
 21
-33.296866315266492
 31
0.0
  0
LINE
  5
1C2F8
  8
KI
  6
CONTINUOUS
 62
     7
 10
219.0161848919943
 20
-33.796872315267159
 30
0.0
 11
219.0161848919939
 21
-36.02296504649577
 31
0.0
  0
ARC
  5
1C2F9
  8
KI
  6
CONTINUOUS
 62
     7
 10
230.57706078214409
 20
-43.304895364922707
 30
0.0
 40
9.2190722294335075
 50
35.625868175516771
 51
87.195312659551448
  0
LINE
  5
1C2FA
  8
KI
  6
CONTINUOUS
 62
     7
 10
221.18318961739621
 20
-33.296866315266037
 30
0.0
 11
221.0161848919924
 21
-33.463871040669829
 31
0.0
  0
LINE
  5
1C2FB
  8
KI
  6
CONTINUOUS
 62
     7
 10
221.88121522950181
 20
-33.496866315266772
 30
0.0
 11
221.28120922950239
 21
-34.096872315266893
 31
0.0
  0
LINE
  5
1C2FC
  8
KI
  6
CONTINUOUS
 62
     7
 10
222.0812152295029
 20
-33.296866315266492
 30
0.0
 11
221.88121522950229
 21
-33.496866315266772
 31
0.0
  0
LINE
  5
1C2FD
  8
KI
  6
CONTINUOUS
 62
     7
 10
222.77924084160941
 20
-33.496866315266772
 30
0.0
 11
222.1792348416092
 21
-34.096872315266893
 31
0.0
  0
LINE
  5
1C2FE
  8
KI
  6
CONTINUOUS
 62
     7
 10
222.9792408416096
 20
-33.296866315266037
 30
0.0
 11
222.77924084160941
 21
-33.496866315266772
 31
0.0
  0
LINE
  5
1C2FF
  8
KI
  6
CONTINUOUS
 62
     7
 10
223.6772664537161
 20
-33.496866315266772
 30
0.0
 11
223.07726045371609
 21
-34.096872315266893
 31
0.0
  0
LINE
  5
1C300
  8
KI
  6
CONTINUOUS
 62
     7
 10
223.87726645371629
 20
-33.296866315266037
 30
0.0
 11
223.6772664537161
 21
-33.496866315266772
 31
0.0
  0
LINE
  5
1C301
  8
KI
  6
CONTINUOUS
 62
     7
 10
224.57529206582311
 20
-33.496866315266772
 30
0.0
 11
223.97528606582239
 21
-34.096872315266431
 31
0.0
  0
LINE
  5
1C302
  8
KI
  6
CONTINUOUS
 62
     7
 10
224.77529206582361
 20
-33.296866315266037
 30
0.0
 11
224.57529206582311
 21
-33.496866315266772
 31
0.0
  0
LINE
  5
1C303
  8
KI
  6
CONTINUOUS
 62
     7
 10
225.47331767793011
 20
-33.496866315267667
 30
0.0
 11
224.87331167793039
 21
-34.096872315267348
 31
0.0
  0
LINE
  5
1C304
  8
KI
  6
CONTINUOUS
 62
     7
 10
225.6733176779305
 20
-33.296866315266954
 30
0.0
 11
225.47331767793011
 21
-33.496866315267212
 31
0.0
  0
LINE
  5
1C305
  8
KI
  6
CONTINUOUS
 62
     7
 10
226.3713432900368
 20
-33.496866315267667
 30
0.0
 11
226.0161848919933
 21
-33.852024713310598
 31
0.0
  0
LINE
  5
1C306
  8
KI
  6
CONTINUOUS
 62
     7
 10
226.0161848919933
 20
-33.852024713310598
 30
0.0
 11
225.7919727563185
 21
-34.076236848985928
 31
0.0
  0
LINE
  5
1C307
  8
KI
  6
CONTINUOUS
 62
     7
 10
226.57134329003679
 20
-33.296866315267401
 30
0.0
 11
226.3713432900368
 21
-33.496866315267212
 31
0.0
  0
LINE
  5
1C308
  8
KI
  6
CONTINUOUS
 62
     7
 10
227.26936890214401
 20
-33.496866315267212
 30
0.0
 11
226.66936890214501
 21
-34.096866315266681
 31
0.0
  0
LINE
  5
1C309
  8
KI
  6
CONTINUOUS
 62
     7
 10
227.4693689021438
 20
-33.296866315267401
 30
0.0
 11
227.26936890214401
 21
-33.496866315267212
 31
0.0
  0
LINE
  5
1C30A
  8
KI
  6
CONTINUOUS
 62
     7
 10
228.16739451425099
 20
-33.496866315267212
 30
0.0
 11
227.56739451425079
 21
-34.096866315267121
 31
0.0
  0
LINE
  5
1C30B
  8
KI
  6
CONTINUOUS
 62
     7
 10
228.3673945142508
 20
-33.296866315266954
 30
0.0
 11
228.16739451425099
 21
-33.496866315267212
 31
0.0
  0
LINE
  5
1C30C
  8
KI
  6
CONTINUOUS
 62
     7
 10
229.01618489199319
 20
-33.546101549631231
 30
0.0
 11
228.4654201263574
 21
-34.096866315267121
 31
0.0
  0
LINE
  5
1C30D
  8
KI
  6
CONTINUOUS
 62
     7
 10
229.01618489199319
 20
-33.296866315266954
 30
0.0
 11
229.01618489199319
 21
-34.096866315267121
 31
0.0
  0
LINE
  5
1C30E
  8
KI
  6
CONTINUOUS
 62
     7
 10
221.0161848919943
 20
-33.296866315266492
 30
0.0
 11
221.0161848919933
 21
-34.096872315267348
 31
0.0
  0
LINE
  5
1C30F
  8
KI
  6
CONTINUOUS
 62
     7
 10
230.02816364426309
 20
-34.09686631526759
 30
0.0
 11
226.26619489199399
 21
-34.096866315267121
 31
0.0
  0
LINE
  5
1C310
  8
KI
  6
CONTINUOUS
 62
     7
 10
226.01619489199359
 20
-33.896866315266863
 30
0.0
 11
225.7661848919935
 21
-34.096866315267121
 31
0.0
  0
LINE
  5
1C311
  8
KI
  6
CONTINUOUS
 62
     7
 10
226.01619489199359
 20
-33.89687231526662
 30
0.0
 11
226.26619489199399
 21
-34.096866315267121
 31
0.0
  0
LINE
  5
1C312
  8
KI
  6
CONTINUOUS
 62
     7
 10
225.76619489199359
 20
-34.096872315267348
 30
0.0
 11
220.0161848919943
 21
-34.096872315267348
 31
0.0
  0
ARC
  5
1C313
  8
KI
  6
CONTINUOUS
 62
     7
 10
230.72816364426359
 20
-33.796866315266954
 30
0.0
 40
0.3
 50
359.99999999991371
 51
89.999999999651507
  0
LINE
  5
1C314
  8
KI
  6
CONTINUOUS
 62
     7
 10
231.0281636442632
 20
-34.096866315267121
 30
0.0
 11
231.02816364426371
 21
-33.796866315266954
 31
0.0
  0
ARC
  5
1C315
  8
KI
  6
CONTINUOUS
 62
     7
 10
230.32816364426441
 20
-33.796866315264211
 30
0.0
 40
0.3
 50
89.999999999651507
 51
179.9999999999136
  0
LINE
  5
1C316
  8
KI
  6
CONTINUOUS
 62
     7
 10
230.72816364426359
 20
-33.496866315266772
 30
0.0
 11
230.32816364426441
 21
-33.496866315264491
 31
0.0
  0
ARC
  5
1C317
  8
KI
  6
CONTINUOUS
 62
     7
 10
219.716184891994
 20
-33.796866315264211
 30
0.0
 40
0.3
 50
359.99999999991371
 51
89.999999999651507
  0
ARC
  5
1C318
  8
KI
  6
CONTINUOUS
 62
     7
 10
219.3161848919944
 20
-33.796866315262399
 30
0.0
 40
0.3
 50
89.999999999651507
 51
179.9999999999136
  0
LINE
  5
1C319
  8
KI
  6
CONTINUOUS
 62
     7
 10
219.716184891994
 20
-33.496866315264953
 30
0.0
 11
219.3161848919944
 21
-33.49686631526221
 31
0.0
  0
LINE
  5
1C31A
  8
KI
  6
CONTINUOUS
 62
     7
 10
220.0161848919943
 20
-34.096872315267348
 30
0.0
 11
220.0161848919943
 21
-33.796866315264211
 31
0.0
  0
LINE
  5
1C31B
  8
KI
  6
CONTINUOUS
 62
     7
 10
230.0281636442638
 20
-33.796866315264211
 30
0.0
 11
230.02816364426309
 21
-34.09686631526759
 31
0.0
  0
LINE
  5
1C31C
  8
KI
  6
CONTINUOUS
 62
     7
 10
229.01618489199319
 20
-33.296866315266954
 30
0.0
 11
221.0161848919943
 21
-33.296866315266492
 31
0.0
  0
ARC
  5
1C31D
  8
KI
  6
CONTINUOUS
 62
     7
 10
220.45702683507969
 20
-41.290265164666401
 30
0.0
 40
0.5
 50
59.296923400935583
 51
153.98093263770741
  0
ARC
  5
1C31E
  8
KI
  6
CONTINUOUS
 62
     7
 10
213.46886049044281
 20
-37.87902944091595
 30
0.0
 40
7.2763100519022599
 50
298.11323276635829
 51
333.98093263770761
  0
ARC
  5
1C31F
  8
KI
  6
CONTINUOUS
 62
     7
 10
233.2327760619437
 20
-19.776082850138671
 30
0.0
 40
24.521586859558742
 50
239.29692340093581
 51
273.71118635343151
  0
ARC
  5
1C320
  8
KI
  6
CONTINUOUS
 62
     7
 10
213.46886049044281
 20
-37.87902944091595
 30
0.0
 40
5.776310051902259
 50
298.11323276635829
 51
343.81317179960399
  0
LINE
  5
1C321
  8
KI
  6
CONTINUOUS
 62
     7
 10
219.01618489199271
 20
-36.02296504649577
 30
0.0
 11
219.01618489199481
 21
-39.48929333222398
 31
0.0
  0
ARC
  5
1C322
  8
KI
  6
CONTINUOUS
 62
     7
 10
233.2327760619437
 20
-19.776082850138671
 30
0.0
 40
23.321944298558741
 50
238.41089939395661
 51
273.71118635343151
  0
LINE
  5
1C323
  8
KI
  6
CONTINUOUS
 62
     7
 10
221.0161848919933
 20
-36.596835746583587
 30
0.0
 11
221.0161848919933
 21
-39.642335291185212
 31
0.0
  0
LINE
  5
1C324
  8
KI
  6
CONTINUOUS
 62
     7
 10
234.57290329831449
 20
-36.912524748122479
 30
0.0
 11
234.57290310188711
 21
-36.9125245070204
 31
0.0
  0
LINE
  5
1C325
  8
KI
  6
CONTINUOUS
 62
     7
 10
231.528007958053
 20
-36.096835746583587
 30
0.0
 11
221.5161848919933
 21
-36.096835746583587
 31
0.0
  0
ARC
  5
1C326
  8
KI
  6
CONTINUOUS
 62
     7
 10
221.5161848919933
 20
-36.596835746583587
 30
0.0
 40
0.5
 50
90.0
 51
180.00000000000151
  0
ARC
  5
1C327
  8
KI
  6
CONTINUOUS
 62
     7
 10
238.51986198657829
 20
-39.214328185650203
 30
0.0
 40
0.3
 50
282.850904373123
 51
106.2830629427703
  0
ARC
  5
1C328
  8
KI
  6
CONTINUOUS
 62
     7
 10
237.15903124808531
 20
-38.098876834491897
 30
0.0
 40
0.5
 50
204.55739357396001
 51
220.67258802736049
  0
ARC
  5
1C329
  8
KI
  6
CONTINUOUS
 62
     7
 10
228.8821679865618
 20
-41.880871191463491
 30
0.0
 40
10.0
 50
17.18458009630881
 51
19.803175794162041
  0
ARC
  5
1C32A
  8
KI
  6
CONTINUOUS
 62
     7
 10
238.18492844034481
 20
-38.212268195834923
 30
0.0
 40
0.3
 50
290.66264471901661
 51
112.3867008755925
  0
ARC
  5
1C32B
  8
KI
  6
CONTINUOUS
 62
     7
 10
234.6561586814224
 20
-40.249604366060822
 30
0.0
 40
4.0
 50
272.34734183586102
 51
295.7018087462551
  0
ARC
  5
1C32C
  8
KI
  6
CONTINUOUS
 62
     7
 10
228.88216798655199
 20
-41.88087822924129
 30
0.0
 40
8.7999999999999972
 50
15.7760377473515
 51
15.80191346986723
  0
ARC
  5
1C32D
  8
KI
  6
CONTINUOUS
 62
     7
 10
236.6561586814214
 20
-43.713705981198487
 30
0.0
 40
0.3
 50
207.850904373139
 51
32.14909562682751
  0
ARC
  5
1C32E
  8
KI
  6
CONTINUOUS
 62
     7
 10
234.6561586814224
 20
-40.249604366060822
 30
0.0
 40
4.0
 50
304.29819125370682
 51
310.7018087462971
  0
ARC
  5
1C32F
  8
KI
  6
CONTINUOUS
 62
     7
 10
237.48458580616941
 20
-43.078031490805671
 30
0.0
 40
0.3
 50
222.85090437314679
 51
47.149095626876061
  0
ARC
  5
1C330
  8
KI
  6
CONTINUOUS
 62
     7
 10
238.65615868142231
 20
-40.249604366062641
 30
0.0
 40
0.3
 50
267.85090437314102
 51
92.149095626780564
  0
ARC
  5
1C331
  8
KI
  6
CONTINUOUS
 62
     7
 10
238.51986198657781
 20
-41.284880546473261
 30
0.0
 40
0.3
 50
252.8509043730698
 51
77.149095626823382
  0
ARC
  5
1C332
  8
KI
  6
CONTINUOUS
 62
     7
 10
234.6561586814224
 20
-40.249604366060822
 30
0.0
 40
4.0
 50
334.29819125373712
 51
340.7018087462269
  0
ARC
  5
1C333
  8
KI
  6
CONTINUOUS
 62
     7
 10
238.1202602965605
 20
-42.249604366059877
 30
0.0
 40
0.3
 50
237.85090437311911
 51
62.149095626886691
  0
ARC
  5
1C334
  8
KI
  6
CONTINUOUS
 62
     7
 10
234.6561586814224
 20
-40.249604366060822
 30
0.0
 40
4.0
 50
319.2981912537565
 51
325.70180874627812
  0
ARC
  5
1C335
  8
KI
  6
CONTINUOUS
 62
     7
 10
234.6561586814224
 20
-40.249604366060822
 30
0.0
 40
4.0
 50
4.298191253699807
 51
10.70180874628195
  0
ARC
  5
1C336
  8
KI
  6
CONTINUOUS
 62
     7
 10
234.65615868144511
 20
-40.249604366060822
 30
0.0
 40
4.0
 50
349.29819125367982
 51
355.70180874624123
  0
ARC
  5
1C337
  8
KI
  6
CONTINUOUS
 62
     7
 10
234.6561586814224
 20
-40.249604366060822
 30
0.0
 40
2.799999999999998
 50
272.34734183586102
 51
40.672588027355317
  0
ARC
  5
1C338
  8
KI
  6
CONTINUOUS
 62
     7
 10
231.49313799583391
 20
-43.345758828248599
 30
0.0
 40
7.2490069497939373
 50
44.038429734718477
 51
89.724388542350269
  0
ARC
  5
1C339
  8
KI
  6
CONTINUOUS
 62
     7
 10
216.63690549278721
 20
-43.585803545678608
 30
0.0
 40
0.7573354118943643
 50
126.0942255147736
 51
290.1322400179493
  0
ARC
  5
1C33A
  8
KI
  6
CONTINUOUS
 62
     7
 10
217.96577315212929
 20
-26.797373688680661
 30
0.0
 40
2.5000001067820641
 50
191.5250854492177
 51
271.1553192138681
  0
LINE
  5
1C33B
  8
KI
  6
CONTINUOUS
 62
     7
 10
218.0162010344971
 20
-29.296860899105479
 30
0.0
 11
219.0161848919943
 21
-29.296860899105479
 31
0.0
  0
LINE
  5
1C33C
  8
KI
  6
DASHED2
 62
     7
 10
217.0161821819388
 20
-26.796866260301631
 30
0.0
 11
218.0162010344971
 21
-28.046872328468471
 31
0.0
  0
LINE
  5
1C33D
  8
KI
  6
DASHED2
 62
     7
 10
219.0162198870548
 20
-26.796866256352612
 30
0.0
 11
218.0162010344971
 21
-28.046872324519448
 31
0.0
  0
LINE
  5
1C33E
  8
KI
  6
DASHED2
 62
     7
 10
217.0161821819388
 20
-15.79686885252797
 30
0.0
 11
217.0161821819388
 21
-26.796866260301631
 31
0.0
  0
LINE
  5
1C33F
  8
KI
  6
DASHED2
 62
     7
 10
218.0162010344971
 20
-14.54686278436113
 30
0.0
 11
218.0162010344971
 21
-28.046872328468471
 31
0.0
  0
LINE
  5
1C340
  8
KI
  6
DASHED2
 62
     7
 10
218.0162010344971
 20
-14.54686278436113
 30
0.0
 11
219.0161848919943
 21
-15.79686885252797
 31
0.0
  0
LINE
  5
1C341
  8
KI
  6
DASHED2
 62
     7
 10
218.0162010344971
 20
-14.54686278436113
 30
0.0
 11
217.0161821819388
 21
-15.79686885252797
 31
0.0
  0
LINE
  5
1C342
  8
KI
  6
CONTINUOUS
 62
     7
 10
215.51618889816271
 20
-27.2968756865803
 30
0.0
 11
215.51618889816271
 21
-15.2968594262493
 31
0.0
  0
ARC
  5
1C343
  8
KI
  6
CONTINUOUS
 62
     7
 10
217.96577315212929
 20
-15.79636142414893
 30
0.0
 40
2.5000001067820641
 50
88.844696044923452
 51
168.47492980957071
  0
LINE
  5
1C344
  8
KI
  6
CONTINUOUS
 62
     7
 10
218.0162010344971
 20
-13.296874213724561
 30
0.0
 11
219.0161848919943
 21
-13.296874213724561
 31
0.0
  0
LINE
  5
1C345
  8
KI
  6
DASHED2
 62
     7
 10
229.0162198870548
 20
-61.296868023779567
 30
0.0
 11
229.0162198870548
 21
-94.296868023779581
 31
0.0
  0
LINE
  5
1C346
  8
KI
  6
DASHED2
 62
     7
 10
235.0162198870548
 20
-61.296868023779567
 30
0.0
 11
229.0162198870548
 21
-61.296868023779567
 31
0.0
  0
LINE
  5
1C347
  8
KI
  6
DASHED2
 62
     7
 10
223.0162198870548
 20
-91.546868023779567
 30
0.0
 11
229.0162198870548
 21
-91.546868023779567
 31
0.0
  0
LINE
  5
1C348
  8
KI
  6
DASHED2
 62
     7
 10
223.0162198870548
 20
-64.046868023779567
 30
0.0
 11
229.0162198870548
 21
-64.046868023779567
 31
0.0
  0
LINE
  5
1C349
  8
KI
  6
DASHED2
 62
     7
 10
217.0162198870548
 20
-65.796868023779567
 30
0.0
 11
223.0162198870548
 21
-65.796868023779567
 31
0.0
  0
LINE
  5
1C34A
  8
KI
  6
DASHED2
 62
     7
 10
217.0162198870548
 20
-89.796868023779581
 30
0.0
 11
223.0162198870548
 21
-89.796868023779581
 31
0.0
  0
LINE
  5
1C34B
  8
KI
  6
DASHED2
 62
     7
 10
223.0162198870548
 20
-64.046868023779567
 30
0.0
 11
223.0162198870548
 21
-91.546868023779567
 31
0.0
  0
LINE
  5
1C34C
  8
KI
  6
DASHED2
 62
     7
 10
217.0162198870548
 20
-65.796868023779567
 30
0.0
 11
217.0162198870548
 21
-89.796868023779581
 31
0.0
  0
CIRCLE
  5
1C34D
  8
KI
  6
CONTINUOUS
 62
     7
 10
236.0162198870548
 20
-112.2968680237795
 30
0.0
 40
3.1931342056999981
  0
CIRCLE
  5
1C34E
  8
KI
  6
CONTINUOUS
 62
     7
 10
236.0162198870548
 20
-112.2968680237795
 30
0.0
 40
4.0
  0
CIRCLE
  5
1C34F
  8
KI
  6
CONTINUOUS
 62
     7
 10
236.0162198870548
 20
-112.2968680237795
 30
0.0
 40
6.939104820999999
  0
CIRCLE
  5
1C350
  8
KI
  6
CONTINUOUS
 62
     7
 10
236.0162198870548
 20
-112.2968680237795
 30
0.0
 40
8.0
  0
LINE
  5
1C351
  8
KI
  6
CONTINUOUS
 62
     7
 10
239.0162198870548
 20
-57.796868023779567
 30
0.0
 11
239.0162198870548
 21
-104.8806695366837
 31
0.0
  0
LINE
  5
1C352
  8
KI
  6
CONTINUOUS
 62
     7
 10
236.71621988705471
 20
-57.796868023779567
 30
0.0
 11
236.71621988705471
 21
-104.3275518674206
 31
0.0
  0
LINE
  5
1C353
  8
KI
  6
CONTINUOUS
 62
     7
 10
235.1361775958062
 20
-104.3454200068699
 30
0.0
 11
234.02403416078309
 21
-94.296868023779624
 31
0.0
  0
LINE
  5
1C354
  8
KI
  6
CONTINUOUS
 62
     7
 10
232.8872911152564
 20
-104.9341372300446
 30
0.0
 11
231.70999023307729
 21
-94.296868023779624
 31
0.0
  0
LINE
  5
1C355
  8
KI
  6
CONTINUOUS
 62
     7
 10
239.0162198870548
 20
-57.796868023779567
 30
0.0
 11
236.71621988705471
 21
-57.796868023779567
 31
0.0
  0
LINE
  5
1C356
  8
KI
  6
DASHED2
 62
     7
 10
219.0161848919943
 20
-22.346859355552649
 30
0.0
 11
217.0161821819388
 21
-23.845592817146109
 31
0.0
  0
LINE
  5
1C357
  8
KI
  6
DASHED2
 62
     7
 10
219.0161848919943
 20
-20.246875757277849
 30
0.0
 11
217.0161821819388
 21
-18.748142295684382
 31
0.0
  0
LINE
  5
1C358
  8
KI
  6
DASHED2
 62
     7
 10
242.76012355896711
 20
-20.136396346920289
 30
0.0
 11
240.94349496661241
 21
-22.585473172507601
 31
0.0
  0
LINE
  5
1C359
  8
KI
  6
DASHED2
 62
     7
 10
243.8702718673274
 20
-20.136396346920289
 30
0.0
 11
242.05364327497199
 21
-22.585473172507601
 31
0.0
  0
LINE
  5
1C35A
  8
KI
  6
DASHED2
 62
     7
 10
244.9804551707478
 20
-20.136396346920289
 30
0.0
 11
243.1638265783929
 21
-22.585473172507601
 31
0.0
  0
LINE
  5
1C35B
  8
KI
  6
DASHED2
 62
     7
 10
246.09060347910781
 20
-20.1363963469203
 30
0.0
 11
244.273974886753
 21
-22.585473172507601
 31
0.0
  0
LINE
  5
1C35C
  8
KI
  6
DASHED2
 62
     7
 10
247.20075178746799
 20
-20.1363963469203
 30
0.0
 11
245.38412319511329
 21
-22.585473172507601
 31
0.0
  0
LINE
  5
1C35D
  8
KI
  6
DASHED2
 62
     7
 10
248.31093509088831
 20
-20.1363963469203
 30
0.0
 11
246.4943064985336
 21
-22.585473172507601
 31
0.0
  0
LINE
  5
1C35E
  8
KI
  6
DASHED2
 62
     7
 10
249.4210833992484
 20
-20.1363963469203
 30
0.0
 11
247.6044548068939
 21
-22.585473172507601
 31
0.0
  0
LINE
  5
1C35F
  8
KI
  6
DASHED2
 62
     7
 10
250.53123170760861
 20
-20.1363963469203
 30
0.0
 11
248.71460311525371
 21
-22.585473172507601
 31
0.0
  0
LINE
  5
1C360
  8
KI
  6
DASHED2
 62
     7
 10
251.6414150110291
 20
-20.1363963469203
 30
0.0
 11
249.82478641867399
 21
-22.585473172507601
 31
0.0
  0
LINE
  5
1C361
  8
KI
  6
DASHED2
 62
     7
 10
252.75156331938891
 20
-20.1363963469203
 30
0.0
 11
250.9349347270342
 21
-22.585473172507601
 31
0.0
  0
LINE
  5
1C362
  8
KI
  6
DASHED2
 62
     7
 10
253.86174662280959
 20
-20.1363963469203
 30
0.0
 11
252.0451180304548
 21
-22.585473172507601
 31
0.0
  0
LINE
  5
1C363
  8
KI
  6
DASHED2
 62
     7
 10
239.4296436388268
 20
-20.136396346920289
 30
0.0
 11
237.61301504647199
 21
-22.585473172507601
 31
0.0
  0
LINE
  5
1C364
  8
KI
  6
DASHED2
 62
     7
 10
240.5397919471869
 20
-20.136396346920289
 30
0.0
 11
238.7231633548318
 21
-22.585473172507601
 31
0.0
  0
LINE
  5
1C365
  8
KI
  6
DASHED2
 62
     7
 10
241.6499402555468
 20
-20.136396346920289
 30
0.0
 11
239.83331166319209
 21
-22.585473172507601
 31
0.0
  0
LINE
  5
1C366
  8
KI
  6
DASHED2
 62
     7
 10
236.09912872362551
 20
-20.136396346920289
 30
0.0
 11
234.28253512633131
 21
-22.585473172507601
 31
0.0
  0
LINE
  5
1C367
  8
KI
  6
DASHED2
 62
     7
 10
237.20931202704631
 20
-20.136396346920289
 30
0.0
 11
235.39268343469109
 21
-22.585473172507601
 31
0.0
  0
LINE
  5
1C368
  8
KI
  6
DASHED2
 62
     7
 10
238.3194603354064
 20
-20.136396346920289
 30
0.0
 11
236.50283174305139
 21
-22.585473172507601
 31
0.0
  0
LINE
  5
1C369
  8
KI
  6
DASHED2
 62
     7
 10
242.76012355896711
 20
-20.136396350869308
 30
0.0
 11
240.94349496661241
 21
-22.585473176456642
 31
0.0
  0
LINE
  5
1C36A
  8
KI
  6
DASHED2
 62
     7
 10
243.8702718673274
 20
-20.136396350869308
 30
0.0
 11
242.05364327497199
 21
-22.585473176456642
 31
0.0
  0
LINE
  5
1C36B
  8
KI
  6
DASHED2
 62
     7
 10
244.9804551707478
 20
-20.136396350869308
 30
0.0
 11
243.1638265783929
 21
-22.585473176456642
 31
0.0
  0
LINE
  5
1C36C
  8
KI
  6
DASHED2
 62
     7
 10
246.09060347910781
 20
-20.136396350869308
 30
0.0
 11
244.273974886753
 21
-22.585473176456642
 31
0.0
  0
LINE
  5
1C36D
  8
KI
  6
DASHED2
 62
     7
 10
247.20075178746799
 20
-20.136396350869308
 30
0.0
 11
245.38412319511329
 21
-22.585473176456642
 31
0.0
  0
LINE
  5
1C36E
  8
KI
  6
DASHED2
 62
     7
 10
248.31093509088831
 20
-20.136396350869308
 30
0.0
 11
246.4943064985336
 21
-22.585473176456642
 31
0.0
  0
LINE
  5
1C36F
  8
KI
  6
DASHED2
 62
     7
 10
249.4210833992484
 20
-20.136396350869308
 30
0.0
 11
247.6044548068939
 21
-22.585473176456642
 31
0.0
  0
LINE
  5
1C370
  8
KI
  6
DASHED2
 62
     7
 10
250.53123170760861
 20
-20.136396350869308
 30
0.0
 11
248.71460311525371
 21
-22.585473176456642
 31
0.0
  0
LINE
  5
1C371
  8
KI
  6
DASHED2
 62
     7
 10
251.6414150110291
 20
-20.136396350869308
 30
0.0
 11
249.82478641867399
 21
-22.585473176456642
 31
0.0
  0
LINE
  5
1C372
  8
KI
  6
DASHED2
 62
     7
 10
252.75156331938891
 20
-20.136396350869308
 30
0.0
 11
250.9349347270342
 21
-22.585473176456642
 31
0.0
  0
LINE
  5
1C373
  8
KI
  6
DASHED2
 62
     7
 10
253.86174662280959
 20
-20.136396350869308
 30
0.0
 11
252.0451180304548
 21
-22.585473176456642
 31
0.0
  0
LINE
  5
1C374
  8
KI
  6
DASHED2
 62
     7
 10
254.9718949311698
 20
-20.136396350869308
 30
0.0
 11
253.1552663388147
 21
-22.585473176456642
 31
0.0
  0
LINE
  5
1C375
  8
KI
  6
DASHED2
 62
     7
 10
256.08204323952992
 20
-20.136396350869308
 30
0.0
 11
254.26541464717499
 21
-22.585473176456642
 31
0.0
  0
LINE
  5
1C376
  8
KI
  6
DASHED2
 62
     7
 10
257.19222654295032
 20
-20.136396350869308
 30
0.0
 11
255.37559795059551
 21
-22.585473176456642
 31
0.0
  0
LINE
  5
1C377
  8
KI
  6
DASHED2
 62
     7
 10
258.30237485131062
 20
-20.136396350869308
 30
0.0
 11
256.48574625895509
 21
-22.585473176456642
 31
0.0
  0
LINE
  5
1C378
  8
KI
  6
DASHED2
 62
     7
 10
219.0161848919943
 20
-20.246875757277849
 30
0.0
 11
257.130810211545
 21
-20.246875757277881
 31
0.0
  0
LINE
  5
1C379
  8
KI
  6
DASHED2
 62
     7
 10
257.130810211545
 20
-20.246875757277881
 30
0.0
 11
265.7191230160139
 21
-21.292405686184821
 31
0.0
  0
LINE
  5
1C37A
  8
KI
  6
DASHED2
 62
     7
 10
257.130810211545
 20
-22.346859355552649
 30
0.0
 11
265.7191230160139
 21
-21.301329426645712
 31
0.0
  0
LINE
  5
1C37B
  8
KI
  6
DASHED2
 62
     7
 10
219.0161848919943
 20
-22.346859355552649
 30
0.0
 11
257.130810211545
 21
-22.346859355552649
 31
0.0
  0
LINE
  5
1C37C
  8
KI
  6
DASHED2
 62
     7
 10
239.4296436388268
 20
-20.136396350869308
 30
0.0
 11
237.61301504647199
 21
-22.585473176456642
 31
0.0
  0
LINE
  5
1C37D
  8
KI
  6
DASHED2
 62
     7
 10
240.5397919471869
 20
-20.136396350869308
 30
0.0
 11
238.72316335483231
 21
-22.585473176456642
 31
0.0
  0
LINE
  5
1C37E
  8
KI
  6
DASHED2
 62
     7
 10
241.6499402555468
 20
-20.136396350869308
 30
0.0
 11
239.83331166319209
 21
-22.585473176456642
 31
0.0
  0
LINE
  5
1C37F
  8
KI
  6
DASHED2
 62
     7
 10
236.09912872362551
 20
-20.136396350869308
 30
0.0
 11
234.28253512633131
 21
-22.585473176456642
 31
0.0
  0
LINE
  5
1C380
  8
KI
  6
DASHED2
 62
     7
 10
237.20931202704631
 20
-20.136396350869308
 30
0.0
 11
235.39268343469109
 21
-22.585473176456642
 31
0.0
  0
LINE
  5
1C381
  8
KI
  6
DASHED2
 62
     7
 10
238.3194603354064
 20
-20.136396350869308
 30
0.0
 11
236.50283174305139
 21
-22.585473176456642
 31
0.0
  0
LINE
  5
1C382
  8
KI
  6
CENTER2
 62
     7
 10
212.66122186186021
 20
-21.296867556415261
 30
0.0
 11
271.13142409796239
 21
-21.296867556415261
 31
0.0
  0
LINE
  5
1C383
  8
SU
  6
CONTINUOUS
 62
     3
 10
13.016219887054961
 20
-102.79686802772861
 30
0.0
 11
13.016219887054961
 21
-178.2968680277138
 31
0.0
  0
LINE
  5
1C384
  8
SU
  6
CONTINUOUS
 62
     3
 10
263.016219887055
 20
-102.79686802772861
 30
0.0
 11
263.016219887055
 21
-178.2968680277138
 31
0.0
  0
LINE
  5
1C385
  8
SU
  6
CONTINUOUS
 62
     3
 10
13.016219887054961
 20
-175.2968680277138
 30
0.0
 11
263.016219887055
 21
-175.2968680277138
 31
0.0
  0
LINE
  5
1C386
  8
SU
  6
CONTINUOUS
 62
     3
 10
239.0162198870548
 20
-102.796868027728
 30
0.0
 11
239.0162198870548
 21
-163.2968680277138
 31
0.0
  0
LINE
  5
1C387
  8
SU
  6
CONTINUOUS
 62
     3
 10
235.01621987146791
 20
-160.2968680277138
 30
0.0
 11
239.0162198870548
 21
-160.2968680277138
 31
0.0
  0
LINE
  5
1C388
  8
SU
  6
CONTINUOUS
 62
     3
 10
237.0162198792616
 20
-160.2968680277138
 30
0.0
 11
232.31621987146809
 21
-145.2968680277138
 31
0.0
  0
LINE
  5
1C389
  8
SU
  6
CONTINUOUS
 62
     3
 10
232.31621987146809
 20
-145.2968680277138
 30
0.0
 11
227.3447913000393
 21
-145.2968680277138
 31
0.0
  0
LINE
  5
1C38A
  8
SU
  6
CONTINUOUS
 62
     3
 10
235.01621987146791
 20
-95.296868027713785
 30
0.0
 11
235.01621987146791
 21
-163.2968680277138
 31
0.0
  0
LINE
  5
1C38B
  8
SU
  6
CONTINUOUS
 62
     3
 10
41.016219902642042
 20
-95.296868027713785
 30
0.0
 11
41.016219902642042
 21
-163.2968680277138
 31
0.0
  0
LINE
  5
1C38C
  8
SU
  6
CONTINUOUS
 62
     3
 10
235.01621987146791
 20
-160.2968680277138
 30
0.0
 11
41.016219902642042
 21
-160.2968680277138
 31
0.0
  0
LINE
  5
1C38D
  8
SU
  6
CONTINUOUS
 62
     3
 10
77.016219902646299
 20
-9.2968687896646216
 30
0.0
 11
77.016219902646299
 21
38.203131972269887
 31
0.0
  0
LINE
  5
1C38E
  8
SU
  6
CONTINUOUS
 62
     3
 10
239.0162199026409
 20
39.20313197226988
 30
0.0
 11
239.0162199026409
 21
82.203131972269873
 31
0.0
  0
LINE
  5
1C38F
  8
SU
  6
CONTINUOUS
 62
     3
 10
219.0162198870548
 20
-8.2968687896646145
 30
0.0
 11
219.0162198870548
 21
82.203131972269873
 31
0.0
  0
LINE
  5
1C390
  8
SU
  6
CONTINUOUS
 62
     3
 10
239.0162199026409
 20
79.203131972269873
 30
0.0
 11
219.0162198870548
 21
79.203131972269873
 31
0.0
  0
LINE
  5
1C391
  8
SU
  6
CONTINUOUS
 62
     3
 10
57.016219887055151
 20
-8.2968687896646145
 30
0.0
 11
57.016219887055151
 21
82.203131972269873
 31
0.0
  0
LINE
  5
1C392
  8
SU
  6
CONTINUOUS
 62
     3
 10
37.016219902646299
 20
79.203131972269873
 30
0.0
 11
57.016219887055151
 21
79.203131972269873
 31
0.0
  0
LINE
  5
1C393
  8
SU
  6
CONTINUOUS
 62
     3
 10
38.016219902646277
 20
38.203131972269901
 30
0.0
 11
94.01622235117523
 21
38.203131972269887
 31
0.0
  0
LINE
  5
1C394
  8
SU
  6
CONTINUOUS
 62
     3
 10
38.016219887054959
 20
-101.79686802772861
 30
0.0
 11
94.01622235117523
 21
-101.79686802772861
 31
0.0
  0
LINE
  5
1C395
  8
SU
  6
CONTINUOUS
 62
     3
 10
91.016222351175287
 20
38.203131972269887
 30
0.0
 11
91.016222351175188
 21
-101.79686802772861
 31
0.0
  0
LINE
  5
1C396
  8
SU
  6
CONTINUOUS
 62
     3
 10
-114.76332064689331
 20
137.7047657740309
 30
0.0
 11
-108.76332064689331
 21
147.7047657740309
 31
0.0
  0
LINE
  5
1C397
  8
SU
  6
CONTINUOUS
 62
     3
 10
-102.76332064689331
 20
137.7047657740309
 30
0.0
 11
-108.76332064689331
 21
147.7047657740309
 31
0.0
  0
LINE
  5
1C398
  8
SU
  6
CONTINUOUS
 62
     3
 10
-114.76332064689331
 20
137.7047657740309
 30
0.0
 11
-102.76332064689331
 21
137.7047657740309
 31
0.0
  0
LINE
  5
1C399
  8
SU
  6
CONTINUOUS
 62
     3
 10
-235.2633207693743
 20
119.7047332533687
 30
0.0
 11
-235.2633207693743
 21
79.204765774032666
 31
0.0
  0
LINE
  5
1C39A
  8
SU
  6
CONTINUOUS
 62
     3
 10
-246.26332076962589
 20
102.7047332533683
 30
0.0
 11
-246.26332076962589
 21
79.204765774032666
 31
0.0
  0
LINE
  5
1C39B
  8
SU
  6
CONTINUOUS
 62
     3
 10
-235.2633207693743
 20
82.204765774032666
 30
0.0
 11
-246.26332076962589
 21
82.204765774032666
 31
0.0
  0
LINE
  5
1C39C
  8
SU
  6
CONTINUOUS
 62
     3
 10
-185.26331906086119
 20
119.7047332533685
 30
0.0
 11
-185.26331906086119
 21
79.204765774032523
 31
0.0
  0
LINE
  5
1C39D
  8
SU
  6
CONTINUOUS
 62
     3
 10
-235.2633207693743
 20
119.7047332533687
 30
0.0
 11
-235.2633207693743
 21
79.204765774032523
 31
0.0
  0
LINE
  5
1C39E
  8
SU
  6
CONTINUOUS
 62
     3
 10
-185.26331906086119
 20
82.204765774032509
 30
0.0
 11
-235.2633207693743
 21
82.204765774032509
 31
0.0
  0
LINE
  5
1C39F
  8
SU
  6
CONTINUOUS
 62
     3
 10
-176.7633206470968
 20
123.704765774031
 30
0.0
 11
-120.7633206468919
 21
123.704765774031
 31
0.0
  0
LINE
  5
1C3A0
  8
SU
  6
CONTINUOUS
 62
     3
 10
-123.7633206468919
 20
123.704765774031
 30
0.0
 11
-123.7633206468919
 21
147.7047657740309
 31
0.0
  0
LINE
  5
1C3A1
  8
SU
  6
CONTINUOUS
 62
     3
 10
-185.26331906086119
 20
82.204765774032509
 30
0.0
 11
-177.7633206470968
 21
82.204765774032509
 31
0.0
  0
LINE
  5
1C3A2
  8
SU
  6
CONTINUOUS
 62
     3
 10
-177.7633206470968
 20
82.204765774032509
 30
0.0
 11
-165.80713017090639
 21
82.204765774032509
 31
0.0
  0
LINE
  5
1C3A3
  8
SU
  6
CONTINUOUS
 62
     3
 10
-184.26331906086111
 20
120.7047332533685
 30
0.0
 11
-120.7633206468919
 21
120.7047332533685
 31
0.0
  0
LINE
  5
1C3A4
  8
SU
  6
CONTINUOUS
 62
     3
 10
-123.7633206468919
 20
120.7047332533685
 30
0.0
 11
-123.7633206468919
 21
123.704765774031
 31
0.0
  0
LINE
  5
1C3A5
  8
SU
  6
CONTINUOUS
 62
     3
 10
-123.7633206468919
 20
122.2047495136997
 30
0.0
 11
-135.2633206469954
 21
130.77393785928211
 31
0.0
  0
LINE
  5
1C3A6
  8
SU
  6
CONTINUOUS
 62
     3
 10
-135.2633206469954
 20
130.77393785928211
 30
0.0
 11
-135.2633206469954
 21
135.5872711926155
 31
0.0
  0
LINE
  5
1C3A7
  8
KI
  6
DASHED2
 62
     7
 10
-257.21332773303737
 20
103.7046982583079
 30
0.0
 11
-255.7145942714443
 21
101.7046955482524
 31
0.0
  0
LINE
  5
1C3A8
  8
KI
  6
DASHED2
 62
     7
 10
-259.31331133131249
 20
103.7046982583079
 30
0.0
 11
-260.81204479290602
 21
101.7046955482524
 31
0.0
  0
LINE
  5
1C3A9
  8
KI
  6
DASHED2
 62
     7
 10
-259.42379074167008
 20
127.4486369252807
 30
0.0
 11
-256.97471391608281
 21
125.6320083329262
 31
0.0
  0
LINE
  5
1C3AA
  8
KI
  6
DASHED2
 62
     7
 10
-259.42379074167008
 20
128.5587852336412
 30
0.0
 11
-256.97471391608281
 21
126.7421566412859
 31
0.0
  0
LINE
  5
1C3AB
  8
KI
  6
DASHED2
 62
     7
 10
-259.42379074167008
 20
129.6689685370616
 30
0.0
 11
-256.97471391608281
 21
127.8523399447069
 31
0.0
  0
LINE
  5
1C3AC
  8
KI
  6
DASHED2
 62
     7
 10
-259.42379074167008
 20
130.77911684542141
 30
0.0
 11
-256.97471391608281
 21
128.96248825306671
 31
0.0
  0
LINE
  5
1C3AD
  8
KI
  6
DASHED2
 62
     7
 10
-259.42379074167008
 20
131.88926515378171
 30
0.0
 11
-256.97471391608281
 21
130.072636561427
 31
0.0
  0
LINE
  5
1C3AE
  8
KI
  6
DASHED2
 62
     7
 10
-259.42379074167008
 20
132.99944845720211
 30
0.0
 11
-256.97471391608281
 21
131.1828198648474
 31
0.0
  0
LINE
  5
1C3AF
  8
KI
  6
DASHED2
 62
     7
 10
-259.42379074167008
 20
134.109596765562
 30
0.0
 11
-256.97471391608281
 21
132.2929681732077
 31
0.0
  0
LINE
  5
1C3B0
  8
KI
  6
DASHED2
 62
     7
 10
-259.42379074167008
 20
135.21974507392241
 30
0.0
 11
-256.97471391608281
 21
133.40311648156751
 31
0.0
  0
LINE
  5
1C3B1
  8
KI
  6
DASHED2
 62
     7
 10
-259.42379074167008
 20
136.32992837734281
 30
0.0
 11
-256.97471391608281
 21
134.51329978498791
 31
0.0
  0
LINE
  5
1C3B2
  8
KI
  6
DASHED2
 62
     7
 10
-259.42379074167008
 20
137.44007668570251
 30
0.0
 11
-256.97471391608281
 21
135.6234480933482
 31
0.0
  0
LINE
  5
1C3B3
  8
KI
  6
DASHED2
 62
     7
 10
-259.42379074167008
 20
138.5502599891235
 30
0.0
 11
-256.97471391608281
 21
136.73363139676829
 31
0.0
  0
LINE
  5
1C3B4
  8
KI
  6
DASHED2
 62
     7
 10
-259.42379074167008
 20
124.1181570051404
 30
0.0
 11
-256.97471391608281
 21
122.3015284127854
 31
0.0
  0
LINE
  5
1C3B5
  8
KI
  6
DASHED2
 62
     7
 10
-259.42379074167008
 20
125.2283053135008
 30
0.0
 11
-256.97471391608281
 21
123.4116767211455
 31
0.0
  0
LINE
  5
1C3B6
  8
KI
  6
DASHED2
 62
     7
 10
-259.42379074167008
 20
126.33845362186059
 30
0.0
 11
-256.97471391608281
 21
124.52182502950581
 31
0.0
  0
LINE
  5
1C3B7
  8
KI
  6
DASHED2
 62
     7
 10
-259.42379074167008
 20
120.7876420899394
 30
0.0
 11
-256.97471391608281
 21
118.9710484926451
 31
0.0
  0
LINE
  5
1C3B8
  8
KI
  6
DASHED2
 62
     7
 10
-259.42379074167008
 20
121.89782539336019
 30
0.0
 11
-256.97471391608281
 21
120.08119680100459
 31
0.0
  0
LINE
  5
1C3B9
  8
KI
  6
DASHED2
 62
     7
 10
-259.42379074167008
 20
123.00797370171991
 30
0.0
 11
-256.97471391608281
 21
121.1913451093652
 31
0.0
  0
LINE
  5
1C3BA
  8
KI
  6
DASHED2
 62
     7
 10
-259.42379073772111
 20
127.4486369252807
 30
0.0
 11
-256.97471391213361
 21
125.6320083329262
 31
0.0
  0
LINE
  5
1C3BB
  8
KI
  6
DASHED2
 62
     7
 10
-259.42379073772111
 20
128.5587852336412
 30
0.0
 11
-256.97471391213361
 21
126.7421566412859
 31
0.0
  0
LINE
  5
1C3BC
  8
KI
  6
DASHED2
 62
     7
 10
-259.42379073772111
 20
129.6689685370616
 30
0.0
 11
-256.97471391213361
 21
127.8523399447069
 31
0.0
  0
LINE
  5
1C3BD
  8
KI
  6
DASHED2
 62
     7
 10
-259.42379073772111
 20
130.77911684542141
 30
0.0
 11
-256.97471391213361
 21
128.96248825306671
 31
0.0
  0
LINE
  5
1C3BE
  8
KI
  6
DASHED2
 62
     7
 10
-259.42379073772111
 20
131.88926515378171
 30
0.0
 11
-256.97471391213361
 21
130.072636561427
 31
0.0
  0
LINE
  5
1C3BF
  8
KI
  6
DASHED2
 62
     7
 10
-259.42379073772111
 20
132.99944845720211
 30
0.0
 11
-256.97471391213361
 21
131.1828198648474
 31
0.0
  0
LINE
  5
1C3C0
  8
KI
  6
DASHED2
 62
     7
 10
-259.42379073772111
 20
134.109596765562
 30
0.0
 11
-256.97471391213361
 21
132.2929681732077
 31
0.0
  0
LINE
  5
1C3C1
  8
KI
  6
DASHED2
 62
     7
 10
-259.42379073772111
 20
135.21974507392241
 30
0.0
 11
-256.97471391213361
 21
133.40311648156751
 31
0.0
  0
LINE
  5
1C3C2
  8
KI
  6
DASHED2
 62
     7
 10
-259.42379073772111
 20
136.32992837734281
 30
0.0
 11
-256.97471391213361
 21
134.51329978498791
 31
0.0
  0
LINE
  5
1C3C3
  8
KI
  6
DASHED2
 62
     7
 10
-259.42379073772111
 20
137.44007668570251
 30
0.0
 11
-256.97471391213361
 21
135.6234480933482
 31
0.0
  0
LINE
  5
1C3C4
  8
KI
  6
DASHED2
 62
     7
 10
-259.42379073772111
 20
138.5502599891235
 30
0.0
 11
-256.97471391213361
 21
136.73363139676829
 31
0.0
  0
LINE
  5
1C3C5
  8
KI
  6
DASHED2
 62
     7
 10
-259.42379073772111
 20
139.6604082974838
 30
0.0
 11
-256.97471391213361
 21
137.8437797051285
 31
0.0
  0
LINE
  5
1C3C6
  8
KI
  6
DASHED2
 62
     7
 10
-259.42379073772111
 20
140.77055660584361
 30
0.0
 11
-256.97471391213361
 21
138.95392801348879
 31
0.0
  0
LINE
  5
1C3C7
  8
KI
  6
DASHED2
 62
     7
 10
-259.42379073772111
 20
141.88073990926381
 30
0.0
 11
-256.97471391213361
 21
140.06411131690911
 31
0.0
  0
LINE
  5
1C3C8
  8
KI
  6
DASHED2
 62
     7
 10
-259.42379073772111
 20
142.9908882176243
 30
0.0
 11
-256.97471391213361
 21
141.1742596252688
 31
0.0
  0
LINE
  5
1C3C9
  8
KI
  6
DASHED2
 62
     7
 10
-259.31331133131249
 20
103.7046982583079
 30
0.0
 11
-259.31331133131249
 21
141.81932357785871
 31
0.0
  0
LINE
  5
1C3CA
  8
KI
  6
DASHED2
 62
     7
 10
-259.31331133131249
 20
141.81932357785871
 30
0.0
 11
-258.2677814024056
 21
150.4076363823275
 31
0.0
  0
LINE
  5
1C3CB
  8
KI
  6
DASHED2
 62
     7
 10
-257.21332773303737
 20
141.81932357785871
 30
0.0
 11
-258.25885766194472
 21
150.4076363823275
 31
0.0
  0
LINE
  5
1C3CC
  8
KI
  6
DASHED2
 62
     7
 10
-257.21332773303737
 20
103.7046982583079
 30
0.0
 11
-257.21332773303737
 21
141.81932357785871
 31
0.0
  0
LINE
  5
1C3CD
  8
KI
  6
DASHED2
 62
     7
 10
-259.42379073772111
 20
124.1181570051404
 30
0.0
 11
-256.97471391213361
 21
122.3015284127854
 31
0.0
  0
LINE
  5
1C3CE
  8
KI
  6
DASHED2
 62
     7
 10
-259.42379073772111
 20
125.2283053135008
 30
0.0
 11
-256.97471391213361
 21
123.4116767211457
 31
0.0
  0
LINE
  5
1C3CF
  8
KI
  6
DASHED2
 62
     7
 10
-259.42379073772111
 20
126.33845362186059
 30
0.0
 11
-256.97471391213361
 21
124.52182502950581
 31
0.0
  0
LINE
  5
1C3D0
  8
KI
  6
DASHED2
 62
     7
 10
-259.42379073772111
 20
120.7876420899394
 30
0.0
 11
-256.97471391213361
 21
118.9710484926451
 31
0.0
  0
LINE
  5
1C3D1
  8
KI
  6
DASHED2
 62
     7
 10
-259.42379073772111
 20
121.89782539336019
 30
0.0
 11
-256.97471391213361
 21
120.08119680100459
 31
0.0
  0
LINE
  5
1C3D2
  8
KI
  6
DASHED2
 62
     7
 10
-259.42379073772111
 20
123.00797370171991
 30
0.0
 11
-256.97471391213361
 21
121.1913451093652
 31
0.0
  0
LINE
  5
1C3D3
  8
KI
  6
CENTER2
 62
     7
 10
-258.2633195321751
 20
97.349735228173984
 30
0.0
 11
-258.2633195321751
 21
155.81993746427599
 31
0.0
  0
LINE
  5
1C3D4
  8
SU
  6
CONTINUOUS
 62
     3
 10
-270.26331829522718
 20
102.7047332533683
 30
0.0
 11
-270.26331829522718
 21
79.204765774032523
 31
0.0
  0
LINE
  5
1C3D5
  8
SU
  6
CONTINUOUS
 62
     3
 10
-317.76332064699523
 20
122.70476577403051
 30
0.0
 11
-317.76332064699523
 21
79.204765774032523
 31
0.0
  0
LINE
  5
1C3D6
  8
SU
  6
CONTINUOUS
 62
     3
 10
-270.26331829522718
 20
82.204765774032509
 30
0.0
 11
-317.76332064699523
 21
82.204765774032509
 31
0.0
  0
LINE
  5
1C3D7
  8
SU
  6
CONTINUOUS
 62
     3
 10
-318.76332064699523
 20
123.70476577403061
 30
0.0
 11
-361.76332064699562
 21
123.70476577403061
 31
0.0
  0
LINE
  5
1C3D8
  8
SU
  6
CONTINUOUS
 62
     3
 10
-271.26331829522729
 20
103.7047332533687
 30
0.0
 11
-361.76332064699562
 21
103.7047332533687
 31
0.0
  0
LINE
  5
1C3D9
  8
SU
  6
CONTINUOUS
 62
     3
 10
-358.76332064699562
 20
123.70476577403061
 30
0.0
 11
-358.76332064699562
 21
103.7047332533687
 31
0.0
  0
LINE
  5
1C3DA
  8
KI
  6
CONTINUOUS
 62
     7
 10
-264.26331829497622
 20
128.2047332533684
 30
0.0
 11
-252.26332076937371
 21
128.2047332533684
 31
0.0
  0
LINE
  5
1C3DB
  8
KI
  6
CONTINUOUS
 62
     7
 10
-252.26332076937371
 20
128.2047332533684
 30
0.0
 11
-252.26332076937371
 21
123.7047332533684
 31
0.0
  0
LINE
  5
1C3DC
  8
KI
  6
CONTINUOUS
 62
     7
 10
-252.2633207693741
 20
123.7047332533684
 30
0.0
 11
-246.2633207693741
 21
123.7047332533684
 31
0.0
  0
LINE
  5
1C3DD
  8
KI
  6
CONTINUOUS
 62
     7
 10
-264.26331829497622
 20
128.2047332533684
 30
0.0
 11
-264.26331829497622
 21
123.7047332533684
 31
0.0
  0
LINE
  5
1C3DE
  8
KI
  6
CONTINUOUS
 62
     7
 10
-270.26331829497622
 20
123.7047332533684
 30
0.0
 11
-264.26331829497622
 21
123.7047332533684
 31
0.0
  0
LINE
  5
1C3DF
  8
KI
  6
CONTINUOUS
 62
     7
 10
-270.26331829497622
 20
123.7047332533684
 30
0.0
 11
-270.26331829497622
 21
103.7047332533683
 31
0.0
  0
LINE
  5
1C3E0
  8
KI
  6
CONTINUOUS
 62
     7
 10
-270.26331829497622
 20
103.7047332533683
 30
0.0
 11
-246.2633207693741
 21
103.7047332533683
 31
0.0
  0
LINE
  5
1C3E1
  8
KI
  6
CONTINUOUS
 62
     7
 10
-246.2633207693741
 20
123.7047332533684
 30
0.0
 11
-246.2633207693741
 21
103.7047332533683
 31
0.0
  0
LINE
  5
1C3E2
  8
KI
  6
CONTINUOUS
 62
     7
 10
-245.76331476937369
 20
103.7046982583079
 30
0.0
 11
-243.5372220381449
 21
103.7046982583075
 31
0.0
  0
ARC
  5
1C3E3
  8
KI
  6
CONTINUOUS
 62
     7
 10
-236.255291719718
 20
115.2655741484579
 30
0.0
 40
9.2190722294335075
 50
125.62586817551571
 51
177.1953126595514
  0
LINE
  5
1C3E4
  8
KI
  6
CONTINUOUS
 62
     7
 10
-246.2633207693749
 20
105.87170298370999
 30
0.0
 11
-246.0963160439708
 21
105.7046982583061
 31
0.0
  0
LINE
  5
1C3E5
  8
KI
  6
CONTINUOUS
 62
     7
 10
-246.063320769374
 20
106.5697285958155
 30
0.0
 11
-245.46331476937399
 21
105.96972259581619
 31
0.0
  0
LINE
  5
1C3E6
  8
KI
  6
CONTINUOUS
 62
     7
 10
-246.2633207693741
 20
106.7697285958167
 30
0.0
 11
-246.063320769374
 21
106.5697285958159
 31
0.0
  0
LINE
  5
1C3E7
  8
KI
  6
CONTINUOUS
 62
     7
 10
-246.063320769374
 20
107.46775420792299
 30
0.0
 11
-245.46331476937399
 21
106.8677482079229
 31
0.0
  0
LINE
  5
1C3E8
  8
KI
  6
CONTINUOUS
 62
     7
 10
-246.2633207693749
 20
107.66775420792339
 30
0.0
 11
-246.063320769374
 21
107.46775420792299
 31
0.0
  0
LINE
  5
1C3E9
  8
KI
  6
CONTINUOUS
 62
     7
 10
-246.063320769374
 20
108.3657798200299
 30
0.0
 11
-245.46331476937399
 21
107.76577382002959
 31
0.0
  0
LINE
  5
1C3EA
  8
KI
  6
CONTINUOUS
 62
     7
 10
-246.2633207693749
 20
108.5657798200301
 30
0.0
 11
-246.063320769374
 21
108.3657798200299
 31
0.0
  0
LINE
  5
1C3EB
  8
KI
  6
CONTINUOUS
 62
     7
 10
-246.063320769374
 20
109.26380543213691
 30
0.0
 11
-245.46331476937439
 21
108.6637994321365
 31
0.0
  0
LINE
  5
1C3EC
  8
KI
  6
CONTINUOUS
 62
     7
 10
-246.2633207693749
 20
109.46380543213731
 30
0.0
 11
-246.063320769374
 21
109.26380543213691
 31
0.0
  0
LINE
  5
1C3ED
  8
KI
  6
CONTINUOUS
 62
     7
 10
-246.06332076937309
 20
110.1618310442437
 30
0.0
 11
-245.4633147693736
 21
109.561825044244
 31
0.0
  0
LINE
  5
1C3EE
  8
KI
  6
CONTINUOUS
 62
     7
 10
-246.26332076937371
 20
110.3618310442445
 30
0.0
 11
-246.06332076937341
 21
110.1618310442437
 31
0.0
  0
LINE
  5
1C3EF
  8
KI
  6
CONTINUOUS
 62
     7
 10
-246.06332076937309
 20
111.05985665635041
 30
0.0
 11
-245.7081623713303
 21
110.70469825830691
 31
0.0
  0
LINE
  5
1C3F0
  8
KI
  6
CONTINUOUS
 62
     7
 10
-245.7081623713303
 20
110.70469825830691
 30
0.0
 11
-245.4839502356549
 21
110.4804861226321
 31
0.0
  0
LINE
  5
1C3F1
  8
KI
  6
CONTINUOUS
 62
     7
 10
-246.26332076937319
 20
111.25985665635071
 30
0.0
 11
-246.06332076937341
 21
111.05985665635041
 31
0.0
  0
LINE
  5
1C3F2
  8
KI
  6
CONTINUOUS
 62
     7
 10
-246.06332076937341
 20
111.9578822684575
 30
0.0
 11
-245.46332076937421
 21
111.3578822684587
 31
0.0
  0
LINE
  5
1C3F3
  8
KI
  6
CONTINUOUS
 62
     7
 10
-246.26332076937319
 20
112.1578822684575
 30
0.0
 11
-246.06332076937341
 21
111.9578822684575
 31
0.0
  0
LINE
  5
1C3F4
  8
KI
  6
CONTINUOUS
 62
     7
 10
-246.06332076937341
 20
112.8559078805648
 30
0.0
 11
-245.46332076937381
 21
112.25590788056439
 31
0.0
  0
LINE
  5
1C3F5
  8
KI
  6
CONTINUOUS
 62
     7
 10
-246.26332076937371
 20
113.0559078805644
 30
0.0
 11
-246.06332076937341
 21
112.8559078805648
 31
0.0
  0
LINE
  5
1C3F6
  8
KI
  6
CONTINUOUS
 62
     7
 10
-246.01408553500951
 20
113.704698258307
 30
0.0
 11
-245.46332076937381
 21
113.1539334926709
 31
0.0
  0
LINE
  5
1C3F7
  8
KI
  6
CONTINUOUS
 62
     7
 10
-246.26332076937371
 20
113.704698258307
 30
0.0
 11
-245.46332076937381
 21
113.704698258307
 31
0.0
  0
LINE
  5
1C3F8
  8
KI
  6
CONTINUOUS
 62
     7
 10
-246.2633207693741
 20
105.7046982583079
 30
0.0
 11
-245.4633147693736
 21
105.704698258307
 31
0.0
  0
LINE
  5
1C3F9
  8
KI
  6
CONTINUOUS
 62
     7
 10
-245.4633207693733
 20
114.7166770105769
 30
0.0
 11
-245.46332076937381
 21
110.9547082583077
 31
0.0
  0
LINE
  5
1C3FA
  8
KI
  6
CONTINUOUS
 62
     7
 10
-245.663320769374
 20
110.70470825830731
 30
0.0
 11
-245.46332076937381
 21
110.4546982583075
 31
0.0
  0
LINE
  5
1C3FB
  8
KI
  6
CONTINUOUS
 62
     7
 10
-245.6633147693743
 20
110.70470825830731
 30
0.0
 11
-245.46332076937381
 21
110.9547082583077
 31
0.0
  0
LINE
  5
1C3FC
  8
KI
  6
CONTINUOUS
 62
     7
 10
-245.4633147693736
 20
110.45470825830721
 30
0.0
 11
-245.4633147693736
 21
104.7046982583079
 31
0.0
  0
ARC
  5
1C3FD
  8
KI
  6
CONTINUOUS
 62
     7
 10
-245.76332076937391
 20
115.4166770105772
 30
0.0
 40
0.3
 50
89.999999999912077
 51
179.99999999965141
  0
LINE
  5
1C3FE
  8
KI
  6
CONTINUOUS
 62
     7
 10
-245.46332076937381
 20
115.7166770105769
 30
0.0
 11
-245.76332076937391
 21
115.7166770105774
 31
0.0
  0
ARC
  5
1C3FF
  8
KI
  6
CONTINUOUS
 62
     7
 10
-245.76332076937669
 20
115.01667701057811
 30
0.0
 40
0.3
 50
179.99999999965141
 51
269.99999999991189
  0
LINE
  5
1C400
  8
KI
  6
CONTINUOUS
 62
     7
 10
-246.063320769374
 20
115.4166770105772
 30
0.0
 11
-246.06332076937639
 21
115.01667701057811
 31
0.0
  0
ARC
  5
1C401
  8
KI
  6
CONTINUOUS
 62
     7
 10
-245.76332076937669
 20
104.4046982583078
 30
0.0
 40
0.3
 50
89.999999999912077
 51
179.99999999965141
  0
ARC
  5
1C402
  8
KI
  6
CONTINUOUS
 62
     7
 10
-245.76332076937831
 20
104.0046982583082
 30
0.0
 40
0.3
 50
179.99999999965141
 51
269.99999999991189
  0
LINE
  5
1C403
  8
KI
  6
CONTINUOUS
 62
     7
 10
-246.06332076937599
 20
104.4046982583078
 30
0.0
 11
-246.06332076937869
 21
104.0046982583082
 31
0.0
  0
LINE
  5
1C404
  8
KI
  6
CONTINUOUS
 62
     7
 10
-245.4633147693736
 20
104.7046982583079
 30
0.0
 11
-245.76332076937669
 21
104.7046982583079
 31
0.0
  0
LINE
  5
1C405
  8
KI
  6
CONTINUOUS
 62
     7
 10
-245.76332076937669
 20
114.7166770105774
 30
0.0
 11
-245.4633207693733
 21
114.7166770105769
 31
0.0
  0
LINE
  5
1C406
  8
KI
  6
CONTINUOUS
 62
     7
 10
-246.26332076937371
 20
113.704698258307
 30
0.0
 11
-246.2633207693741
 21
105.7046982583079
 31
0.0
  0
ARC
  5
1C407
  8
KI
  6
CONTINUOUS
 62
     7
 10
-238.26992191997431
 20
105.1455402013935
 30
0.0
 40
0.5
 50
149.29692340093499
 51
243.9809326377075
  0
ARC
  5
1C408
  8
KI
  6
CONTINUOUS
 62
     7
 10
-241.6811576437249
 20
98.157373856756465
 30
0.0
 40
7.2763100519022599
 50
28.113232766357871
 51
63.980932637708079
  0
ARC
  5
1C409
  8
KI
  6
CONTINUOUS
 62
     7
 10
-259.78410423450191
 20
117.9212894282574
 30
0.0
 40
24.521586859558742
 50
329.2969234009351
 51
3.7111863534315721
  0
ARC
  5
1C40A
  8
KI
  6
CONTINUOUS
 62
     7
 10
-241.6811576437249
 20
98.157373856756465
 30
0.0
 40
5.776310051902259
 50
28.113232766357871
 51
73.813171799602614
  0
LINE
  5
1C40B
  8
KI
  6
CONTINUOUS
 62
     7
 10
-243.5372220381449
 20
103.70469825830639
 30
0.0
 11
-240.07089375241671
 21
103.7046982583085
 31
0.0
  0
ARC
  5
1C40C
  8
KI
  6
CONTINUOUS
 62
     7
 10
-259.78410423450191
 20
117.9212894282574
 30
0.0
 40
23.321944298558741
 50
328.4108993939571
 51
3.7111863534315721
  0
LINE
  5
1C40D
  8
KI
  6
CONTINUOUS
 62
     7
 10
-242.96335133805729
 20
105.704698258307
 30
0.0
 11
-239.9178517934557
 21
105.704698258307
 31
0.0
  0
LINE
  5
1C40E
  8
KI
  6
CONTINUOUS
 62
     7
 10
-242.64766233651829
 20
119.2614166646279
 30
0.0
 11
-242.6476625776202
 21
119.26141646820101
 31
0.0
  0
LINE
  5
1C40F
  8
KI
  6
CONTINUOUS
 62
     7
 10
-243.46335133805709
 20
116.2165213243667
 30
0.0
 11
-243.46335133805709
 21
106.204698258307
 31
0.0
  0
ARC
  5
1C410
  8
KI
  6
CONTINUOUS
 62
     7
 10
-242.96335133805729
 20
106.204698258307
 30
0.0
 40
0.5
 50
180.0
 51
270.0
  0
ARC
  5
1C411
  8
KI
  6
CONTINUOUS
 62
     7
 10
-240.34585889899071
 20
123.20837535289191
 30
0.0
 40
0.3
 50
12.850904373123271
 51
196.28306294276999
  0
ARC
  5
1C412
  8
KI
  6
CONTINUOUS
 62
     7
 10
-241.46131025014901
 20
121.8475446143989
 30
0.0
 40
0.5
 50
294.55739357396021
 51
310.67258802736052
  0
ARC
  5
1C413
  8
KI
  6
CONTINUOUS
 62
     7
 10
-237.6793158931774
 20
113.5706813528756
 30
0.0
 40
10.0
 50
107.18458009630901
 51
109.803175794162
  0
ARC
  5
1C414
  8
KI
  6
CONTINUOUS
 62
     7
 10
-241.34791888880599
 20
122.87344180665841
 30
0.0
 40
0.3
 50
20.662644719016761
 51
202.3867008755924
  0
ARC
  5
1C415
  8
KI
  6
CONTINUOUS
 62
     7
 10
-239.31058271858009
 20
119.344672047736
 30
0.0
 40
4.0
 50
2.3473418358611311
 51
25.701808746255711
  0
ARC
  5
1C416
  8
KI
  6
CONTINUOUS
 62
     7
 10
-237.6793088553994
 20
113.570681352866
 30
0.0
 40
8.7999999999999972
 50
105.7760377473525
 51
105.8019134698674
  0
ARC
  5
1C417
  8
KI
  6
CONTINUOUS
 62
     7
 10
-235.84648110344239
 20
121.3446720477351
 30
0.0
 40
0.3
 50
297.8509043731392
 51
122.14909562682701
  0
ARC
  5
1C418
  8
KI
  6
CONTINUOUS
 62
     7
 10
-239.31058271858009
 20
119.344672047736
 30
0.0
 40
4.0
 50
34.29819125370711
 51
40.7018087462979
  0
ARC
  5
1C419
  8
KI
  6
CONTINUOUS
 62
     7
 10
-236.4821555938349
 20
122.17309917248321
 30
0.0
 40
0.3
 50
312.8509043731467
 51
137.1490956268762
  0
ARC
  5
1C41A
  8
KI
  6
CONTINUOUS
 62
     7
 10
-239.3105827185783
 20
123.344672047736
 30
0.0
 40
0.3
 50
357.85090437314102
 51
182.14909562678051
  0
ARC
  5
1C41B
  8
KI
  6
CONTINUOUS
 62
     7
 10
-238.27530653816771
 20
123.20837535289139
 30
0.0
 40
0.3
 50
342.85090437306962
 51
167.149095626823
  0
ARC
  5
1C41C
  8
KI
  6
CONTINUOUS
 62
     7
 10
-239.31058271858009
 20
119.344672047736
 30
0.0
 40
4.0
 50
64.298191253737713
 51
70.701808746225552
  0
ARC
  5
1C41D
  8
KI
  6
CONTINUOUS
 62
     7
 10
-237.3105827185808
 20
122.8087736628742
 30
0.0
 40
0.3
 50
327.85090437311823
 51
152.14909562688661
  0
ARC
  5
1C41E
  8
KI
  6
CONTINUOUS
 62
     7
 10
-239.31058271858009
 20
119.344672047736
 30
0.0
 40
4.0
 50
49.298191253757572
 51
55.70180874627755
  0
ARC
  5
1C41F
  8
KI
  6
CONTINUOUS
 62
     7
 10
-239.31058271858009
 20
119.344672047736
 30
0.0
 40
4.0
 50
94.298191253699784
 51
100.7018087462834
  0
ARC
  5
1C420
  8
KI
  6
CONTINUOUS
 62
     7
 10
-239.31058271858009
 20
119.34467204775881
 30
0.0
 40
4.0
 50
79.298191253680031
 51
85.701808746241468
  0
ARC
  5
1C421
  8
KI
  6
CONTINUOUS
 62
     7
 10
-239.31058271858009
 20
119.344672047736
 30
0.0
 40
2.799999999999998
 50
2.3473418358611311
 51
130.67258802735509
  0
ARC
  5
1C422
  8
KI
  6
CONTINUOUS
 62
     7
 10
-236.2144282563923
 20
116.18165136214751
 30
0.0
 40
7.2490069497939373
 50
134.0384297347197
 51
179.72438854235031
  0
ARC
  5
1C423
  8
KI
  6
CONTINUOUS
 62
     7
 10
-235.974383538962
 20
101.32541885910101
 30
0.0
 40
0.7573354118943643
 50
216.09422551477331
 51
20.132240017949432
  0
ARC
  5
1C424
  8
KI
  6
CONTINUOUS
 62
     7
 10
-252.76281339595991
 20
102.6542865184429
 30
0.0
 40
2.5000001067820641
 50
281.5250854492183
 51
1.155319213868458
  0
LINE
  5
1C425
  8
KI
  6
CONTINUOUS
 62
     7
 10
-250.26332618553539
 20
102.7047144008107
 30
0.0
 11
-250.26332618553539
 21
103.7046982583079
 31
0.0
  0
LINE
  5
1C426
  8
KI
  6
DASHED2
 62
     7
 10
-252.76332082433919
 20
101.7046955482524
 30
0.0
 11
-251.51331475617241
 21
102.7047144008107
 31
0.0
  0
LINE
  5
1C427
  8
KI
  6
DASHED2
 62
     7
 10
-252.7633208282883
 20
103.7047332533683
 30
0.0
 11
-251.5133147601214
 21
102.7047144008107
 31
0.0
  0
LINE
  5
1C428
  8
KI
  6
DASHED2
 62
     7
 10
-263.76331823211279
 20
101.7046955482524
 30
0.0
 11
-252.76332082433919
 21
101.7046955482524
 31
0.0
  0
LINE
  5
1C429
  8
KI
  6
DASHED2
 62
     7
 10
-265.01332430027981
 20
102.7047144008107
 30
0.0
 11
-251.51331475617241
 21
102.7047144008107
 31
0.0
  0
LINE
  5
1C42A
  8
KI
  6
DASHED2
 62
     7
 10
-265.01332430027981
 20
102.7047144008107
 30
0.0
 11
-263.76331823211279
 21
103.7046982583079
 31
0.0
  0
LINE
  5
1C42B
  8
KI
  6
DASHED2
 62
     7
 10
-265.01332430027981
 20
102.7047144008107
 30
0.0
 11
-263.76331823211279
 21
101.7046955482524
 31
0.0
  0
LINE
  5
1C42C
  8
KI
  6
CONTINUOUS
 62
     7
 10
-252.26331139806061
 20
100.2047022644765
 30
0.0
 11
-264.26332765839157
 21
100.2047022644765
 31
0.0
  0
ARC
  5
1C42D
  8
KI
  6
CONTINUOUS
 62
     7
 10
-263.76382566049188
 20
102.6542865184429
 30
0.0
 40
2.5000001067820641
 50
178.8446960449235
 51
258.47492980957111
  0
LINE
  5
1C42E
  8
KI
  6
CONTINUOUS
 62
     7
 10
-266.26331287091631
 20
102.7047144008107
 30
0.0
 11
-266.26331287091631
 21
103.7046982583079
 31
0.0
  0
LINE
  5
1C42F
  8
SU
  6
CONTINUOUS
 62
     3
 10
-246.26332076962589
 20
102.7047332533683
 30
0.0
 11
-246.26332076962589
 21
79.204765774032765
 31
0.0
  0
LINE
  5
1C430
  8
SU
  6
CONTINUOUS
 62
     3
 10
-270.26331829522718
 20
102.7047332533687
 30
0.0
 11
-270.26331829522718
 21
79.204765774032765
 31
0.0
  0
LINE
  5
1C431
  8
SU
  6
CONTINUOUS
 62
     3
 10
-246.26332076962589
 20
82.204765774032779
 30
0.0
 11
-270.26331829522718
 21
82.204765774032779
 31
0.0
  0
LINE
  5
1C432
  8
SU
  6
CONTINUOUS
 62
     3
 10
-177.7633206470968
 20
122.7047657740309
 30
0.0
 11
-177.7633206470968
 21
64.204765774031969
 31
0.0
  0
LINE
  5
1C433
  8
SU
  6
CONTINUOUS
 62
     3
 10
-317.76332064699551
 20
122.7047657740309
 30
0.0
 11
-317.76332064699551
 21
64.204765774031969
 31
0.0
  0
LINE
  5
1C434
  8
SU
  6
CONTINUOUS
 62
     3
 10
-177.7633206470968
 20
67.204765774031955
 30
0.0
 11
-317.76332064699551
 21
67.204765774031955
 31
0.0
  0
LINE
  5
1C435
  8
SU
  6
CONTINUOUS
 62
     3
 10
-114.76332064689331
 20
-72.791390896381259
 30
0.0
 11
-108.76332064689331
 21
-82.791390896381259
 31
0.0
  0
LINE
  5
1C436
  8
SU
  6
CONTINUOUS
 62
     3
 10
-102.76332064689331
 20
-72.791390896381259
 30
0.0
 11
-108.76332064689331
 21
-82.791390896381259
 31
0.0
  0
LINE
  5
1C437
  8
SU
  6
CONTINUOUS
 62
     3
 10
-114.76332064689331
 20
-72.791390896381259
 30
0.0
 11
-102.76332064689331
 21
-72.791390896381259
 31
0.0
  0
LINE
  5
1C438
  8
SU
  6
CONTINUOUS
 62
     3
 10
-178.26332064699571
 20
-67.791388068497611
 30
0.0
 11
-120.763320646888
 21
-67.791388068497625
 31
0.0
  0
LINE
  5
1C439
  8
SU
  6
CONTINUOUS
 62
     3
 10
-123.76332064688791
 20
-67.791388068497625
 30
0.0
 11
-123.76332064688791
 21
-82.791390896381259
 31
0.0
  0
LINE
  5
1C43A
  8
SU
  6
CONTINUOUS
 62
     3
 10
-177.76332064709649
 20
-83.791390896373088
 30
0.0
 11
-177.76332064709649
 21
-105.7913908963889
 31
0.0
  0
LINE
  5
1C43B
  8
SU
  6
CONTINUOUS
 62
     3
 10
-177.76332064709649
 20
-102.7913908963889
 30
0.0
 11
-163.2004635132659
 21
-102.7913908963889
 31
0.0
  0
LINE
  5
1C43C
  8
SU
  6
CONTINUOUS
 62
     3
 10
-179.2633207696262
 20
-102.7913908963889
 30
0.0
 11
-177.76332064709649
 21
-102.7913908963889
 31
0.0
  0
LINE
  5
1C43D
  8
SU
  6
CONTINUOUS
 62
     3
 10
-123.7633206468919
 20
-62.791388068497632
 30
0.0
 11
-123.7633206468919
 21
-67.791388068497625
 31
0.0
  0
LINE
  5
1C43E
  8
SU
  6
CONTINUOUS
 62
     3
 10
-111.2633206469956
 20
-212.6188126415278
 30
0.0
 11
-105.2633206469955
 21
-222.6188126415278
 31
0.0
  0
LINE
  5
1C43F
  8
SU
  6
CONTINUOUS
 62
     3
 10
-99.263320646995595
 20
-212.6188126415278
 30
0.0
 11
-105.2633206469955
 21
-222.6188126415278
 31
0.0
  0
LINE
  5
1C440
  8
SU
  6
CONTINUOUS
 62
     3
 10
-111.2633206469956
 20
-212.6188126415278
 30
0.0
 11
-99.263320646995595
 21
-212.6188126415278
 31
0.0
  0
LINE
  5
1C441
  8
SU
  6
CONTINUOUS
 62
     3
 10
-220.01332150520159
 20
-218.11881264152811
 30
0.0
 11
-221.9329068182698
 21
-219.59176225797299
 31
0.0
  0
LINE
  5
1C442
  8
SU
  6
CONTINUOUS
 62
     3
 10
-220.01332150520159
 20
-218.11881264152811
 30
0.0
 11
-221.48667535179581
 21
-220.03892475758241
 31
0.0
  0
ARC
  5
1C443
  8
KI
  6
CONTINUOUS
 62
     7
 10
-198.4600674440432
 20
-221.67064870517169
 30
0.0
 40
0.9481639363564127
 50
176.8660808498669
 51
3.133919150132968
  0
LINE
  5
1C444
  8
KI
  6
CONTINUOUS
 62
     7
 10
-218.01332150520159
 20
-216.618812641528
 30
0.0
 11
-218.01332150520159
 21
-221.618812641528
 31
0.0
  0
LINE
  5
1C445
  8
KI
  6
CONTINUOUS
 62
     7
 10
-199.40681338288471
 20
-216.618812641528
 30
0.0
 11
-199.40681338288471
 21
-221.618812641528
 31
0.0
  0
LINE
  5
1C446
  8
KI
  6
CONTINUOUS
 62
     7
 10
-197.51332150520159
 20
-214.618812641528
 30
0.0
 11
-197.51332150520159
 21
-221.618812641528
 31
0.0
  0
LINE
  5
1C447
  8
KI
  6
CONTINUOUS
 62
     7
 10
-220.01332150520159
 20
-214.618812641528
 30
0.0
 11
-220.01332150520159
 21
-221.618812641528
 31
0.0
  0
ARC
  5
1C448
  8
KI
  6
CONTINUOUS
 62
     7
 10
-219.01332150520159
 20
-221.618812641528
 30
0.0
 40
1.0
 50
180.0
 51
0.0
  0
LINE
  5
1C449
  8
KI
  6
CONTINUOUS
 62
     7
 10
-220.01332150520159
 20
-214.618812641528
 30
0.0
 11
-197.51332150520159
 21
-214.618812641528
 31
0.0
  0
LINE
  5
1C44A
  8
KI
  6
CONTINUOUS
 62
     7
 10
-199.40681338288471
 20
-216.618812641528
 30
0.0
 11
-218.01332150520159
 21
-216.618812641528
 31
0.0
  0
LINE
  5
1C44B
  8
SU
  6
CONTINUOUS
 62
     3
 10
-182.7633206509451
 20
-214.618812641528
 30
0.0
 11
-117.2633206469942
 21
-214.618812641528
 31
0.0
  0
LINE
  5
1C44C
  8
SU
  6
CONTINUOUS
 62
     3
 10
-120.2633206469942
 20
-214.618812641528
 30
0.0
 11
-120.2633206469942
 21
-222.618812641528
 31
0.0
  0
LINE
  5
1C44D
  8
SU
  6
CONTINUOUS
 62
     3
 10
-149.76332007479081
 20
-234.61881264152811
 30
0.0
 11
-102.2633206469955
 21
-234.61881264152811
 31
0.0
  0
LINE
  5
1C44E
  8
SU
  6
CONTINUOUS
 62
     3
 10
-105.2633206469955
 20
-222.618812641528
 30
0.0
 11
-105.2633206469955
 21
-234.61881264152811
 31
0.0
  0
LINE
  5
1C44F
  8
SU
  6
CONTINUOUS
 62
     3
 10
-149.76332007479081
 20
-222.618812641528
 30
0.0
 11
-102.2633206469955
 21
-222.618812641528
 31
0.0
  0
LINE
  5
1C450
  8
SU
  6
CONTINUOUS
 62
     3
 10
-105.2633206469955
 20
-123.97075028512241
 30
0.0
 11
-105.2633206469955
 21
-222.618812641528
 31
0.0
  0
LINE
  5
1C451
  8
SU
  6
CONTINUOUS
 62
     3
 10
-182.7633206509451
 20
-214.618812641528
 30
0.0
 11
-117.2633206469942
 21
-214.618812641528
 31
0.0
  0
LINE
  5
1C452
  8
SU
  6
CONTINUOUS
 62
     3
 10
-120.2633206469942
 20
-123.97075028512241
 30
0.0
 11
-120.2633206469942
 21
-214.618812641528
 31
0.0
  0
LINE
  5
1C453
  8
SU
  6
CONTINUOUS
 62
     3
 10
-267.5183476756402
 20
-47.791388389403849
 30
0.0
 11
-268.81838939037112
 21
-45.750731660139557
 31
0.0
  0
LINE
  5
1C454
  8
SU
  6
CONTINUOUS
 62
     3
 10
-267.5183476756402
 20
-47.791388389403849
 30
0.0
 11
-269.30274193656533
 21
-46.156292301380347
 31
0.0
  0
LINE
  5
1C455
  8
SU
  6
CONTINUOUS
 62
     3
 10
-289.26331640997199
 20
-83.791390896389956
 30
0.0
 11
-289.26331640997199
 21
-105.7913908963917
 31
0.0
  0
LINE
  5
1C456
  8
SU
  6
CONTINUOUS
 62
     3
 10
-317.76332064699659
 20
-83.791390896373287
 30
0.0
 11
-317.76332064699659
 21
-105.7913908963917
 31
0.0
  0
LINE
  5
1C457
  8
SU
  6
CONTINUOUS
 62
     3
 10
-291.66331640997191
 20
-102.7913908963917
 30
0.0
 11
-317.76332064699659
 21
-102.7913908963917
 31
0.0
  0
LINE
  5
1C458
  8
SU
  6
CONTINUOUS
 62
     3
 10
-290.26331640997182
 20
-67.791388068498122
 30
0.0
 11
-361.76332064699562
 21
-67.791388068498108
 31
0.0
  0
LINE
  5
1C459
  8
SU
  6
CONTINUOUS
 62
     3
 10
-275.26332234007862
 20
-47.791388707097042
 30
0.0
 11
-361.76332064699562
 21
-47.791388707097042
 31
0.0
  0
LINE
  5
1C45A
  8
SU
  6
CONTINUOUS
 62
     3
 10
-358.76332064699562
 20
-67.791388068498108
 30
0.0
 11
-358.76332064699562
 21
-47.791388707097042
 31
0.0
  0
LINE
  5
1C45B
  8
SU
  6
CONTINUOUS
 62
     3
 10
-358.76332064699562
 20
-82.791390896383817
 30
0.0
 11
-361.76332064699562
 21
-82.791390896383817
 31
0.0
  0
LINE
  5
1C45C
  8
SU
  6
CONTINUOUS
 62
     3
 10
-290.26331640997182
 20
-67.791388068498122
 30
0.0
 11
-361.76332064699562
 21
-67.791388068498108
 31
0.0
  0
LINE
  5
1C45D
  8
SU
  6
CONTINUOUS
 62
     3
 10
-358.76332064699562
 20
-82.791390896383817
 30
0.0
 11
-358.76332064699562
 21
-67.791388068498108
 31
0.0
  0
TEXT
  5
1C45E
  8
SU
  6
CONTINUOUS
 62
     3
 10
-303.43351859272542
 20
-245.54660713075
 30
0.0
 40
4.0
  1
ボトムタイトナー（三方枠用）
 41
0.8299999999999999
  0
TEXT
  5
1C45F
  8
SU
  6
CONTINUOUS
 62
     3
 10
-288.52513764034433
 20
-252.21327379741669
 30
0.0
 40
4.0
  1
〔オプション〕
 41
0.8299999999999999
  0
LINE
  5
1C460
  8
SU
  6
CONTINUOUS
 62
     3
 10
-289.26331640997199
 20
-83.791390896381813
 30
0.0
 11
-289.26331640997199
 21
-105.7913908963891
 31
0.0
  0
LINE
  5
1C461
  8
SU
  6
CONTINUOUS
 62
     3
 10
-179.2633207696262
 20
-83.79139089638943
 30
0.0
 11
-179.2633207696262
 21
-105.7913908963891
 31
0.0
  0
LINE
  5
1C462
  8
SU
  6
CONTINUOUS
 62
     3
 10
-289.26331640997199
 20
-102.7913908963891
 30
0.0
 11
-179.2633207696262
 21
-102.7913908963891
 31
0.0
  0
TEXT
  5
1C463
  8
SU
  6
CONTINUOUS
 62
     3
 10
-316.4856656772173
 20
-33.211455207172868
 30
0.0
 40
4.0
  1
下枠沓摺（四方枠用）
 41
0.8299999999999999
  0
LINE
  5
1C464
  8
SU
  6
CONTINUOUS
 62
     3
 10
-169.76332064268871
 20
147.7047657740309
 30
0.0
 11
-105.76332064689311
 21
147.7047657740309
 31
0.0
  0
LINE
  5
1C465
  8
SU
  6
CONTINUOUS
 62
     3
 10
-135.263320647098
 20
-82.791390896381259
 30
0.0
 11
-105.76332064689331
 21
-82.791390896381259
 31
0.0
  0
LINE
  5
1C466
  8
SU
  6
CONTINUOUS
 62
     3
 10
-108.76332064689321
 20
147.7047657740309
 30
0.0
 11
-108.76332064689331
 21
-82.791390896381259
 31
0.0
  0
LINE
  5
1C467
  8
SU
  6
CONTINUOUS
 62
     3
 10
-184.26331906086111
 20
-62.791388068497611
 30
0.0
 11
-120.7633206468919
 21
-62.791388068497632
 31
0.0
  0
LINE
  5
1C468
  8
SU
  6
CONTINUOUS
 62
     3
 10
-123.7633206468919
 20
120.7047332533685
 30
0.0
 11
-123.7633206468919
 21
-62.791388068497632
 31
0.0
  0
LINE
  5
1C469
  8
OS
  6
CONTINUOUS
 62
     2
 10
-224.66305708525829
 20
188.7047657740309
 30
0.0
 11
-300.26237936615172
 21
152.7047657740309
 31
0.0
  0
LINE
  5
1C46A
  8
OS
  6
CONTINUOUS
 62
     2
 10
-195.2633206426888
 20
152.7047657740309
 30
0.0
 11
-300.26332064268883
 21
152.7047657740309
 31
0.0
  0
LINE
  5
1C46B
  8
OS
  6
CONTINUOUS
 62
     2
 10
-195.26331301329481
 20
147.70481016245441
 30
0.0
 11
-300.26332064268883
 21
152.7048105967238
 31
0.0
  0
LINE
  5
1C46C
  8
OS
  6
CONTINUOUS
 62
     2
 10
-170.76332064268871
 20
147.7047657740309
 30
0.0
 11
-324.76332064268883
 21
147.7047657740309
 31
0.0
  0
LINE
  5
1C46D
  8
OS
  6
CONTINUOUS
 62
     2
 10
-300.26332064268883
 20
188.7047657740309
 30
0.0
 11
-300.26332064268883
 21
147.7047657740309
 31
0.0
  0
LINE
  5
1C46E
  8
OS
  6
CONTINUOUS
 62
     2
 10
-312.26332064268883
 20
188.7047657740309
 30
0.0
 11
-312.26332064268883
 21
147.7047657740309
 31
0.0
  0
LINE
  5
1C46F
  8
OS
  6
CONTINUOUS
 62
     2
 10
-314.26332064268883
 20
188.7047657740309
 30
0.0
 11
-314.26332064268883
 21
147.7047657740309
 31
0.0
  0
LINE
  5
1C470
  8
OS
  6
CONTINUOUS
 62
     2
 10
-322.76332064268883
 20
188.7047657740309
 30
0.0
 11
-322.76332064268883
 21
147.7047657740309
 31
0.0
  0
LINE
  5
1C471
  8
OS
  6
CONTINUOUS
 62
     2
 10
-324.76332064268883
 20
188.7047657740309
 30
0.0
 11
-324.76332064268883
 21
147.7047657740309
 31
0.0
  0
LINE
  5
1C472
  8
OS
  6
CONTINUOUS
 62
     2
 10
-195.2633206426888
 20
188.7047657740309
 30
0.0
 11
-195.2633206426888
 21
147.7047657740309
 31
0.0
  0
LINE
  5
1C473
  8
OS
  6
CONTINUOUS
 62
     2
 10
-183.2633206426888
 20
188.7047657740309
 30
0.0
 11
-183.2633206426888
 21
147.7047657740309
 31
0.0
  0
LINE
  5
1C474
  8
OS
  6
CONTINUOUS
 62
     2
 10
-170.76332064268871
 20
188.7047657740309
 30
0.0
 11
-170.76332064268871
 21
147.7047657740309
 31
0.0
  0
LINE
  5
1C475
  8
OS
  6
CONTINUOUS
 62
     2
 10
-181.2633206426888
 20
188.7047657740309
 30
0.0
 11
-181.2633206426888
 21
147.7047657740309
 31
0.0
  0
LINE
  5
1C476
  8
OS
  6
CONTINUOUS
 62
     2
 10
-172.7633206426888
 20
188.7047657740309
 30
0.0
 11
-172.7633206426888
 21
147.7047657740309
 31
0.0
  0
LINE
  5
1C477
  8
SU
  6
CONTINUOUS
 62
     3
 10
239.016189203425
 20
39.20313197226988
 30
0.0
 11
239.016189203425
 21
82.203131972269844
 31
0.0
  0
LINE
  5
1C478
  8
SU
  6
CONTINUOUS
 62
     3
 10
248.0162199026484
 20
79.203131972269844
 30
0.0
 11
239.016189203425
 21
79.203131972269844
 31
0.0
  0
LINE
  5
1C479
  8
SU
  6
CONTINUOUS
 62
     3
 10
248.0162199026405
 20
60.203131968870657
 30
0.0
 11
248.0162199026405
 21
82.20313197226973
 31
0.0
  0
LINE
  5
1C47A
  8
SU
  6
CONTINUOUS
 62
     3
 10
272.01621990264073
 20
60.20313197453482
 30
0.0
 11
272.01621990264073
 21
82.20313197226973
 31
0.0
  0
LINE
  5
1C47B
  8
SU
  6
CONTINUOUS
 62
     3
 10
248.0162199026405
 20
79.20313197226973
 30
0.0
 11
272.01621990264073
 21
79.20313197226973
 31
0.0
  0
LINE
  5
1C47C
  8
SU
  6
CONTINUOUS
 62
     3
 10
-57.983782564547433
 20
32.703131972270043
 30
0.0
 11
-57.983782564547433
 21
45.203131972270043
 31
0.0
  0
LINE
  5
1C47D
  8
SU
  6
CONTINUOUS
 62
     3
 10
-57.983782564547433
 20
45.203131972270043
 30
0.0
 11
-57.983782564547433
 21
71.589293957736814
 31
0.0
  0
LINE
  5
1C47E
  8
SU
  6
CONTINUOUS
 62
     3
 10
-38.983782564539467
 20
45.203131972270043
 30
0.0
 11
-75.983782564547425
 21
45.20313197227005
 31
0.0
  0
LINE
  5
1C47F
  8
SU
  6
CONTINUOUS
 62
     3
 10
3.0162506088464509
 20
59.203131974534571
 30
0.0
 11
-75.983782564547425
 21
59.203131974534593
 31
0.0
  0
LINE
  5
1C480
  8
SU
  6
CONTINUOUS
 62
     3
 10
-72.983782564547425
 20
45.20313197227005
 30
0.0
 11
-72.983782564547425
 21
59.203131974534593
 31
0.0
  0
LINE
  5
1C481
  8
SU
  6
CONTINUOUS
 62
     3
 10
-38.983782564539467
 20
32.703131972270043
 30
0.0
 11
-60.983782564547433
 21
32.70313197227005
 31
0.0
  0
LINE
  5
1C482
  8
SU
  6
CONTINUOUS
 62
     3
 10
-57.983782564547433
 20
20.70313197226999
 30
0.0
 11
-57.983782564547433
 21
32.703131972270043
 31
0.0
  0
LINE
  5
1C483
  8
SU
  6
CONTINUOUS
 62
     3
 10
-38.983782564539467
 20
-96.296868027729943
 30
0.0
 11
-60.983782564547433
 21
-96.296868027729872
 31
0.0
  0
LINE
  5
1C484
  8
SU
  6
CONTINUOUS
 62
     3
 10
-57.983782564547433
 20
-84.296868027729886
 30
0.0
 11
-57.983782564547433
 21
-96.296868027729872
 31
0.0
  0
LINE
  5
1C485
  8
SU
  6
CONTINUOUS
 62
     3
 10
-38.983782564539467
 20
-108.7968680277298
 30
0.0
 11
-75.983782564547425
 21
-108.7968680277298
 31
0.0
  0
LINE
  5
1C486
  8
SU
  6
CONTINUOUS
 62
     3
 10
3.0162505717227002
 20
-122.7968680254653
 30
0.0
 11
-75.983782564547425
 21
-122.7968680254652
 31
0.0
  0
LINE
  5
1C487
  8
SU
  6
CONTINUOUS
 62
     3
 10
-72.983782564547425
 20
-108.7968680277298
 30
0.0
 11
-72.983782564547425
 21
-122.7968680254652
 31
0.0
  0
LINE
  5
1C488
  8
SU
  6
CONTINUOUS
 62
     3
 10
-57.802683501001589
 20
-96.296868027729872
 30
0.0
 11
-57.802683501001603
 21
-108.7968680277298
 31
0.0
  0
LINE
  5
1C489
  8
SU
  6
CONTINUOUS
 62
     3
 10
-57.802683501001603
 20
-108.7968680277298
 30
0.0
 11
-57.802683501001603
 21
-134.5983244858007
 31
0.0
  0
LINE
  5
1C48A
  8
SU
  6
CONTINUOUS
 62
     3
 10
-38.983782564539467
 20
-84.296868027729886
 30
0.0
 11
-60.983782564547433
 21
-84.296868027729886
 31
0.0
  0
LINE
  5
1C48B
  8
SU
  6
CONTINUOUS
 62
     3
 10
-38.983782564539467
 20
20.703131972269968
 30
0.0
 11
-60.983782564547433
 21
20.70313197226999
 31
0.0
  0
LINE
  5
1C48C
  8
SU
  6
CONTINUOUS
 62
     3
 10
-57.983782564547447
 20
-84.296868027729886
 30
0.0
 11
-57.983782564547433
 21
20.70313197226999
 31
0.0
  0
LINE
  5
1C48D
  8
SU
  6
CONTINUOUS
 62
     3
 10
-72.983782564547383
 20
45.20313197227005
 30
0.0
 11
-72.983782564547425
 21
-108.79686802773
 31
0.0
  0
LINE
  5
1C48E
  8
SU
  6
CONTINUOUS
 62
     3
 10
-312.26332064699562
 20
189.7047657740309
 30
0.0
 11
-312.26332064699562
 21
211.704765774039
 31
0.0
  0
LINE
  5
1C48F
  8
SU
  6
CONTINUOUS
 62
     3
 10
-300.26332064699568
 20
208.704765774039
 30
0.0
 11
-312.26332064699562
 21
208.704765774039
 31
0.0
  0
LINE
  5
1C490
  8
SU
  6
CONTINUOUS
 62
     3
 10
-312.26332064699562
 20
208.704765774039
 30
0.0
 11
-324.76332064699562
 21
208.704765774039
 31
0.0
  0
LINE
  5
1C491
  8
SU
  6
CONTINUOUS
 62
     3
 10
-324.76332064699562
 20
208.704765774039
 30
0.0
 11
-351.65777306110192
 21
208.704765774039
 31
0.0
  0
LINE
  5
1C492
  8
SU
  6
CONTINUOUS
 62
     3
 10
-324.76332064699562
 20
189.7047657740309
 30
0.0
 11
-324.76332064699562
 21
226.70476577403889
 31
0.0
  0
LINE
  5
1C493
  8
SU
  6
CONTINUOUS
 62
     3
 10
-338.76332065304041
 20
157.70476576798919
 30
0.0
 11
-338.76332065304041
 21
226.70476577403889
 31
0.0
  0
LINE
  5
1C494
  8
SU
  6
CONTINUOUS
 62
     3
 10
-324.76332064699562
 20
223.704765774039
 30
0.0
 11
-338.76332065304041
 21
223.704765774039
 31
0.0
  0
LINE
  5
1C495
  8
SU
  6
CONTINUOUS
 62
     3
 10
-183.26332064699571
 20
189.7047657740309
 30
0.0
 11
-183.26332064699571
 21
211.704765774039
 31
0.0
  0
LINE
  5
1C496
  8
SU
  6
CONTINUOUS
 62
     3
 10
-195.26332064699571
 20
208.704765774039
 30
0.0
 11
-183.26332064699571
 21
208.704765774039
 31
0.0
  0
LINE
  5
1C497
  8
OS
  6
CONTINUOUS
 62
     2
 10
314.01622236983712
 20
-84.296868027730014
 30
0.0
 11
263.01618920342469
 21
-84.296868027730014
 31
0.0
  0
LINE
  5
1C498
  8
OS
  6
CONTINUOUS
 62
     2
 10
314.01622236983712
 20
-98.296868027730014
 30
0.0
 11
263.01618920342469
 21
-98.296868027730014
 31
0.0
  0
LINE
  5
1C499
  8
OS
  6
CONTINUOUS
 62
     2
 10
314.01622236983712
 20
-106.79686802773
 30
0.0
 11
263.01618920342469
 21
-106.79686802773
 31
0.0
  0
LINE
  5
1C49A
  8
OS
  6
CONTINUOUS
 62
     2
 10
314.01622236983712
 20
-108.79686802773
 30
0.0
 11
263.01618920342469
 21
-108.79686802773
 31
0.0
  0
LINE
  5
1C49B
  8
OS
  6
CONTINUOUS
 62
     2
 10
314.01622236983712
 20
-96.296868027730014
 30
0.0
 11
263.01618920342469
 21
-96.296868027730014
 31
0.0
  0
LINE
  5
1C49C
  8
OS
  6
CONTINUOUS
 62
     2
 10
314.01622236983712
 20
-38.296663849846652
 30
0.0
 11
268.01606713310468
 21
-84.296818436664978
 31
0.0
  0
LINE
  5
1C49D
  8
OS
  6
CONTINUOUS
 62
     2
 10
268.01605187431483
 20
20.703193007425991
 30
0.0
 11
314.01622236983712
 21
-25.296968389304261
 31
0.0
  0
LINE
  5
1C49E
  8
OS
  6
CONTINUOUS
 62
     2
 10
314.01622236983712
 20
32.703131972269979
 30
0.0
 11
263.01618920342469
 21
32.703131972269979
 31
0.0
  0
LINE
  5
1C49F
  8
OS
  6
CONTINUOUS
 62
     2
 10
314.01622236983712
 20
20.703131972269968
 30
0.0
 11
263.01618920342469
 21
20.703131972269968
 31
0.0
  0
LINE
  5
1C4A0
  8
OS
  6
CONTINUOUS
 62
     2
 10
314.01622236983712
 20
34.703131972269979
 30
0.0
 11
263.01618920342469
 21
34.703131972269979
 31
0.0
  0
LINE
  5
1C4A1
  8
OS
  6
CONTINUOUS
 62
     2
 10
314.01622236983712
 20
43.203131972269972
 30
0.0
 11
263.01618920342469
 21
43.203131972269972
 31
0.0
  0
LINE
  5
1C4A2
  8
OS
  6
CONTINUOUS
 62
     2
 10
314.01622236983712
 20
45.203131972269958
 30
0.0
 11
263.01618920342469
 21
45.203131972269958
 31
0.0
  0
LINE
  5
1C4A3
  8
OS
  6
CONTINUOUS
 62
     2
 10
268.0161892034248
 20
20.703131972269968
 30
0.0
 11
268.0161892034248
 21
-84.296868027730014
 31
0.0
  0
LINE
  5
1C4A4
  8
OS
  6
CONTINUOUS
 62
     2
 10
263.01621972099463
 20
20.703135786967021
 30
0.0
 11
268.0162197209948
 21
-84.29687184242691
 31
0.0
  0
LINE
  5
1C4A5
  8
OS
  6
CONTINUOUS
 62
     2
 10
263.01618920342469
 20
45.203131972269958
 30
0.0
 11
263.01618920342469
 21
-108.79686802773
 31
0.0
  0
LINE
  5
1C4A6
  8
OS
  6
CONTINUOUS
 62
     2
 10
-37.983782564539403
 20
-84.296868027730014
 30
0.0
 11
13.016250601873001
 21
-84.296868027730014
 31
0.0
  0
LINE
  5
1C4A7
  8
OS
  6
CONTINUOUS
 62
     2
 10
-37.983782564539403
 20
-98.296868027730014
 30
0.0
 11
13.016250601873001
 21
-98.296868027730014
 31
0.0
  0
LINE
  5
1C4A8
  8
OS
  6
CONTINUOUS
 62
     2
 10
-37.983782564539403
 20
-106.79686802773
 30
0.0
 11
13.016250601873001
 21
-106.79686802773
 31
0.0
  0
LINE
  5
1C4A9
  8
OS
  6
CONTINUOUS
 62
     2
 10
-37.983782564539403
 20
-108.79686802773
 30
0.0
 11
13.016250601873001
 21
-108.79686802773
 31
0.0
  0
LINE
  5
1C4AA
  8
OS
  6
CONTINUOUS
 62
     2
 10
-37.983782564539403
 20
-96.296868027730014
 30
0.0
 11
13.016250601873001
 21
-96.296868027730014
 31
0.0
  0
LINE
  5
1C4AB
  8
OS
  6
CONTINUOUS
 62
     2
 10
-37.983782564539361
 20
-38.296663849846652
 30
0.0
 11
8.0163726721930271
 21
-84.296818436664978
 31
0.0
  0
LINE
  5
1C4AC
  8
OS
  6
CONTINUOUS
 62
     2
 10
8.0163879309830008
 20
20.703193007425991
 30
0.0
 11
-37.983782564539361
 21
-25.296968389304261
 31
0.0
  0
LINE
  5
1C4AD
  8
OS
  6
CONTINUOUS
 62
     2
 10
-37.983782564539403
 20
32.703131972269979
 30
0.0
 11
13.016250601873001
 21
32.703131972269979
 31
0.0
  0
LINE
  5
1C4AE
  8
OS
  6
CONTINUOUS
 62
     2
 10
-37.983782564539403
 20
20.703131972269968
 30
0.0
 11
13.016250601873001
 21
20.703131972269968
 31
0.0
  0
LINE
  5
1C4AF
  8
OS
  6
CONTINUOUS
 62
     2
 10
-37.983782564539403
 20
34.703131972269979
 30
0.0
 11
13.016250601873001
 21
34.703131972269979
 31
0.0
  0
LINE
  5
1C4B0
  8
OS
  6
CONTINUOUS
 62
     2
 10
-37.983782564539403
 20
43.203131972269972
 30
0.0
 11
13.016250601873001
 21
43.203131972269972
 31
0.0
  0
LINE
  5
1C4B1
  8
OS
  6
CONTINUOUS
 62
     2
 10
-37.983782564539403
 20
45.203131972269958
 30
0.0
 11
13.016250601873001
 21
45.203131972269958
 31
0.0
  0
LINE
  5
1C4B2
  8
OS
  6
CONTINUOUS
 62
     2
 10
8.0162506018730255
 20
20.703131972269968
 30
0.0
 11
8.0162506018730255
 21
-84.296868027730014
 31
0.0
  0
LINE
  5
1C4B3
  8
OS
  6
CONTINUOUS
 62
     2
 10
13.016220084302971
 20
20.703135786967021
 30
0.0
 11
8.0162200843029723
 21
-84.29687184242691
 31
0.0
  0
LINE
  5
1C4B4
  8
OS
  6
CONTINUOUS
 62
     2
 10
13.016250601873001
 20
45.203131972269958
 30
0.0
 11
13.016250601873001
 21
-108.79686802773
 31
0.0
  0
LINE
  5
1C4B5
  8
SU
  6
CONTINUOUS
 62
     3
 10
-160.76332064268871
 20
156.70476576675011
 30
0.0
 11
-105.76332064689331
 21
156.70476576675011
 31
0.0
  0
LINE
  5
1C4B6
  8
SU
  6
CONTINUOUS
 62
     3
 10
-108.76332064689331
 20
147.7047657740309
 30
0.0
 11
-108.76332064689331
 21
156.70476576675011
 31
0.0
  0
LINE
  5
1C4B7
  8
SU
  6
CONTINUOUS
 62
     3
 10
-183.26332064699571
 20
208.704765774039
 30
0.0
 11
-170.76332064699571
 21
208.704765774039
 31
0.0
  0
LINE
  5
1C4B8
  8
SU
  6
CONTINUOUS
 62
     3
 10
-170.76332064699571
 20
208.704765774039
 30
0.0
 11
-144.1621490116116
 21
208.704765774039
 31
0.0
  0
LINE
  5
1C4B9
  8
SU
  6
CONTINUOUS
 62
     3
 10
-170.76332064699571
 20
189.7047657740309
 30
0.0
 11
-170.76332064699571
 21
226.70476577403889
 31
0.0
  0
LINE
  5
1C4BA
  8
SU
  6
CONTINUOUS
 62
     3
 10
-156.76332064105191
 20
157.70476576675011
 30
0.0
 11
-156.76332064105191
 21
226.70476577403889
 31
0.0
  0
LINE
  5
1C4BB
  8
SU
  6
CONTINUOUS
 62
     3
 10
-170.76332064699571
 20
223.704765774039
 30
0.0
 11
-156.76332064105191
 21
223.704765774039
 31
0.0
  0
LINE
  5
1C4BC
  8
SU
  6
CONTINUOUS
 62
     3
 10
37.016250601873018
 20
39.203131972269901
 30
0.0
 11
37.016250601873018
 21
82.203131972269873
 31
0.0
  0
LINE
  5
1C4BD
  8
SU
  6
CONTINUOUS
 62
     3
 10
28.01621990264951
 20
79.203131972269873
 30
0.0
 11
37.016250601873018
 21
79.203131972269873
 31
0.0
  0
LINE
  5
1C4BE
  8
SU
  6
CONTINUOUS
 62
     3
 10
28.016219902646348
 20
60.203131968870657
 30
0.0
 11
28.016219902646348
 21
82.203131972269759
 31
0.0
  0
LINE
  5
1C4BF
  8
SU
  6
CONTINUOUS
 62
     3
 10
4.0162506088464509
 20
60.203131974534571
 30
0.0
 11
4.0162506088464562
 21
82.203131972269759
 31
0.0
  0
LINE
  5
1C4C0
  8
SU
  6
CONTINUOUS
 62
     3
 10
28.016219902646348
 20
79.203131972269759
 30
0.0
 11
4.0162506088464553
 21
79.203131972269759
 31
0.0
  0
LINE
  5
1C4C1
  8
SU
  6
CONTINUOUS
 62
     3
 10
-300.26332064699568
 20
189.7047657740309
 30
0.0
 11
-300.26332064699568
 21
211.704765774039
 31
0.0
  0
LINE
  5
1C4C2
  8
SU
  6
CONTINUOUS
 62
     3
 10
-195.26332064699571
 20
189.7047657740309
 30
0.0
 11
-195.26332064699571
 21
211.704765774039
 31
0.0
  0
LINE
  5
1C4C3
  8
SU
  6
CONTINUOUS
 62
     3
 10
-300.26332064699568
 20
208.704765774039
 30
0.0
 11
-195.26332064699571
 21
208.704765774039
 31
0.0
  0
LINE
  5
1C4C4
  8
SU
  6
CONTINUOUS
 62
     3
 10
-170.76332064699571
 20
223.704765774039
 30
0.0
 11
-324.76332064699562
 21
223.704765774039
 31
0.0
  0
LINE
  5
1C4C5
  8
SU
  6
CONTINUOUS
 62
     3
 10
-339.76332065304041
 20
156.70476577218491
 30
0.0
 11
-361.76332064699562
 21
156.70476577218491
 31
0.0
  0
LINE
  5
1C4C6
  8
SU
  6
CONTINUOUS
 62
     3
 10
-358.76332064699562
 20
156.70476577218491
 30
0.0
 11
-358.76332064699562
 21
132.704766727703
 31
0.0
  0
LINE
  5
1C4C7
  8
SU
  6
CONTINUOUS
 62
     3
 10
-335.76332064459251
 20
132.704766727703
 30
0.0
 11
-361.76332064699562
 21
132.704766727703
 31
0.0
  0
LINE
  5
1C4C8
  8
SU
  6
CONTINUOUS
 62
     3
 10
-318.76332064699551
 20
123.704766727703
 30
0.0
 11
-361.76332064699562
 21
123.704766727703
 31
0.0
  0
LINE
  5
1C4C9
  8
SU
  6
CONTINUOUS
 62
     3
 10
-358.76332064699562
 20
132.704766727703
 30
0.0
 11
-358.76332064699562
 21
123.704766727703
 31
0.0
  0
TEXT
  5
1C4CA
  8
SU
  6
CONTINUOUS
 62
     3
 10
-360.06332064699558
 20
126.70286196579831
 30
0.0
 40
4.0
  1
9
 50
90.0
 41
0.8299999999999999
  0
TEXT
  5
1C4CB
  8
SU
  6
CONTINUOUS
 62
     3
 10
-360.06332064699581
 20
141.46381386899171
 30
0.0
 40
4.0
  1
24
 50
90.0
 41
0.8299999999999999
  0
TEXT
  5
1C4CC
  8
SU
  6
CONTINUOUS
 62
     3
 10
-252.82236826604341
 20
225.0047657740389
 30
0.0
 40
4.0
  1
154
 41
0.8299999999999999
  0
TEXT
  5
1C4CD
  8
SU
  6
CONTINUOUS
 62
     3
 10
-252.74332064699561
 20
210.0047657740389
 30
0.0
 40
4.0
  1
105
 41
0.8299999999999999
  0
TEXT
  5
1C4CE
  8
SU
  6
CONTINUOUS
 62
     3
 10
12.775282874794019
 20
80.503131972269756
 30
0.0
 40
4.0
  1
24
 41
0.8299999999999999
  0
TEXT
  5
1C4CF
  8
SU
  6
CONTINUOUS
 62
     3
 10
31.014330490356478
 20
80.503131972269884
 30
0.0
 40
4.0
  1
9
 41
0.8299999999999999
  0
TEXT
  5
1C4D0
  8
SU
  6
CONTINUOUS
 62
     3
 10
-167.24141588211899
 20
225.0047657740389
 30
0.0
 40
4.0
  1
14
 41
0.8299999999999999
  0
TEXT
  5
1C4D1
  8
SU
  6
CONTINUOUS
 62
     3
 10
-156.05452996399291
 20
210.0047657740389
 30
0.0
 40
4.0
  1
12.5
 41
0.8299999999999999
  0
TEXT
  5
1C4D2
  8
SU
  6
CONTINUOUS
 62
     3
 10
-110.0633206468932
 20
150.7028610084858
 30
0.0
 40
4.0
  1
9
 50
90.0
 41
0.8299999999999999
  0
TEXT
  5
1C4D3
  8
SU
  6
CONTINUOUS
 62
     3
 10
-192.6623682660433
 20
210.0047657740389
 30
0.0
 40
4.0
  1
12
 41
0.8299999999999999
  0
TEXT
  5
1C4D4
  8
SU
  6
CONTINUOUS
 62
     3
 10
-335.24141588811312
 20
225.0047657740389
 30
0.0
 40
4.0
  1
14
 41
0.8299999999999999
  0
TEXT
  5
1C4D5
  8
SU
  6
CONTINUOUS
 62
     3
 10
-351.30634448967311
 20
210.0047657740389
 30
0.0
 40
4.0
  1
12.5
 41
0.8299999999999999
  0
TEXT
  5
1C4D6
  8
SU
  6
CONTINUOUS
 62
     3
 10
-309.6623682660433
 20
210.0047657740389
 30
0.0
 40
4.0
  1
12
 41
0.8299999999999999
  0
TEXT
  5
1C4D7
  8
SU
  6
CONTINUOUS
 62
     3
 10
-74.28378256454738
 20
-36.855915646777603
 30
0.0
 40
4.0
  1
154
 50
90.0
 41
0.8299999999999999
  0
TEXT
  5
1C4D8
  8
SU
  6
CONTINUOUS
 62
     3
 10
-59.283782564547437
 20
-36.776868027729932
 30
0.0
 40
4.0
  1
105
 50
90.0
 41
0.8299999999999999
  0
TEXT
  5
1C4D9
  8
SU
  6
CONTINUOUS
 62
     3
 10
-59.102683501001579
 20
-134.24689591437181
 30
0.0
 40
4.0
  1
12.5
 50
90.0
 41
0.8299999999999999
  0
TEXT
  5
1C4DA
  8
SU
  6
CONTINUOUS
 62
     3
 10
-74.28378256454738
 20
-119.2749632646928
 30
0.0
 40
4.0
  1
14
 50
90.0
 41
0.8299999999999999
  0
TEXT
  5
1C4DB
  8
SU
  6
CONTINUOUS
 62
     3
 10
-59.283782564547423
 20
-93.695915646777536
 30
0.0
 40
4.0
  1
12
 50
90.0
 41
0.8299999999999999
  0
TEXT
  5
1C4DC
  8
SU
  6
CONTINUOUS
 62
     3
 10
-59.283782564547437
 20
23.304084353222368
 30
0.0
 40
4.0
  1
12
 50
90.0
 41
0.8299999999999999
  0
TEXT
  5
1C4DD
  8
SU
  6
CONTINUOUS
 62
     3
 10
-74.283782564547423
 20
48.725036735307071
 30
0.0
 40
4.0
  1
14
 50
90.0
 41
0.8299999999999999
  0
TEXT
  5
1C4DE
  8
SU
  6
CONTINUOUS
 62
     3
 10
-59.283782564547423
 20
59.69691300535586
 30
0.0
 40
4.0
  1
12.5
 50
90.0
 41
0.8299999999999999
  0
TEXT
  5
1C4DF
  8
SU
  6
CONTINUOUS
 62
     3
 10
256.77526752168831
 20
80.503131972269756
 30
0.0
 40
4.0
  1
24
 41
0.8299999999999999
  0
TEXT
  5
1C4E0
  8
SU
  6
CONTINUOUS
 62
     3
 10
242.014299791132
 20
80.503131972269841
 30
0.0
 40
4.0
  1
9
 41
0.8299999999999999
  0
TEXT
  5
1C4E1
  8
SU
  6
CONTINUOUS
 62
     3
 10
-125.063320646892
 20
7.9774344971973639
 30
0.0
 40
4.0
  1
ドアH（DH）＝H－47
 50
90.0
 41
0.8299999999999999
  0
TEXT
  5
1C4E2
  8
SU
  6
CONTINUOUS
 62
     3
 10
-110.0633206468932
 20
30.717639819777212
 30
0.0
 40
4.0
  1
H
 50
90.0
 41
0.8299999999999999
  0
TEXT
  5
1C4E3
  8
SU
  6
CONTINUOUS
 62
     3
 10
-239.24331858979889
 20
-101.49139089638911
 30
0.0
 40
4.0
  1
110
 41
0.8299999999999999
  0
TEXT
  5
1C4E4
  8
SU
  6
CONTINUOUS
 62
     3
 10
-360.06332064699558
 20
-78.690437101488641
 30
0.0
 40
4.0
  1
15
 50
90.0
 41
0.8299999999999999
  0
TEXT
  5
1C4E5
  8
SU
  6
CONTINUOUS
 62
     3
 10
-360.06332064699558
 20
-60.95329314970239
 30
0.0
 40
4.0
  1
20
 50
90.0
 41
0.8299999999999999
  0
TEXT
  5
1C4E6
  8
SU
  6
CONTINUOUS
 62
     3
 10
-310.24665186181761
 20
-101.49139089639171
 30
0.0
 40
4.0
  1
28.5
 41
0.8299999999999999
  0
LINE
  5
1C4E7
  8
SU
  6
CONTINUOUS
 62
     3
 10
-289.26331640997199
 20
-102.7913908963917
 30
0.0
 11
-291.66331640997191
 21
-102.7913908963917
 31
0.0
  0
TEXT
  5
1C4E8
  8
SU
  6
CONTINUOUS
 62
     3
 10
-121.5633206469941
 20
-181.3890671776112
 30
0.0
 40
4.0
  1
ドアH（DH）
 50
90.0
 41
0.8299999999999999
  0
TEXT
  5
1C4E9
  8
SU
  6
CONTINUOUS
 62
     3
 10
-106.56332064699551
 20
-175.03382908237299
 30
0.0
 40
4.0
  1
H
 50
90.0
 41
0.8299999999999999
  0
TEXT
  5
1C4EA
  8
SU
  6
CONTINUOUS
 62
     3
 10
-106.56332064699551
 20
-232.01786026057539
 30
0.0
 40
4.0
  1
12
 50
90.0
 41
0.8299999999999999
  0
TEXT
  5
1C4EB
  8
SU
  6
CONTINUOUS
 62
     3
 10
-121.5633206469942
 20
-220.19976502248031
 30
0.0
 40
4.0
  1
8
 50
90.0
 41
0.8299999999999999
  0
LINE
  5
1C4EC
  8
SU
  6
CONTINUOUS
 62
     3
 10
-111.1839574137359
 20
-212.75108469696039
 30
0.0
 11
-99.342683880255123
 21
-212.75108469696039
 31
0.0
  0
LINE
  5
1C4ED
  8
SU
  6
CONTINUOUS
 62
     3
 10
-111.06395741373601
 20
-212.95108469696041
 30
0.0
 11
-99.46268388025517
 21
-212.95108469696041
 31
0.0
  0
LINE
  5
1C4EE
  8
SU
  6
CONTINUOUS
 62
     3
 10
-110.9439574137359
 20
-213.1510846969604
 30
0.0
 11
-99.582683880255161
 21
-213.1510846969604
 31
0.0
  0
LINE
  5
1C4EF
  8
SU
  6
CONTINUOUS
 62
     3
 10
-110.823957413736
 20
-213.35108469696041
 30
0.0
 11
-99.702683880255123
 21
-213.35108469696041
 31
0.0
  0
LINE
  5
1C4F0
  8
SU
  6
CONTINUOUS
 62
     3
 10
-110.70395741373591
 20
-213.55108469696049
 30
0.0
 11
-99.822683880255155
 21
-213.55108469696049
 31
0.0
  0
LINE
  5
1C4F1
  8
SU
  6
CONTINUOUS
 62
     3
 10
-110.583957413736
 20
-213.75108469696039
 30
0.0
 11
-99.942683880255146
 21
-213.75108469696039
 31
0.0
  0
LINE
  5
1C4F2
  8
SU
  6
CONTINUOUS
 62
     3
 10
-110.463957413736
 20
-213.95108469696049
 30
0.0
 11
-100.0626838802548
 21
-213.95108469696049
 31
0.0
  0
LINE
  5
1C4F3
  8
SU
  6
CONTINUOUS
 62
     3
 10
-110.34395741373601
 20
-214.1510846969604
 30
0.0
 11
-100.1826838802549
 21
-214.1510846969604
 31
0.0
  0
LINE
  5
1C4F4
  8
SU
  6
CONTINUOUS
 62
     3
 10
-110.223957413736
 20
-214.3510846969605
 30
0.0
 11
-100.3026838802548
 21
-214.3510846969605
 31
0.0
  0
LINE
  5
1C4F5
  8
SU
  6
CONTINUOUS
 62
     3
 10
-110.1039574137359
 20
-214.5510846969604
 30
0.0
 11
-100.42268388025479
 21
-214.5510846969604
 31
0.0
  0
LINE
  5
1C4F6
  8
SU
  6
CONTINUOUS
 62
     3
 10
-109.98395741373569
 20
-214.75108469696039
 30
0.0
 11
-100.542683880255
 21
-214.75108469696039
 31
0.0
  0
LINE
  5
1C4F7
  8
SU
  6
CONTINUOUS
 62
     3
 10
-109.863957413736
 20
-214.95108469696041
 30
0.0
 11
-100.6626838802548
 21
-214.95108469696041
 31
0.0
  0
LINE
  5
1C4F8
  8
SU
  6
CONTINUOUS
 62
     3
 10
-109.7439574137359
 20
-215.1510846969604
 30
0.0
 11
-100.78268388025511
 21
-215.1510846969604
 31
0.0
  0
LINE
  5
1C4F9
  8
SU
  6
CONTINUOUS
 62
     3
 10
-109.62395741373599
 20
-215.35108469696041
 30
0.0
 11
-100.902683880255
 21
-215.35108469696041
 31
0.0
  0
LINE
  5
1C4FA
  8
SU
  6
CONTINUOUS
 62
     3
 10
-109.5039574137359
 20
-215.5510846969604
 30
0.0
 11
-101.0226838802549
 21
-215.5510846969604
 31
0.0
  0
LINE
  5
1C4FB
  8
SU
  6
CONTINUOUS
 62
     3
 10
-109.383957413736
 20
-215.75108469696039
 30
0.0
 11
-101.14268388025511
 21
-215.75108469696039
 31
0.0
  0
LINE
  5
1C4FC
  8
SU
  6
CONTINUOUS
 62
     3
 10
-109.26395741373599
 20
-215.95108469696049
 30
0.0
 11
-101.2626838802549
 21
-215.95108469696049
 31
0.0
  0
LINE
  5
1C4FD
  8
SU
  6
CONTINUOUS
 62
     3
 10
-109.143957413736
 20
-216.1510846969604
 30
0.0
 11
-101.3826838802549
 21
-216.1510846969604
 31
0.0
  0
LINE
  5
1C4FE
  8
SU
  6
CONTINUOUS
 62
     3
 10
-109.023957413736
 20
-216.3510846969605
 30
0.0
 11
-101.50268388025511
 21
-216.3510846969605
 31
0.0
  0
LINE
  5
1C4FF
  8
SU
  6
CONTINUOUS
 62
     3
 10
-108.9039574137359
 20
-216.5510846969604
 30
0.0
 11
-101.6226838802551
 21
-216.5510846969604
 31
0.0
  0
LINE
  5
1C500
  8
SU
  6
CONTINUOUS
 62
     3
 10
-108.783957413736
 20
-216.75108469696039
 30
0.0
 11
-101.7426838802549
 21
-216.75108469696039
 31
0.0
  0
LINE
  5
1C501
  8
SU
  6
CONTINUOUS
 62
     3
 10
-108.663957413736
 20
-216.95108469696041
 30
0.0
 11
-101.8626838802551
 21
-216.95108469696041
 31
0.0
  0
LINE
  5
1C502
  8
SU
  6
CONTINUOUS
 62
     3
 10
-108.5439574137359
 20
-217.1510846969604
 30
0.0
 11
-101.9826838802548
 21
-217.1510846969604
 31
0.0
  0
LINE
  5
1C503
  8
SU
  6
CONTINUOUS
 62
     3
 10
-108.42395741373601
 20
-217.35108469696041
 30
0.0
 11
-102.102683880255
 21
-217.35108469696041
 31
0.0
  0
LINE
  5
1C504
  8
SU
  6
CONTINUOUS
 62
     3
 10
-108.3039574137359
 20
-217.5510846969604
 30
0.0
 11
-102.22268388025491
 21
-217.5510846969604
 31
0.0
  0
LINE
  5
1C505
  8
SU
  6
CONTINUOUS
 62
     3
 10
-108.183957413736
 20
-217.75108469696039
 30
0.0
 11
-102.342683880255
 21
-217.75108469696039
 31
0.0
  0
LINE
  5
1C506
  8
SU
  6
CONTINUOUS
 62
     3
 10
-108.06395741373601
 20
-217.95108469696049
 30
0.0
 11
-102.462683880255
 21
-217.95108469696049
 31
0.0
  0
LINE
  5
1C507
  8
SU
  6
CONTINUOUS
 62
     3
 10
-107.943957413736
 20
-218.1510846969604
 30
0.0
 11
-102.5826838802549
 21
-218.1510846969604
 31
0.0
  0
LINE
  5
1C508
  8
SU
  6
CONTINUOUS
 62
     3
 10
-107.823957413736
 20
-218.3510846969605
 30
0.0
 11
-102.7026838802548
 21
-218.3510846969605
 31
0.0
  0
LINE
  5
1C509
  8
SU
  6
CONTINUOUS
 62
     3
 10
-107.70395741373601
 20
-218.5510846969604
 30
0.0
 11
-102.8226838802549
 21
-218.5510846969604
 31
0.0
  0
LINE
  5
1C50A
  8
SU
  6
CONTINUOUS
 62
     3
 10
-107.583957413736
 20
-218.75108469696039
 30
0.0
 11
-102.9426838802549
 21
-218.75108469696039
 31
0.0
  0
LINE
  5
1C50B
  8
SU
  6
CONTINUOUS
 62
     3
 10
-107.4639574137359
 20
-218.95108469696041
 30
0.0
 11
-103.0626838802548
 21
-218.95108469696041
 31
0.0
  0
LINE
  5
1C50C
  8
SU
  6
CONTINUOUS
 62
     3
 10
-107.34395741373601
 20
-219.1510846969604
 30
0.0
 11
-103.1826838802549
 21
-219.1510846969604
 31
0.0
  0
LINE
  5
1C50D
  8
SU
  6
CONTINUOUS
 62
     3
 10
-107.223957413736
 20
-219.35108469696041
 30
0.0
 11
-103.3026838802548
 21
-219.35108469696041
 31
0.0
  0
LINE
  5
1C50E
  8
SU
  6
CONTINUOUS
 62
     3
 10
-107.1039574137359
 20
-219.5510846969602
 30
0.0
 11
-103.42268388025479
 21
-219.5510846969602
 31
0.0
  0
LINE
  5
1C50F
  8
SU
  6
CONTINUOUS
 62
     3
 10
-106.98395741373569
 20
-219.75108469696039
 30
0.0
 11
-103.542683880255
 21
-219.75108469696039
 31
0.0
  0
LINE
  5
1C510
  8
SU
  6
CONTINUOUS
 62
     3
 10
-106.8639574137359
 20
-219.95108469696049
 30
0.0
 11
-103.6626838802549
 21
-219.95108469696049
 31
0.0
  0
LINE
  5
1C511
  8
SU
  6
CONTINUOUS
 62
     3
 10
-106.7439574137359
 20
-220.1510846969604
 30
0.0
 11
-103.78268388025511
 21
-220.1510846969604
 31
0.0
  0
LINE
  5
1C512
  8
SU
  6
CONTINUOUS
 62
     3
 10
-106.62395741373599
 20
-220.3510846969605
 30
0.0
 11
-103.902683880255
 21
-220.3510846969605
 31
0.0
  0
LINE
  5
1C513
  8
SU
  6
CONTINUOUS
 62
     3
 10
-106.5039574137359
 20
-220.5510846969604
 30
0.0
 11
-104.0226838802549
 21
-220.5510846969604
 31
0.0
  0
LINE
  5
1C514
  8
SU
  6
CONTINUOUS
 62
     3
 10
-106.383957413736
 20
-220.75108469696039
 30
0.0
 11
-104.14268388025511
 21
-220.75108469696039
 31
0.0
  0
LINE
  5
1C515
  8
SU
  6
CONTINUOUS
 62
     3
 10
-106.2639574137357
 20
-220.95108469696041
 30
0.0
 11
-104.2626838802549
 21
-220.95108469696041
 31
0.0
  0
LINE
  5
1C516
  8
SU
  6
CONTINUOUS
 62
     3
 10
-106.143957413736
 20
-221.1510846969604
 30
0.0
 11
-104.3826838802549
 21
-221.1510846969604
 31
0.0
  0
LINE
  5
1C517
  8
SU
  6
CONTINUOUS
 62
     3
 10
-106.023957413736
 20
-221.35108469696041
 30
0.0
 11
-104.50268388025511
 21
-221.35108469696041
 31
0.0
  0
LINE
  5
1C518
  8
SU
  6
CONTINUOUS
 62
     3
 10
-105.9039574137359
 20
-221.5510846969602
 30
0.0
 11
-104.6226838802551
 21
-221.5510846969602
 31
0.0
  0
LINE
  5
1C519
  8
SU
  6
CONTINUOUS
 62
     3
 10
-105.783957413736
 20
-221.75108469696039
 30
0.0
 11
-104.7426838802548
 21
-221.75108469696039
 31
0.0
  0
LINE
  5
1C51A
  8
SU
  6
CONTINUOUS
 62
     3
 10
-105.6639574137359
 20
-221.95108469696041
 30
0.0
 11
-104.8626838802551
 21
-221.95108469696041
 31
0.0
  0
LINE
  5
1C51B
  8
SU
  6
CONTINUOUS
 62
     3
 10
-105.5439574137359
 20
-222.1510846969604
 30
0.0
 11
-104.982683880255
 21
-222.1510846969604
 31
0.0
  0
LINE
  5
1C51C
  8
SU
  6
CONTINUOUS
 62
     3
 10
-105.42395741373601
 20
-222.3510846969605
 30
0.0
 11
-105.102683880255
 21
-222.3510846969605
 31
0.0
  0
LINE
  5
1C51D
  8
SU
  6
CONTINUOUS
 62
     3
 10
-105.3039574137359
 20
-222.5510846969604
 30
0.0
 11
-105.22268388025491
 21
-222.5510846969604
 31
0.0
  0
TEXT
  5
1C51E
  8
SU
  6
CONTINUOUS
 62
     3
 10
-125.063320646892
 20
-66.872340449450022
 30
0.0
 40
4.0
  1
5
 50
90.0
 41
0.8299999999999999
  0
TEXT
  5
1C51F
  8
SU
  6
CONTINUOUS
 62
     3
 10
-171.9309397037419
 20
-101.49139089638891
 30
0.0
 40
4.0
  1
1.5
 41
0.8299999999999999
  0
LINE
  5
1C520
  8
SU
  6
CONTINUOUS
 62
     3
 10
-179.2633207696262
 20
-102.7913908963889
 30
0.0
 11
-181.66332076962621
 21
-102.7913908963889
 31
0.0
  0
TEXT
  5
1C521
  8
SU
  6
CONTINUOUS
 62
     3
 10
-125.063320646888
 20
-78.690437101482061
 30
0.0
 40
4.0
  1
15
 50
90.0
 41
0.8299999999999999
  0
LINE
  5
1C522
  8
SU
  6
CONTINUOUS
 62
     3
 10
-114.68395741363371
 20
-72.923662951813952
 30
0.0
 11
-102.8426838801529
 21
-72.923662951813952
 31
0.0
  0
LINE
  5
1C523
  8
SU
  6
CONTINUOUS
 62
     3
 10
-114.5639574136337
 20
-73.123662951813941
 30
0.0
 11
-102.9626838801527
 21
-73.123662951813941
 31
0.0
  0
LINE
  5
1C524
  8
SU
  6
CONTINUOUS
 62
     3
 10
-114.4439574136338
 20
-73.32366295181393
 30
0.0
 11
-103.0826838801529
 21
-73.32366295181393
 31
0.0
  0
LINE
  5
1C525
  8
SU
  6
CONTINUOUS
 62
     3
 10
-114.32395741363371
 20
-73.523662951813932
 30
0.0
 11
-103.2026838801528
 21
-73.523662951813932
 31
0.0
  0
LINE
  5
1C526
  8
SU
  6
CONTINUOUS
 62
     3
 10
-114.2039574136335
 20
-73.723662951813935
 30
0.0
 11
-103.3226838801527
 21
-73.723662951813935
 31
0.0
  0
LINE
  5
1C527
  8
SU
  6
CONTINUOUS
 62
     3
 10
-114.0839574136337
 20
-73.923662951813952
 30
0.0
 11
-103.4426838801528
 21
-73.923662951813952
 31
0.0
  0
LINE
  5
1C528
  8
SU
  6
CONTINUOUS
 62
     3
 10
-113.96395741363339
 20
-74.123662951813941
 30
0.0
 11
-103.5626838801527
 21
-74.123662951813941
 31
0.0
  0
LINE
  5
1C529
  8
SU
  6
CONTINUOUS
 62
     3
 10
-113.8439574136337
 20
-74.32366295181393
 30
0.0
 11
-103.68268388015279
 21
-74.32366295181393
 31
0.0
  0
LINE
  5
1C52A
  8
SU
  6
CONTINUOUS
 62
     3
 10
-113.7239574136337
 20
-74.523662951813932
 30
0.0
 11
-103.8026838801529
 21
-74.523662951813932
 31
0.0
  0
LINE
  5
1C52B
  8
SU
  6
CONTINUOUS
 62
     3
 10
-113.60395741363359
 20
-74.723662951813935
 30
0.0
 11
-103.9226838801529
 21
-74.723662951813935
 31
0.0
  0
LINE
  5
1C52C
  8
SU
  6
CONTINUOUS
 62
     3
 10
-113.4839574136337
 20
-74.923662951813952
 30
0.0
 11
-104.04268388015259
 21
-74.923662951813952
 31
0.0
  0
LINE
  5
1C52D
  8
SU
  6
CONTINUOUS
 62
     3
 10
-113.3639574136337
 20
-75.123662951813941
 30
0.0
 11
-104.1626838801529
 21
-75.123662951813941
 31
0.0
  0
LINE
  5
1C52E
  8
SU
  6
CONTINUOUS
 62
     3
 10
-113.24395741363359
 20
-75.32366295181393
 30
0.0
 11
-104.2826838801529
 21
-75.32366295181393
 31
0.0
  0
LINE
  5
1C52F
  8
SU
  6
CONTINUOUS
 62
     3
 10
-113.1239574136337
 20
-75.523662951813932
 30
0.0
 11
-104.40268388015291
 21
-75.523662951813932
 31
0.0
  0
LINE
  5
1C530
  8
SU
  6
CONTINUOUS
 62
     3
 10
-113.0039574136337
 20
-75.723662951813935
 30
0.0
 11
-104.5226838801529
 21
-75.723662951813935
 31
0.0
  0
LINE
  5
1C531
  8
SU
  6
CONTINUOUS
 62
     3
 10
-112.88395741363369
 20
-75.923662951813952
 30
0.0
 11
-104.6426838801529
 21
-75.923662951813952
 31
0.0
  0
LINE
  5
1C532
  8
SU
  6
CONTINUOUS
 62
     3
 10
-112.76395741363351
 20
-76.123662951813941
 30
0.0
 11
-104.76268388015291
 21
-76.123662951813941
 31
0.0
  0
LINE
  5
1C533
  8
SU
  6
CONTINUOUS
 62
     3
 10
-112.6439574136337
 20
-76.32366295181393
 30
0.0
 11
-104.8826838801529
 21
-76.32366295181393
 31
0.0
  0
LINE
  5
1C534
  8
SU
  6
CONTINUOUS
 62
     3
 10
-112.5239574136337
 20
-76.523662951813932
 30
0.0
 11
-105.0026838801528
 21
-76.523662951813932
 31
0.0
  0
LINE
  5
1C535
  8
SU
  6
CONTINUOUS
 62
     3
 10
-112.40395741363371
 20
-76.723662951813935
 30
0.0
 11
-105.12268388015281
 21
-76.723662951813935
 31
0.0
  0
LINE
  5
1C536
  8
SU
  6
CONTINUOUS
 62
     3
 10
-112.2839574136337
 20
-76.923662951813952
 30
0.0
 11
-105.2426838801525
 21
-76.923662951813952
 31
0.0
  0
LINE
  5
1C537
  8
SU
  6
CONTINUOUS
 62
     3
 10
-112.1639574136337
 20
-77.123662951813941
 30
0.0
 11
-105.3626838801529
 21
-77.123662951813941
 31
0.0
  0
LINE
  5
1C538
  8
SU
  6
CONTINUOUS
 62
     3
 10
-112.04395741363371
 20
-77.323662951813901
 30
0.0
 11
-105.4826838801529
 21
-77.323662951813901
 31
0.0
  0
LINE
  5
1C539
  8
SU
  6
CONTINUOUS
 62
     3
 10
-111.9239574136337
 20
-77.523662951813932
 30
0.0
 11
-105.6026838801529
 21
-77.523662951813932
 31
0.0
  0
LINE
  5
1C53A
  8
SU
  6
CONTINUOUS
 62
     3
 10
-111.8039574136337
 20
-77.723662951813935
 30
0.0
 11
-105.7226838801529
 21
-77.723662951813935
 31
0.0
  0
LINE
  5
1C53B
  8
SU
  6
CONTINUOUS
 62
     3
 10
-111.68395741363371
 20
-77.923662951813952
 30
0.0
 11
-105.8426838801529
 21
-77.923662951813952
 31
0.0
  0
LINE
  5
1C53C
  8
SU
  6
CONTINUOUS
 62
     3
 10
-111.5639574136337
 20
-78.123662951813941
 30
0.0
 11
-105.9626838801527
 21
-78.123662951813941
 31
0.0
  0
LINE
  5
1C53D
  8
SU
  6
CONTINUOUS
 62
     3
 10
-111.4439574136337
 20
-78.32366295181393
 30
0.0
 11
-106.0826838801529
 21
-78.32366295181393
 31
0.0
  0
LINE
  5
1C53E
  8
SU
  6
CONTINUOUS
 62
     3
 10
-111.32395741363371
 20
-78.523662951813932
 30
0.0
 11
-106.2026838801528
 21
-78.523662951813932
 31
0.0
  0
LINE
  5
1C53F
  8
SU
  6
CONTINUOUS
 62
     3
 10
-111.2039574136337
 20
-78.723662951813935
 30
0.0
 11
-106.32268388015279
 21
-78.723662951813935
 31
0.0
  0
LINE
  5
1C540
  8
SU
  6
CONTINUOUS
 62
     3
 10
-111.0839574136337
 20
-78.923662951813952
 30
0.0
 11
-106.4426838801528
 21
-78.923662951813952
 31
0.0
  0
LINE
  5
1C541
  8
SU
  6
CONTINUOUS
 62
     3
 10
-110.96395741363359
 20
-79.123662951813941
 30
0.0
 11
-106.5626838801527
 21
-79.123662951813941
 31
0.0
  0
LINE
  5
1C542
  8
SU
  6
CONTINUOUS
 62
     3
 10
-110.8439574136337
 20
-79.32366295181393
 30
0.0
 11
-106.68268388015279
 21
-79.32366295181393
 31
0.0
  0
LINE
  5
1C543
  8
SU
  6
CONTINUOUS
 62
     3
 10
-110.7239574136337
 20
-79.523662951813932
 30
0.0
 11
-106.8026838801529
 21
-79.523662951813932
 31
0.0
  0
LINE
  5
1C544
  8
SU
  6
CONTINUOUS
 62
     3
 10
-110.60395741363359
 20
-79.723662951813935
 30
0.0
 11
-106.9226838801529
 21
-79.723662951813935
 31
0.0
  0
LINE
  5
1C545
  8
SU
  6
CONTINUOUS
 62
     3
 10
-110.4839574136337
 20
-79.923662951813952
 30
0.0
 11
-107.04268388015259
 21
-79.923662951813952
 31
0.0
  0
LINE
  5
1C546
  8
SU
  6
CONTINUOUS
 62
     3
 10
-110.3639574136337
 20
-80.123662951813941
 30
0.0
 11
-107.1626838801529
 21
-80.123662951813941
 31
0.0
  0
LINE
  5
1C547
  8
SU
  6
CONTINUOUS
 62
     3
 10
-110.2439574136335
 20
-80.32366295181393
 30
0.0
 11
-107.2826838801529
 21
-80.32366295181393
 31
0.0
  0
LINE
  5
1C548
  8
SU
  6
CONTINUOUS
 62
     3
 10
-110.12395741363351
 20
-80.523662951813932
 30
0.0
 11
-107.40268388015291
 21
-80.523662951813932
 31
0.0
  0
LINE
  5
1C549
  8
SU
  6
CONTINUOUS
 62
     3
 10
-110.0039574136337
 20
-80.723662951813935
 30
0.0
 11
-107.5226838801529
 21
-80.723662951813935
 31
0.0
  0
LINE
  5
1C54A
  8
SU
  6
CONTINUOUS
 62
     3
 10
-109.88395741363369
 20
-80.923662951813952
 30
0.0
 11
-107.6426838801529
 21
-80.923662951813952
 31
0.0
  0
LINE
  5
1C54B
  8
SU
  6
CONTINUOUS
 62
     3
 10
-109.7639574136337
 20
-81.123662951813913
 30
0.0
 11
-107.76268388015291
 21
-81.123662951813913
 31
0.0
  0
LINE
  5
1C54C
  8
SU
  6
CONTINUOUS
 62
     3
 10
-109.6439574136337
 20
-81.32366295181393
 30
0.0
 11
-107.8826838801529
 21
-81.32366295181393
 31
0.0
  0
LINE
  5
1C54D
  8
SU
  6
CONTINUOUS
 62
     3
 10
-109.5239574136337
 20
-81.523662951813918
 30
0.0
 11
-108.0026838801529
 21
-81.523662951813918
 31
0.0
  0
LINE
  5
1C54E
  8
SU
  6
CONTINUOUS
 62
     3
 10
-109.40395741363371
 20
-81.723662951813935
 30
0.0
 11
-108.12268388015281
 21
-81.723662951813935
 31
0.0
  0
LINE
  5
1C54F
  8
SU
  6
CONTINUOUS
 62
     3
 10
-109.2839574136337
 20
-81.923662951813952
 30
0.0
 11
-108.2426838801529
 21
-81.923662951813952
 31
0.0
  0
LINE
  5
1C550
  8
SU
  6
CONTINUOUS
 62
     3
 10
-109.1639574136337
 20
-82.123662951813955
 30
0.0
 11
-108.3626838801529
 21
-82.123662951813955
 31
0.0
  0
LINE
  5
1C551
  8
SU
  6
CONTINUOUS
 62
     3
 10
-109.04395741363371
 20
-82.323662951813915
 30
0.0
 11
-108.48268388015271
 21
-82.323662951813915
 31
0.0
  0
LINE
  5
1C552
  8
SU
  6
CONTINUOUS
 62
     3
 10
-108.9239574136337
 20
-82.523662951813947
 30
0.0
 11
-108.6026838801529
 21
-82.523662951813947
 31
0.0
  0
LINE
  5
1C553
  8
SU
  6
CONTINUOUS
 62
     3
 10
-108.8039574136337
 20
-82.723662951813935
 30
0.0
 11
-108.7226838801529
 21
-82.723662951813935
 31
0.0
  0
TEXT
  5
1C554
  8
SU
  6
CONTINUOUS
 62
     3
 10
-262.743320647046
 20
68.504765774031966
 30
0.0
 40
4.0
  1
140
 41
0.8299999999999999
  0
TEXT
  5
1C555
  8
SU
  6
CONTINUOUS
 62
     3
 10
-261.504271913379
 20
83.504765774032734
 30
0.0
 40
4.0
  1
24
 41
0.8299999999999999
  0
TEXT
  5
1C556
  8
SU
  6
CONTINUOUS
 62
     3
 10
-360.06332064699558
 20
107.7919876089377
 30
0.0
 40
4.0
  1
（20）
 50
90.0
 41
0.8299999999999999
  0
TEXT
  5
1C557
  8
SU
  6
CONTINUOUS
 62
     3
 10
-299.5466528044447
 20
83.504765774032521
 30
0.0
 40
4.0
  1
47.5
 41
0.8299999999999999
  0
TEXT
  5
1C558
  8
SU
  6
CONTINUOUS
 62
     3
 10
-136.56332064699549
 20
131.59965214499641
 30
0.0
 40
4.0
  1
3
 50
90.0
 41
0.8299999999999999
  0
TEXT
  5
1C559
  8
SU
  6
CONTINUOUS
 62
     3
 10
-174.53760636138239
 20
83.504765774032492
 30
0.0
 40
4.0
  1
7.5
 41
0.8299999999999999
  0
TEXT
  5
1C55A
  8
SU
  6
CONTINUOUS
 62
     3
 10
-125.063320646892
 20
132.46381339307851
 30
0.0
 40
4.0
  1
24
 50
90.0
 41
0.8299999999999999
  0
TEXT
  5
1C55B
  8
SU
  6
CONTINUOUS
 62
     3
 10
-213.42522467702261
 20
83.504765774032492
 30
0.0
 40
4.0
  1
50
 41
0.8299999999999999
  0
TEXT
  5
1C55C
  8
SU
  6
CONTINUOUS
 62
     3
 10
-243.68808267426201
 20
83.504765774032663
 30
0.0
 40
4.0
  1
11
 41
0.8299999999999999
  0
LINE
  5
1C55D
  8
SU
  6
CONTINUOUS
 62
     3
 10
-108.8039574136337
 20
147.63703782946371
 30
0.0
 11
-108.7226838801529
 21
147.63703782946371
 31
0.0
  0
LINE
  5
1C55E
  8
SU
  6
CONTINUOUS
 62
     3
 10
-108.9239574136334
 20
147.43703782946361
 30
0.0
 11
-108.6026838801529
 21
147.43703782946361
 31
0.0
  0
LINE
  5
1C55F
  8
SU
  6
CONTINUOUS
 62
     3
 10
-109.04395741363371
 20
147.2370378294637
 30
0.0
 11
-108.4826838801529
 21
147.2370378294637
 31
0.0
  0
LINE
  5
1C560
  8
SU
  6
CONTINUOUS
 62
     3
 10
-109.1639574136337
 20
147.03703782946371
 30
0.0
 11
-108.3626838801529
 21
147.03703782946371
 31
0.0
  0
LINE
  5
1C561
  8
SU
  6
CONTINUOUS
 62
     3
 10
-109.2839574136337
 20
146.83703782946341
 30
0.0
 11
-108.2426838801529
 21
146.83703782946341
 31
0.0
  0
LINE
  5
1C562
  8
SU
  6
CONTINUOUS
 62
     3
 10
-109.40395741363371
 20
146.63703782946371
 30
0.0
 11
-108.12268388015291
 21
146.63703782946371
 31
0.0
  0
LINE
  5
1C563
  8
SU
  6
CONTINUOUS
 62
     3
 10
-109.5239574136337
 20
146.43703782946361
 30
0.0
 11
-108.0026838801529
 21
146.43703782946361
 31
0.0
  0
LINE
  5
1C564
  8
SU
  6
CONTINUOUS
 62
     3
 10
-109.6439574136337
 20
146.2370378294637
 30
0.0
 11
-107.8826838801529
 21
146.2370378294637
 31
0.0
  0
LINE
  5
1C565
  8
SU
  6
CONTINUOUS
 62
     3
 10
-109.7639574136337
 20
146.03703782946371
 30
0.0
 11
-107.76268388015291
 21
146.03703782946371
 31
0.0
  0
LINE
  5
1C566
  8
SU
  6
CONTINUOUS
 62
     3
 10
-109.88395741363369
 20
145.83703782946341
 30
0.0
 11
-107.6426838801529
 21
145.83703782946341
 31
0.0
  0
LINE
  5
1C567
  8
SU
  6
CONTINUOUS
 62
     3
 10
-110.0039574136337
 20
145.63703782946371
 30
0.0
 11
-107.5226838801529
 21
145.63703782946371
 31
0.0
  0
LINE
  5
1C568
  8
SU
  6
CONTINUOUS
 62
     3
 10
-110.12395741363351
 20
145.43703782946361
 30
0.0
 11
-107.40268388015291
 21
145.43703782946361
 31
0.0
  0
LINE
  5
1C569
  8
SU
  6
CONTINUOUS
 62
     3
 10
-110.2439574136335
 20
145.2370378294637
 30
0.0
 11
-107.2826838801529
 21
145.2370378294637
 31
0.0
  0
LINE
  5
1C56A
  8
SU
  6
CONTINUOUS
 62
     3
 10
-110.3639574136337
 20
145.03703782946371
 30
0.0
 11
-107.1626838801529
 21
145.03703782946371
 31
0.0
  0
LINE
  5
1C56B
  8
SU
  6
CONTINUOUS
 62
     3
 10
-110.4839574136337
 20
144.8370378294635
 30
0.0
 11
-107.04268388015259
 21
144.8370378294635
 31
0.0
  0
LINE
  5
1C56C
  8
SU
  6
CONTINUOUS
 62
     3
 10
-110.60395741363359
 20
144.63703782946371
 30
0.0
 11
-106.9226838801529
 21
144.63703782946371
 31
0.0
  0
LINE
  5
1C56D
  8
SU
  6
CONTINUOUS
 62
     3
 10
-110.7239574136337
 20
144.43703782946341
 30
0.0
 11
-106.8026838801529
 21
144.43703782946341
 31
0.0
  0
LINE
  5
1C56E
  8
SU
  6
CONTINUOUS
 62
     3
 10
-110.8439574136337
 20
144.2370378294637
 30
0.0
 11
-106.68268388015279
 21
144.2370378294637
 31
0.0
  0
LINE
  5
1C56F
  8
SU
  6
CONTINUOUS
 62
     3
 10
-110.96395741363359
 20
144.03703782946371
 30
0.0
 11
-106.5626838801529
 21
144.03703782946371
 31
0.0
  0
LINE
  5
1C570
  8
SU
  6
CONTINUOUS
 62
     3
 10
-111.0839574136337
 20
143.8370378294637
 30
0.0
 11
-106.4426838801529
 21
143.8370378294637
 31
0.0
  0
LINE
  5
1C571
  8
SU
  6
CONTINUOUS
 62
     3
 10
-111.2039574136337
 20
143.63703782946371
 30
0.0
 11
-106.32268388015279
 21
143.63703782946371
 31
0.0
  0
LINE
  5
1C572
  8
SU
  6
CONTINUOUS
 62
     3
 10
-111.32395741363371
 20
143.43703782946341
 30
0.0
 11
-106.2026838801529
 21
143.43703782946341
 31
0.0
  0
LINE
  5
1C573
  8
SU
  6
CONTINUOUS
 62
     3
 10
-111.4439574136337
 20
143.2370378294637
 30
0.0
 11
-106.0826838801529
 21
143.2370378294637
 31
0.0
  0
LINE
  5
1C574
  8
SU
  6
CONTINUOUS
 62
     3
 10
-111.5639574136337
 20
143.03703782946371
 30
0.0
 11
-105.9626838801527
 21
143.03703782946371
 31
0.0
  0
LINE
  5
1C575
  8
SU
  6
CONTINUOUS
 62
     3
 10
-111.68395741363371
 20
142.8370378294637
 30
0.0
 11
-105.8426838801529
 21
142.8370378294637
 31
0.0
  0
LINE
  5
1C576
  8
SU
  6
CONTINUOUS
 62
     3
 10
-111.8039574136337
 20
142.63703782946371
 30
0.0
 11
-105.7226838801529
 21
142.63703782946371
 31
0.0
  0
LINE
  5
1C577
  8
SU
  6
CONTINUOUS
 62
     3
 10
-111.9239574136337
 20
142.43703782946361
 30
0.0
 11
-105.6026838801529
 21
142.43703782946361
 31
0.0
  0
LINE
  5
1C578
  8
SU
  6
CONTINUOUS
 62
     3
 10
-112.04395741363371
 20
142.2370378294637
 30
0.0
 11
-105.4826838801529
 21
142.2370378294637
 31
0.0
  0
LINE
  5
1C579
  8
SU
  6
CONTINUOUS
 62
     3
 10
-112.1639574136337
 20
142.03703782946371
 30
0.0
 11
-105.3626838801529
 21
142.03703782946371
 31
0.0
  0
LINE
  5
1C57A
  8
SU
  6
CONTINUOUS
 62
     3
 10
-112.2839574136337
 20
141.8370378294637
 30
0.0
 11
-105.2426838801529
 21
141.8370378294637
 31
0.0
  0
LINE
  5
1C57B
  8
SU
  6
CONTINUOUS
 62
     3
 10
-112.40395741363371
 20
141.63703782946371
 30
0.0
 11
-105.12268388015291
 21
141.63703782946371
 31
0.0
  0
LINE
  5
1C57C
  8
SU
  6
CONTINUOUS
 62
     3
 10
-112.5239574136337
 20
141.43703782946361
 30
0.0
 11
-105.0026838801529
 21
141.43703782946361
 31
0.0
  0
LINE
  5
1C57D
  8
SU
  6
CONTINUOUS
 62
     3
 10
-112.6439574136337
 20
141.2370378294637
 30
0.0
 11
-104.8826838801529
 21
141.2370378294637
 31
0.0
  0
LINE
  5
1C57E
  8
SU
  6
CONTINUOUS
 62
     3
 10
-112.76395741363351
 20
141.03703782946371
 30
0.0
 11
-104.76268388015291
 21
141.03703782946371
 31
0.0
  0
LINE
  5
1C57F
  8
SU
  6
CONTINUOUS
 62
     3
 10
-112.88395741363369
 20
140.8370378294637
 30
0.0
 11
-104.6426838801529
 21
140.8370378294637
 31
0.0
  0
LINE
  5
1C580
  8
SU
  6
CONTINUOUS
 62
     3
 10
-113.0039574136337
 20
140.63703782946371
 30
0.0
 11
-104.5226838801529
 21
140.63703782946371
 31
0.0
  0
LINE
  5
1C581
  8
SU
  6
CONTINUOUS
 62
     3
 10
-113.1239574136337
 20
140.43703782946361
 30
0.0
 11
-104.40268388015291
 21
140.43703782946361
 31
0.0
  0
LINE
  5
1C582
  8
SU
  6
CONTINUOUS
 62
     3
 10
-113.24395741363359
 20
140.2370378294637
 30
0.0
 11
-104.2826838801529
 21
140.2370378294637
 31
0.0
  0
LINE
  5
1C583
  8
SU
  6
CONTINUOUS
 62
     3
 10
-113.3639574136337
 20
140.03703782946371
 30
0.0
 11
-104.1626838801529
 21
140.03703782946371
 31
0.0
  0
LINE
  5
1C584
  8
SU
  6
CONTINUOUS
 62
     3
 10
-113.4839574136337
 20
139.8370378294637
 30
0.0
 11
-104.04268388015259
 21
139.8370378294637
 31
0.0
  0
LINE
  5
1C585
  8
SU
  6
CONTINUOUS
 62
     3
 10
-113.60395741363359
 20
139.63703782946371
 30
0.0
 11
-103.9226838801529
 21
139.63703782946371
 31
0.0
  0
LINE
  5
1C586
  8
SU
  6
CONTINUOUS
 62
     3
 10
-113.7239574136337
 20
139.43703782946361
 30
0.0
 11
-103.8026838801529
 21
139.43703782946361
 31
0.0
  0
LINE
  5
1C587
  8
SU
  6
CONTINUOUS
 62
     3
 10
-113.8439574136337
 20
139.2370378294637
 30
0.0
 11
-103.68268388015279
 21
139.2370378294637
 31
0.0
  0
LINE
  5
1C588
  8
SU
  6
CONTINUOUS
 62
     3
 10
-113.96395741363339
 20
139.03703782946371
 30
0.0
 11
-103.5626838801529
 21
139.03703782946371
 31
0.0
  0
LINE
  5
1C589
  8
SU
  6
CONTINUOUS
 62
     3
 10
-114.0839574136337
 20
138.8370378294637
 30
0.0
 11
-103.4426838801529
 21
138.8370378294637
 31
0.0
  0
LINE
  5
1C58A
  8
SU
  6
CONTINUOUS
 62
     3
 10
-114.2039574136335
 20
138.63703782946371
 30
0.0
 11
-103.3226838801527
 21
138.63703782946371
 31
0.0
  0
LINE
  5
1C58B
  8
SU
  6
CONTINUOUS
 62
     3
 10
-114.32395741363371
 20
138.43703782946361
 30
0.0
 11
-103.2026838801529
 21
138.43703782946361
 31
0.0
  0
LINE
  5
1C58C
  8
SU
  6
CONTINUOUS
 62
     3
 10
-114.4439574136337
 20
138.2370378294637
 30
0.0
 11
-103.0826838801529
 21
138.2370378294637
 31
0.0
  0
LINE
  5
1C58D
  8
SU
  6
CONTINUOUS
 62
     3
 10
-114.5639574136337
 20
138.03703782946371
 30
0.0
 11
-102.9626838801527
 21
138.03703782946371
 31
0.0
  0
LINE
  5
1C58E
  8
SU
  6
CONTINUOUS
 62
     3
 10
-114.68395741363371
 20
137.8370378294637
 30
0.0
 11
-102.8426838801529
 21
137.8370378294637
 31
0.0
  0
TEXT
  5
1C58F
  8
SU
  6
CONTINUOUS
 62
     3
 10
89.716222351175276
 20
-26.77686802772935
 30
0.0
 40
4.0
  1
140
 50
90.0
 41
0.8299999999999999
  0
TEXT
  5
1C590
  8
SU
  6
CONTINUOUS
 62
     3
 10
41.103457990088813
 20
80.503131972269884
 30
0.0
 40
4.0
  1
（20）
 41
0.8299999999999999
  0
TEXT
  5
1C591
  8
SU
  6
CONTINUOUS
 62
     3
 10
223.1034579900859
 20
80.503131972269884
 30
0.0
 40
4.0
  1
（20）
 41
0.8299999999999999
  0
TEXT
  5
1C592
  8
SU
  6
CONTINUOUS
 62
     3
 10
75.716219902646259
 20
11.470947580575899
 30
0.0
 40
4.0
  1
47.5
 50
90.0
 41
0.8299999999999999
  0
TEXT
  5
1C593
  8
SU
  6
CONTINUOUS
 62
     3
 10
116.49945798229319
 20
-158.99686802771379
 30
0.0
 40
4.0
  1
ドアW（DW）＝W-56
 41
0.8299999999999999
  0
TEXT
  5
1C594
  8
SU
  6
CONTINUOUS
 62
     3
 10
228.1705055857538
 20
-143.99686802771379
 30
0.0
 40
4.0
  1
4
 41
0.8299999999999999
  0
TEXT
  5
1C595
  8
SU
  6
CONTINUOUS
 62
     3
 10
136.11907702991201
 20
-173.99686802771379
 30
0.0
 40
4.0
  1
W
 41
0.8299999999999999
  0
TEXT
  5
1C596
  8
SU
  6
CONTINUOUS
 62
     3
 10
21.77526751389599
 20
-158.99686802771379
 30
0.0
 40
4.0
  1
24
 41
0.8299999999999999
  0
TEXT
  5
1C597
  8
SU
  6
CONTINUOUS
 62
     3
 10
44.541934188356088
 20
-143.99686802771379
 30
0.0
 40
4.0
  1
4
 41
0.8299999999999999
  0
TEXT
  5
1C598
  8
SU
  6
CONTINUOUS
 62
     3
 10
75.716219887055175
 20
-112.9273442182046
 30
0.0
 40
4.0
  1
7.5
 50
90.0
 41
0.8299999999999999
  0
LINE
  5
1C599
  8
SU
  6
CONTINUOUS
 62
     3
 10
13.083947831622281
 20
-175.33750479445411
 30
0.0
 11
13.083947831622281
 21
-175.25623126097341
 31
0.0
  0
LINE
  5
1C59A
  8
SU
  6
CONTINUOUS
 62
     3
 10
13.28394783162226
 20
-175.45750479445411
 30
0.0
 11
13.28394783162226
 21
-175.1362312609732
 31
0.0
  0
LINE
  5
1C59B
  8
SU
  6
CONTINUOUS
 62
     3
 10
13.483947831622279
 20
-175.5775047944538
 30
0.0
 11
13.483947831622279
 21
-175.0162312609734
 31
0.0
  0
LINE
  5
1C59C
  8
SU
  6
CONTINUOUS
 62
     3
 10
13.683947831622261
 20
-175.6975047944542
 30
0.0
 11
13.683947831622261
 21
-174.89623126097339
 31
0.0
  0
LINE
  5
1C59D
  8
SU
  6
CONTINUOUS
 62
     3
 10
13.883947831622271
 20
-175.81750479445401
 30
0.0
 11
13.883947831622271
 21
-174.7762312609733
 31
0.0
  0
LINE
  5
1C59E
  8
SU
  6
CONTINUOUS
 62
     3
 10
14.083947831622259
 20
-175.93750479445399
 30
0.0
 11
14.083947831622259
 21
-174.6562312609733
 31
0.0
  0
LINE
  5
1C59F
  8
SU
  6
CONTINUOUS
 62
     3
 10
14.28394783162226
 20
-176.05750479445391
 30
0.0
 11
14.28394783162226
 21
-174.53623126097341
 31
0.0
  0
LINE
  5
1C5A0
  8
SU
  6
CONTINUOUS
 62
     3
 10
14.48394783162227
 20
-176.17750479445411
 30
0.0
 11
14.48394783162227
 21
-174.4162312609734
 31
0.0
  0
LINE
  5
1C5A1
  8
SU
  6
CONTINUOUS
 62
     3
 10
14.68394783162227
 20
-176.2975047944542
 30
0.0
 11
14.68394783162227
 21
-174.2962312609732
 31
0.0
  0
LINE
  5
1C5A2
  8
SU
  6
CONTINUOUS
 62
     3
 10
14.883947831622271
 20
-176.4175047944542
 30
0.0
 11
14.883947831622271
 21
-174.17623126097331
 31
0.0
  0
LINE
  5
1C5A3
  8
SU
  6
CONTINUOUS
 62
     3
 10
15.08394783162227
 20
-176.53750479445401
 30
0.0
 11
15.08394783162227
 21
-174.05623126097339
 31
0.0
  0
LINE
  5
1C5A4
  8
SU
  6
CONTINUOUS
 62
     3
 10
15.28394783162226
 20
-176.65750479445401
 30
0.0
 11
15.28394783162226
 21
-173.9362312609733
 31
0.0
  0
LINE
  5
1C5A5
  8
SU
  6
CONTINUOUS
 62
     3
 10
15.483947831622279
 20
-176.77750479445399
 30
0.0
 11
15.483947831622279
 21
-173.81623126097341
 31
0.0
  0
LINE
  5
1C5A6
  8
SU
  6
CONTINUOUS
 62
     3
 10
15.68394783162228
 20
-176.89750479445411
 30
0.0
 11
15.68394783162228
 21
-173.69623126097301
 31
0.0
  0
LINE
  5
1C5A7
  8
SU
  6
CONTINUOUS
 62
     3
 10
15.883947831622271
 20
-177.01750479445411
 30
0.0
 11
15.883947831622271
 21
-173.5762312609734
 31
0.0
  0
LINE
  5
1C5A8
  8
SU
  6
CONTINUOUS
 62
     3
 10
16.083947831622279
 20
-177.1375047944542
 30
0.0
 11
16.083947831622279
 21
-173.4562312609734
 31
0.0
  0
LINE
  5
1C5A9
  8
SU
  6
CONTINUOUS
 62
     3
 10
16.283947831622271
 20
-177.25750479445421
 30
0.0
 11
16.283947831622271
 21
-173.33623126097331
 31
0.0
  0
LINE
  5
1C5AA
  8
SU
  6
CONTINUOUS
 62
     3
 10
16.483947831622292
 20
-177.37750479445401
 30
0.0
 11
16.483947831622292
 21
-173.2162312609733
 31
0.0
  0
LINE
  5
1C5AB
  8
SU
  6
CONTINUOUS
 62
     3
 10
16.68394783162228
 20
-177.49750479445399
 30
0.0
 11
16.68394783162228
 21
-173.0962312609733
 31
0.0
  0
LINE
  5
1C5AC
  8
SU
  6
CONTINUOUS
 62
     3
 10
16.883947831622262
 20
-177.61750479445411
 30
0.0
 11
16.883947831622262
 21
-172.97623126097341
 31
0.0
  0
LINE
  5
1C5AD
  8
SU
  6
CONTINUOUS
 62
     3
 10
17.083947831622289
 20
-177.73750479445411
 30
0.0
 11
17.083947831622289
 21
-172.8562312609732
 31
0.0
  0
LINE
  5
1C5AE
  8
SU
  6
CONTINUOUS
 62
     3
 10
17.283947831622271
 20
-177.8575047944542
 30
0.0
 11
17.283947831622271
 21
-172.73623126097331
 31
0.0
  0
LINE
  5
1C5AF
  8
SU
  6
CONTINUOUS
 62
     3
 10
17.483947831622292
 20
-177.97750479445389
 30
0.0
 11
17.483947831622292
 21
-172.61623126097339
 31
0.0
  0
LINE
  5
1C5B0
  8
SU
  6
CONTINUOUS
 62
     3
 10
17.68394783162228
 20
-178.09750479445401
 30
0.0
 11
17.68394783162228
 21
-172.49623126097339
 31
0.0
  0
LINE
  5
1C5B1
  8
SU
  6
CONTINUOUS
 62
     3
 10
17.883947831622262
 20
-178.21750479445419
 30
0.0
 11
17.883947831622262
 21
-172.3762312609733
 31
0.0
  0
LINE
  5
1C5B2
  8
SU
  6
CONTINUOUS
 62
     3
 10
18.083947831622289
 20
-178.33750479445419
 30
0.0
 11
18.083947831622289
 21
-172.25623126097341
 31
0.0
  0
LINE
  5
1C5B3
  8
SU
  6
CONTINUOUS
 62
     3
 10
18.283947831622271
 20
-178.45750479445411
 30
0.0
 11
18.283947831622271
 21
-172.1362312609734
 31
0.0
  0
LINE
  5
1C5B4
  8
SU
  6
CONTINUOUS
 62
     3
 10
18.483947831622281
 20
-178.577504794454
 30
0.0
 11
18.483947831622281
 21
-172.0162312609734
 31
0.0
  0
LINE
  5
1C5B5
  8
SU
  6
CONTINUOUS
 62
     3
 10
18.68394783162228
 20
-178.6975047944542
 30
0.0
 11
18.68394783162228
 21
-171.89623126097331
 31
0.0
  0
LINE
  5
1C5B6
  8
SU
  6
CONTINUOUS
 62
     3
 10
18.883947831622262
 20
-178.81750479445401
 30
0.0
 11
18.883947831622262
 21
-171.77623126097339
 31
0.0
  0
LINE
  5
1C5B7
  8
SU
  6
CONTINUOUS
 62
     3
 10
19.083947831622279
 20
-178.93750479445399
 30
0.0
 11
19.083947831622279
 21
-171.65623126097341
 31
0.0
  0
LINE
  5
1C5B8
  8
SU
  6
CONTINUOUS
 62
     3
 10
19.283947831622271
 20
-179.05750479445391
 30
0.0
 11
19.283947831622271
 21
-171.53623126097341
 31
0.0
  0
LINE
  5
1C5B9
  8
SU
  6
CONTINUOUS
 62
     3
 10
19.483947831622281
 20
-179.17750479445419
 30
0.0
 11
19.483947831622281
 21
-171.4162312609734
 31
0.0
  0
LINE
  5
1C5BA
  8
SU
  6
CONTINUOUS
 62
     3
 10
19.68394783162228
 20
-179.2975047944542
 30
0.0
 11
19.68394783162228
 21
-171.2962312609734
 31
0.0
  0
LINE
  5
1C5BB
  8
SU
  6
CONTINUOUS
 62
     3
 10
19.883947831622262
 20
-179.41750479445389
 30
0.0
 11
19.883947831622262
 21
-171.1762312609734
 31
0.0
  0
LINE
  5
1C5BC
  8
SU
  6
CONTINUOUS
 62
     3
 10
20.083947831622279
 20
-179.53750479445401
 30
0.0
 11
20.083947831622279
 21
-171.05623126097339
 31
0.0
  0
LINE
  5
1C5BD
  8
SU
  6
CONTINUOUS
 62
     3
 10
20.283947831622271
 20
-179.65750479445401
 30
0.0
 11
20.283947831622271
 21
-170.93623126097339
 31
0.0
  0
LINE
  5
1C5BE
  8
SU
  6
CONTINUOUS
 62
     3
 10
20.483947831622281
 20
-179.77750479445419
 30
0.0
 11
20.483947831622281
 21
-170.81623126097341
 31
0.0
  0
LINE
  5
1C5BF
  8
SU
  6
CONTINUOUS
 62
     3
 10
20.68394783162228
 20
-179.89750479445411
 30
0.0
 11
20.68394783162228
 21
-170.69623126097341
 31
0.0
  0
LINE
  5
1C5C0
  8
SU
  6
CONTINUOUS
 62
     3
 10
20.883947831622262
 20
-180.01750479445411
 30
0.0
 11
20.883947831622262
 21
-170.5762312609734
 31
0.0
  0
LINE
  5
1C5C1
  8
SU
  6
CONTINUOUS
 62
     3
 10
21.083947831622279
 20
-180.1375047944542
 30
0.0
 11
21.083947831622279
 21
-170.4562312609734
 31
0.0
  0
LINE
  5
1C5C2
  8
SU
  6
CONTINUOUS
 62
     3
 10
21.283947831622282
 20
-180.25750479445421
 30
0.0
 11
21.283947831622282
 21
-170.33623126097339
 31
0.0
  0
LINE
  5
1C5C3
  8
SU
  6
CONTINUOUS
 62
     3
 10
21.483947831622292
 20
-180.37750479445401
 30
0.0
 11
21.483947831622292
 21
-170.21623126097339
 31
0.0
  0
LINE
  5
1C5C4
  8
SU
  6
CONTINUOUS
 62
     3
 10
21.68394783162228
 20
-180.49750479445399
 30
0.0
 11
21.68394783162228
 21
-170.09623126097341
 31
0.0
  0
LINE
  5
1C5C5
  8
SU
  6
CONTINUOUS
 62
     3
 10
21.883947831622262
 20
-180.61750479445399
 30
0.0
 11
21.883947831622262
 21
-169.97623126097341
 31
0.0
  0
LINE
  5
1C5C6
  8
SU
  6
CONTINUOUS
 62
     3
 10
22.083947831622289
 20
-180.73750479445411
 30
0.0
 11
22.083947831622289
 21
-169.8562312609734
 31
0.0
  0
LINE
  5
1C5C7
  8
SU
  6
CONTINUOUS
 62
     3
 10
22.283947831622271
 20
-180.857504794454
 30
0.0
 11
22.283947831622271
 21
-169.7362312609734
 31
0.0
  0
LINE
  5
1C5C8
  8
SU
  6
CONTINUOUS
 62
     3
 10
22.483947831622292
 20
-180.97750479445401
 30
0.0
 11
22.483947831622292
 21
-169.61623126097339
 31
0.0
  0
LINE
  5
1C5C9
  8
SU
  6
CONTINUOUS
 62
     3
 10
22.68394783162228
 20
-181.09750479445401
 30
0.0
 11
22.68394783162228
 21
-169.49623126097339
 31
0.0
  0
LINE
  5
1C5CA
  8
SU
  6
CONTINUOUS
 62
     3
 10
22.883947831622269
 20
-181.21750479445399
 30
0.0
 11
22.883947831622269
 21
-169.37623126097341
 31
0.0
  0
TEXT
  5
1C5CB
  8
SU
  6
CONTINUOUS
 62
     3
 10
75.716219887055175
 20
-72.458771933394203
 30
0.0
 40
4.0
  1
50
 50
90.0
 41
0.8299999999999999
  0
TEXT
  5
1C5CC
  8
SU
  6
CONTINUOUS
 62
     3
 10
75.716219887055175
 20
-41.721628220028393
 30
0.0
 40
4.0
  1
11
 50
90.0
 41
0.8299999999999999
  0
TEXT
  5
1C5CD
  8
SU
  6
CONTINUOUS
 62
     3
 10
75.716219887055146
 20
-24.537819933417921
 30
0.0
 40
4.0
  1
24
 50
90.0
 41
0.8299999999999999
  0
TEXT
  5
1C5CE
  8
SU
  6
CONTINUOUS
 62
     3
 10
247.77526749830929
 20
-158.99686802771379
 30
0.0
 40
4.0
  1
24
 41
0.8299999999999999
  0
LINE
  5
1C5CF
  8
SU
  6
CONTINUOUS
 62
     3
 10
253.1484919424876
 20
-181.21750479445399
 30
0.0
 11
253.1484919424876
 21
-169.37623126097341
 31
0.0
  0
LINE
  5
1C5D0
  8
SU
  6
CONTINUOUS
 62
     3
 10
253.34849194248781
 20
-181.09750479445401
 30
0.0
 11
253.34849194248781
 21
-169.49623126097339
 31
0.0
  0
LINE
  5
1C5D1
  8
SU
  6
CONTINUOUS
 62
     3
 10
253.5484919424876
 20
-180.97750479445401
 30
0.0
 11
253.5484919424876
 21
-169.61623126097339
 31
0.0
  0
LINE
  5
1C5D2
  8
SU
  6
CONTINUOUS
 62
     3
 10
253.7484919424875
 20
-180.857504794454
 30
0.0
 11
253.7484919424875
 21
-169.7362312609734
 31
0.0
  0
LINE
  5
1C5D3
  8
SU
  6
CONTINUOUS
 62
     3
 10
253.94849194248781
 20
-180.73750479445411
 30
0.0
 11
253.94849194248781
 21
-169.8562312609734
 31
0.0
  0
LINE
  5
1C5D4
  8
SU
  6
CONTINUOUS
 62
     3
 10
254.14849194248751
 20
-180.61750479445399
 30
0.0
 11
254.14849194248751
 21
-169.97623126097341
 31
0.0
  0
LINE
  5
1C5D5
  8
SU
  6
CONTINUOUS
 62
     3
 10
254.34849194248781
 20
-180.49750479445399
 30
0.0
 11
254.34849194248781
 21
-170.0962312609735
 31
0.0
  0
LINE
  5
1C5D6
  8
SU
  6
CONTINUOUS
 62
     3
 10
254.5484919424878
 20
-180.37750479445401
 30
0.0
 11
254.5484919424878
 21
-170.21623126097339
 31
0.0
  0
LINE
  5
1C5D7
  8
SU
  6
CONTINUOUS
 62
     3
 10
254.74849194248759
 20
-180.25750479445421
 30
0.0
 11
254.74849194248759
 21
-170.33623126097339
 31
0.0
  0
LINE
  5
1C5D8
  8
SU
  6
CONTINUOUS
 62
     3
 10
254.94849194248781
 20
-180.1375047944542
 30
0.0
 11
254.94849194248781
 21
-170.4562312609734
 31
0.0
  0
LINE
  5
1C5D9
  8
SU
  6
CONTINUOUS
 62
     3
 10
255.1484919424876
 20
-180.01750479445411
 30
0.0
 11
255.1484919424876
 21
-170.5762312609734
 31
0.0
  0
LINE
  5
1C5DA
  8
SU
  6
CONTINUOUS
 62
     3
 10
255.34849194248781
 20
-179.89750479445411
 30
0.0
 11
255.34849194248781
 21
-170.69623126097341
 31
0.0
  0
LINE
  5
1C5DB
  8
SU
  6
CONTINUOUS
 62
     3
 10
255.5484919424876
 20
-179.77750479445419
 30
0.0
 11
255.5484919424876
 21
-170.81623126097341
 31
0.0
  0
LINE
  5
1C5DC
  8
SU
  6
CONTINUOUS
 62
     3
 10
255.7484919424875
 20
-179.65750479445401
 30
0.0
 11
255.7484919424875
 21
-170.93623126097339
 31
0.0
  0
LINE
  5
1C5DD
  8
SU
  6
CONTINUOUS
 62
     3
 10
255.94849194248781
 20
-179.53750479445401
 30
0.0
 11
255.94849194248781
 21
-171.05623126097339
 31
0.0
  0
LINE
  5
1C5DE
  8
SU
  6
CONTINUOUS
 62
     3
 10
256.14849194248762
 20
-179.41750479445381
 30
0.0
 11
256.14849194248762
 21
-171.1762312609734
 31
0.0
  0
LINE
  5
1C5DF
  8
SU
  6
CONTINUOUS
 62
     3
 10
256.34849194248773
 20
-179.29750479445411
 30
0.0
 11
256.34849194248773
 21
-171.2962312609734
 31
0.0
  0
LINE
  5
1C5E0
  8
SU
  6
CONTINUOUS
 62
     3
 10
256.54849194248749
 20
-179.17750479445411
 30
0.0
 11
256.54849194248749
 21
-171.4162312609734
 31
0.0
  0
LINE
  5
1C5E1
  8
SU
  6
CONTINUOUS
 62
     3
 10
256.74849194248782
 20
-179.05750479445379
 30
0.0
 11
256.74849194248782
 21
-171.53623126097341
 31
0.0
  0
LINE
  5
1C5E2
  8
SU
  6
CONTINUOUS
 62
     3
 10
256.94849194248781
 20
-178.93750479445399
 30
0.0
 11
256.94849194248781
 21
-171.6562312609735
 31
0.0
  0
LINE
  5
1C5E3
  8
SU
  6
CONTINUOUS
 62
     3
 10
257.14849194248768
 20
-178.81750479445401
 30
0.0
 11
257.14849194248768
 21
-171.77623126097339
 31
0.0
  0
LINE
  5
1C5E4
  8
SU
  6
CONTINUOUS
 62
     3
 10
257.34849194248773
 20
-178.69750479445401
 30
0.0
 11
257.34849194248773
 21
-171.89623126097351
 31
0.0
  0
LINE
  5
1C5E5
  8
SU
  6
CONTINUOUS
 62
     3
 10
257.5484919424876
 20
-178.577504794454
 30
0.0
 11
257.5484919424876
 21
-172.01623126097351
 31
0.0
  0
LINE
  5
1C5E6
  8
SU
  6
CONTINUOUS
 62
     3
 10
257.74849194248782
 20
-178.45750479445411
 30
0.0
 11
257.74849194248782
 21
-172.1362312609734
 31
0.0
  0
LINE
  5
1C5E7
  8
SU
  6
CONTINUOUS
 62
     3
 10
257.94849194248769
 20
-178.33750479445411
 30
0.0
 11
257.94849194248769
 21
-172.25623126097341
 31
0.0
  0
LINE
  5
1C5E8
  8
SU
  6
CONTINUOUS
 62
     3
 10
258.14849194248762
 20
-178.21750479445419
 30
0.0
 11
258.14849194248762
 21
-172.3762312609735
 31
0.0
  0
LINE
  5
1C5E9
  8
SU
  6
CONTINUOUS
 62
     3
 10
258.34849194248773
 20
-178.09750479445401
 30
0.0
 11
258.34849194248773
 21
-172.49623126097339
 31
0.0
  0
LINE
  5
1C5EA
  8
SU
  6
CONTINUOUS
 62
     3
 10
258.54849194248749
 20
-177.97750479445381
 30
0.0
 11
258.54849194248749
 21
-172.61623126097339
 31
0.0
  0
LINE
  5
1C5EB
  8
SU
  6
CONTINUOUS
 62
     3
 10
258.74849194248782
 20
-177.857504794454
 30
0.0
 11
258.74849194248782
 21
-172.73623126097331
 31
0.0
  0
LINE
  5
1C5EC
  8
SU
  6
CONTINUOUS
 62
     3
 10
258.94849194248781
 20
-177.73750479445411
 30
0.0
 11
258.94849194248781
 21
-172.8562312609732
 31
0.0
  0
LINE
  5
1C5ED
  8
SU
  6
CONTINUOUS
 62
     3
 10
259.14849194248768
 20
-177.61750479445411
 30
0.0
 11
259.14849194248768
 21
-172.97623126097341
 31
0.0
  0
LINE
  5
1C5EE
  8
SU
  6
CONTINUOUS
 62
     3
 10
259.34849194248773
 20
-177.49750479445399
 30
0.0
 11
259.34849194248773
 21
-173.0962312609735
 31
0.0
  0
LINE
  5
1C5EF
  8
SU
  6
CONTINUOUS
 62
     3
 10
259.5484919424876
 20
-177.37750479445401
 30
0.0
 11
259.5484919424876
 21
-173.2162312609733
 31
0.0
  0
LINE
  5
1C5F0
  8
SU
  6
CONTINUOUS
 62
     3
 10
259.74849194248782
 20
-177.25750479445421
 30
0.0
 11
259.74849194248782
 21
-173.33623126097331
 31
0.0
  0
LINE
  5
1C5F1
  8
SU
  6
CONTINUOUS
 62
     3
 10
259.94849194248769
 20
-177.1375047944542
 30
0.0
 11
259.94849194248769
 21
-173.4562312609734
 31
0.0
  0
LINE
  5
1C5F2
  8
SU
  6
CONTINUOUS
 62
     3
 10
260.14849194248762
 20
-177.01750479445411
 30
0.0
 11
260.14849194248762
 21
-173.5762312609734
 31
0.0
  0
LINE
  5
1C5F3
  8
SU
  6
CONTINUOUS
 62
     3
 10
260.34849194248773
 20
-176.89750479445411
 30
0.0
 11
260.34849194248773
 21
-173.69623126097309
 31
0.0
  0
LINE
  5
1C5F4
  8
SU
  6
CONTINUOUS
 62
     3
 10
260.54849194248749
 20
-176.77750479445399
 30
0.0
 11
260.54849194248749
 21
-173.81623126097341
 31
0.0
  0
LINE
  5
1C5F5
  8
SU
  6
CONTINUOUS
 62
     3
 10
260.74849194248782
 20
-176.65750479445401
 30
0.0
 11
260.74849194248782
 21
-173.9362312609733
 31
0.0
  0
LINE
  5
1C5F6
  8
SU
  6
CONTINUOUS
 62
     3
 10
260.94849194248781
 20
-176.53750479445401
 30
0.0
 11
260.94849194248781
 21
-174.05623126097339
 31
0.0
  0
LINE
  5
1C5F7
  8
SU
  6
CONTINUOUS
 62
     3
 10
261.14849194248768
 20
-176.417504794454
 30
0.0
 11
261.14849194248768
 21
-174.17623126097331
 31
0.0
  0
LINE
  5
1C5F8
  8
SU
  6
CONTINUOUS
 62
     3
 10
261.34849194248773
 20
-176.29750479445411
 30
0.0
 11
261.34849194248773
 21
-174.2962312609732
 31
0.0
  0
LINE
  5
1C5F9
  8
SU
  6
CONTINUOUS
 62
     3
 10
261.5484919424876
 20
-176.17750479445411
 30
0.0
 11
261.5484919424876
 21
-174.4162312609734
 31
0.0
  0
LINE
  5
1C5FA
  8
SU
  6
CONTINUOUS
 62
     3
 10
261.74849194248782
 20
-176.05750479445379
 30
0.0
 11
261.74849194248782
 21
-174.53623126097341
 31
0.0
  0
LINE
  5
1C5FB
  8
SU
  6
CONTINUOUS
 62
     3
 10
261.94849194248769
 20
-175.93750479445399
 30
0.0
 11
261.94849194248769
 21
-174.6562312609733
 31
0.0
  0
LINE
  5
1C5FC
  8
SU
  6
CONTINUOUS
 62
     3
 10
262.14849194248762
 20
-175.81750479445401
 30
0.0
 11
262.14849194248762
 21
-174.7762312609735
 31
0.0
  0
LINE
  5
1C5FD
  8
SU
  6
CONTINUOUS
 62
     3
 10
262.34849194248773
 20
-175.69750479445401
 30
0.0
 11
262.34849194248773
 21
-174.89623126097351
 31
0.0
  0
LINE
  5
1C5FE
  8
SU
  6
CONTINUOUS
 62
     3
 10
262.54849194248749
 20
-175.5775047944538
 30
0.0
 11
262.54849194248749
 21
-175.01623126097351
 31
0.0
  0
LINE
  5
1C5FF
  8
SU
  6
CONTINUOUS
 62
     3
 10
262.74849194248782
 20
-175.45750479445411
 30
0.0
 11
262.74849194248782
 21
-175.1362312609732
 31
0.0
  0
LINE
  5
1C600
  8
SU
  6
CONTINUOUS
 62
     3
 10
262.94849194248781
 20
-175.33750479445411
 30
0.0
 11
262.94849194248781
 21
-175.25623126097341
 31
0.0
  0
TEXT
  5
1C601
  8
SU
  6
CONTINUOUS
 62
     3
 10
-373.06332064699473
 20
-68.453294563645244
 30
0.0
 40
4.0
  1
35
 50
90.0
 41
0.8299999999999999
  0
LINE
  5
1C602
  8
OS
  6
CONTINUOUS
 62
     2
 10
33.268737829824651
 20
38.203131972270491
 30
0.0
 11
37.01625060187299
 21
34.455619200222174
 31
0.0
  0
LINE
  5
1C603
  8
OS
  6
CONTINUOUS
 62
     2
 10
28.016250601873079
 20
33.556124263610442
 30
0.0
 11
37.016250601873018
 21
24.55612426361051
 31
0.0
  0
LINE
  5
1C604
  8
OS
  6
CONTINUOUS
 62
     2
 10
13.46974795660172
 20
38.2031319722701
 30
0.0
 11
20.516250601872962
 21
31.156629326998871
 31
0.0
  0
LINE
  5
1C605
  8
OS
  6
CONTINUOUS
 62
     2
 10
24.46974795660196
 20
27.20313197226988
 30
0.0
 11
37.016250601873033
 21
14.65662932699879
 31
0.0
  0
LINE
  5
1C606
  8
OS
  6
CONTINUOUS
 62
     2
 10
13.01625060187305
 20
28.75713439038714
 30
0.0
 11
37.01625060187299
 21
4.757134390387221
 31
0.0
  0
LINE
  5
1C607
  8
OS
  6
CONTINUOUS
 62
     2
 10
13.016250601873111
 20
18.85763945377542
 30
0.0
 11
37.016250601873018
 21
-5.142360546224495
 31
0.0
  0
LINE
  5
1C608
  8
OS
  6
CONTINUOUS
 62
     2
 10
13.016250601873001
 20
8.9581445171638165
 30
0.0
 11
37.016250601873018
 21
-15.04185548283618
 31
0.0
  0
LINE
  5
1C609
  8
OS
  6
CONTINUOUS
 62
     2
 10
13.01625060187305
 20
-0.9413504194478432
 30
0.0
 11
37.01625060187299
 21
-24.94135041944778
 31
0.0
  0
LINE
  5
1C60A
  8
OS
  6
CONTINUOUS
 62
     2
 10
13.016250601873111
 20
-10.840845356059519
 30
0.0
 11
37.01625060187299
 21
-34.84084535605944
 31
0.0
  0
LINE
  5
1C60B
  8
OS
  6
CONTINUOUS
 62
     2
 10
13.016250601873001
 20
-20.740340292671188
 30
0.0
 11
30.016250601872908
 21
-37.740340292671078
 31
0.0
  0
LINE
  5
1C60C
  8
OS
  6
CONTINUOUS
 62
     2
 10
13.016250601873001
 20
-30.639835229282848
 30
0.0
 11
30.016250601872908
 21
-47.639835229282717
 31
0.0
  0
LINE
  5
1C60D
  8
OS
  6
CONTINUOUS
 62
     2
 10
13.01625060187305
 20
-40.539330165894462
 30
0.0
 11
37.01625060187299
 21
-64.539330165894455
 31
0.0
  0
LINE
  5
1C60E
  8
OS
  6
CONTINUOUS
 62
     2
 10
13.01625060187305
 20
-50.4388251025062
 30
0.0
 11
37.01625060187299
 21
-74.438825102506144
 31
0.0
  0
LINE
  5
1C60F
  8
OS
  6
CONTINUOUS
 62
     2
 10
13.016250601873001
 20
-60.338320039117832
 30
0.0
 11
37.01625060187299
 21
-84.338320039117804
 31
0.0
  0
LINE
  5
1C610
  8
OS
  6
CONTINUOUS
 62
     2
 10
13.016250601873001
 20
-70.237814975729492
 30
0.0
 11
37.016250601873018
 21
-94.237814975729478
 31
0.0
  0
LINE
  5
1C611
  8
OS
  6
CONTINUOUS
 62
     2
 10
13.01625060187296
 20
-80.137309912341067
 30
0.0
 11
23.675808717261798
 21
-90.796868027729928
 31
0.0
  0
LINE
  5
1C612
  8
OS
  6
CONTINUOUS
 62
     2
 10
28.016250601873001
 20
-95.137309912341081
 30
0.0
 11
34.675808717261802
 21
-101.7968680277299
 31
0.0
  0
LINE
  5
1C613
  8
OS
  6
CONTINUOUS
 62
     2
 10
13.016250601873001
 20
-90.036804848952826
 30
0.0
 11
20.516250601872962
 21
-97.536804848952841
 31
0.0
  0
LINE
  5
1C614
  8
OS
  6
CONTINUOUS
 62
     2
 10
13.01625060187299
 20
-99.936299785564486
 30
0.0
 11
14.876818844038491
 21
-101.7968680277299
 31
0.0
  0
LINE
  5
1C615
  8
OS
  6
CONTINUOUS
 62
     2
 10
-328.30724889384601
 20
156.70476577330439
 30
0.0
 11
-324.76332064196191
 21
153.16083752142021
 31
0.0
  0
LINE
  5
1C616
  8
OS
  6
CONTINUOUS
 62
     2
 10
-311.30724889733273
 20
139.70476577679091
 30
0.0
 11
-309.7633206388852
 21
138.16083751834361
 31
0.0
  0
LINE
  5
1C617
  8
OS
  6
CONTINUOUS
 62
     2
 10
-333.76332064177723
 20
152.2613425846238
 30
0.0
 11
-324.76332063993112
 21
143.26134258277779
 31
0.0
  0
LINE
  5
1C618
  8
OS
  6
CONTINUOUS
 62
     2
 10
-321.20674383191403
 20
139.7047657747608
 30
0.0
 11
-314.20674383334921
 21
132.70476577619601
 31
0.0
  0
LINE
  5
1C619
  8
OS
  6
CONTINUOUS
 62
     2
 10
-333.76332063974701
 20
142.36184764598181
 30
0.0
 11
-324.10623876793062
 21
132.70476577416551
 31
0.0
  0
LINE
  5
1C61A
  8
OS
  6
CONTINUOUS
 62
     2
 10
-161.76332064563081
 20
142.36184764054681
 30
0.0
 11
-171.42040251744689
 21
132.70476576873079
 31
0.0
  0
LINE
  5
1C61B
  8
OS
  6
CONTINUOUS
 62
     2
 10
-161.76332064360031
 20
152.26134257918901
 30
0.0
 11
-170.7633206454461
 21
143.2613425773431
 31
0.0
  0
LINE
  5
1C61C
  8
OS
  6
CONTINUOUS
 62
     2
 10
-174.31989745346351
 20
139.7047657693256
 30
0.0
 11
-181.31989745202799
 21
132.70476577076121
 31
0.0
  0
LINE
  5
1C61D
  8
OS
  6
CONTINUOUS
 62
     2
 10
-167.21939239153139
 20
156.70476576786959
 30
0.0
 11
-170.76332064341591
 21
153.16083751598509
 31
0.0
  0
LINE
  5
1C61E
  8
OS
  6
CONTINUOUS
 62
     2
 10
-184.21939238804489
 20
139.70476577135611
 30
0.0
 11
-185.7633206464925
 21
138.1608375129085
 31
0.0
  0
LINE
  5
1C61F
  8
OS
  6
CONTINUOUS
 62
     2
 10
20.152663477009181
 20
59.203131967915432
 30
0.0
 11
28.016219902646348
 21
51.339575542278169
 31
0.0
  0
LINE
  5
1C620
  8
OS
  6
CONTINUOUS
 62
     2
 10
10.253168536336741
 20
59.203131971976177
 30
0.0
 11
28.016219902646348
 21
41.440080605666573
 31
0.0
  0
LINE
  5
1C621
  8
OS
  6
CONTINUOUS
 62
     2
 10
4.0162199026463554
 20
55.540585669054899
 30
0.0
 11
14.353673601407021
 21
45.20313197029418
 31
0.0
  0
LINE
  5
1C622
  8
OS
  6
CONTINUOUS
 62
     2
 10
21.01621990565619
 20
38.540585666045033
 30
0.0
 11
28.016219902646348
 21
31.540585669054881
 31
0.0
  0
LINE
  5
1C623
  8
OS
  6
CONTINUOUS
 62
     2
 10
4.0162199026463554
 20
45.64109073244321
 30
0.0
 11
4.454178660734609
 21
45.20313197435496
 31
0.0
  0
LINE
  5
1C624
  8
OS
  6
CONTINUOUS
 62
     2
 10
4.0162199026464691
 20
-109.2348267833739
 30
0.0
 11
4.4541786607347831
 21
-108.79686802528541
 31
0.0
  0
LINE
  5
1C625
  8
OS
  6
CONTINUOUS
 62
     2
 10
4.0162199026464691
 20
-119.13432171998539
 30
0.0
 11
14.35367360140712
 21
-108.7968680212248
 31
0.0
  0
LINE
  5
1C626
  8
OS
  6
CONTINUOUS
 62
     2
 10
21.016219905656349
 20
-102.13432171697551
 30
0.0
 11
28.016219902646469
 21
-95.134321719985564
 31
0.0
  0
LINE
  5
1C627
  8
OS
  6
CONTINUOUS
 62
     2
 10
10.253168536336821
 20
-122.79686802290649
 30
0.0
 11
28.016219902646391
 21
-105.0338166565971
 31
0.0
  0
LINE
  5
1C628
  8
OS
  6
CONTINUOUS
 62
     2
 10
20.152663477009352
 20
-122.7968680188459
 30
0.0
 11
28.016219902646469
 21
-114.9333115932086
 31
0.0
  0
LINE
  5
1C629
  8
OS
  6
CONTINUOUS
 62
     2
 10
272.01621990264073
 20
45.641090732443331
 30
0.0
 11
271.57826114455253
 21
45.203131974355188
 31
0.0
  0
LINE
  5
1C62A
  8
OS
  6
CONTINUOUS
 62
     2
 10
272.01621990264073
 20
55.540585669055027
 30
0.0
 11
261.67876620387989
 21
45.20313197029445
 31
0.0
  0
LINE
  5
1C62B
  8
OS
  6
CONTINUOUS
 62
     2
 10
255.0162198996309
 20
38.540585666045089
 30
0.0
 11
248.01621990264081
 21
31.540585669055009
 31
0.0
  0
LINE
  5
1C62C
  8
OS
  6
CONTINUOUS
 62
     2
 10
265.77927126895042
 20
59.203131971976461
 30
0.0
 11
248.01621990264081
 21
41.440080605666751
 31
0.0
  0
LINE
  5
1C62D
  8
OS
  6
CONTINUOUS
 62
     2
 10
255.8797763282781
 20
59.203131967915681
 30
0.0
 11
248.01621990264081
 21
51.339575542278403
 31
0.0
  0
LINE
  5
1C62E
  8
OS
  6
CONTINUOUS
 62
     2
 10
255.87977632827801
 20
-122.7968680188459
 30
0.0
 11
248.0162199026409
 21
-114.9333115932086
 31
0.0
  0
LINE
  5
1C62F
  8
OS
  6
CONTINUOUS
 62
     2
 10
265.77927126895042
 20
-122.79686802290649
 30
0.0
 11
248.0162199026409
 21
-105.0338166565971
 31
0.0
  0
LINE
  5
1C630
  8
OS
  6
CONTINUOUS
 62
     2
 10
272.01621990264073
 20
-119.13432171998539
 30
0.0
 11
261.67876620387977
 21
-108.7968680212248
 31
0.0
  0
LINE
  5
1C631
  8
OS
  6
CONTINUOUS
 62
     2
 10
255.0162198996309
 20
-102.13432171697551
 30
0.0
 11
248.0162199026409
 21
-95.134321719985621
 31
0.0
  0
LINE
  5
1C632
  8
OS
  6
CONTINUOUS
 62
     2
 10
272.01621990264073
 20
-109.2348267833739
 30
0.0
 11
271.57826114455253
 21
-108.79686802528541
 31
0.0
  0
ARC
  5
1C633
  8
SU
  6
CONTINUOUS
 62
     3
 10
-371.76332064699471
 20
-82.791390896383817
 30
0.0
 40
0.2999999999999971
 50
90.0
 51
270.0
  0
ARC
  5
1C634
  8
SU
  6
CONTINUOUS
 62
     3
 10
-371.76332064699471
 20
-82.791390896383817
 30
0.0
 40
0.2999999999999971
 50
270.0
 51
90.0
  0
ARC
  5
1C635
  8
SU
  6
CONTINUOUS
 62
     3
 10
-371.76332064699471
 20
-47.791388707096999
 30
0.0
 40
0.2999999999999971
 50
270.0
 51
90.0
  0
ARC
  5
1C636
  8
SU
  6
CONTINUOUS
 62
     3
 10
-371.76332064699471
 20
-47.791388707096999
 30
0.0
 40
0.2999999999999971
 50
90.0
 51
270.0
  0
ARC
  5
1C637
  8
SU
  6
CONTINUOUS
 62
     3
 10
263.01621988705512
 20
-160.2968680277138
 30
0.0
 40
0.3000000000000114
 50
180.0
 51
0.0
  0
ARC
  5
1C638
  8
SU
  6
CONTINUOUS
 62
     3
 10
263.01621988705512
 20
-160.2968680277138
 30
0.0
 40
0.3000000000000114
 50
0.0
 51
180.0
  0
ARC
  5
1C639
  8
SU
  6
CONTINUOUS
 62
     3
 10
77.016219887055144
 20
-9.2968687896646216
 30
0.0
 40
0.3000000000000007
 50
270.0
 51
90.0
  0
ARC
  5
1C63A
  8
SU
  6
CONTINUOUS
 62
     3
 10
77.016219887055144
 20
-9.2968687896646216
 30
0.0
 40
0.3000000000000007
 50
90.0
 51
270.0
  0
ARC
  5
1C63B
  8
SU
  6
CONTINUOUS
 62
     3
 10
77.016219887055144
 20
-44.296866315266477
 30
0.0
 40
0.2999999999999971
 50
90.0
 51
270.0
  0
ARC
  5
1C63C
  8
SU
  6
CONTINUOUS
 62
     3
 10
77.016219887055144
 20
-44.296866315266477
 30
0.0
 40
0.2999999999999971
 50
270.0
 51
90.0
  0
ARC
  5
1C63D
  8
SU
  6
CONTINUOUS
 62
     3
 10
77.016219887055144
 20
-33.296866315266492
 30
0.0
 40
0.2999999999999971
 50
270.0
 51
90.0
  0
ARC
  5
1C63E
  8
SU
  6
CONTINUOUS
 62
     3
 10
77.016219887055144
 20
-33.296866315266492
 30
0.0
 40
0.2999999999999971
 50
90.0
 51
270.0
  0
ARC
  5
1C63F
  8
SU
  6
CONTINUOUS
 62
     3
 10
77.016219887055144
 20
-94.296868027712463
 30
0.0
 40
0.2999999999999971
 50
90.0
 51
270.0
  0
ARC
  5
1C640
  8
SU
  6
CONTINUOUS
 62
     3
 10
77.016219887055144
 20
-94.296868027712463
 30
0.0
 40
0.2999999999999971
 50
270.0
 51
90.0
  0
ARC
  5
1C641
  8
SU
  6
CONTINUOUS
 62
     3
 10
77.016219887055144
 20
-94.296868027712463
 30
0.0
 40
0.2999999999999971
 50
270.0
 51
90.0
  0
ARC
  5
1C642
  8
SU
  6
CONTINUOUS
 62
     3
 10
77.016219887055144
 20
-94.296868027712463
 30
0.0
 40
0.2999999999999971
 50
90.0
 51
270.0
  0
ARC
  5
1C643
  8
SU
  6
CONTINUOUS
 62
     3
 10
77.016219887055144
 20
-101.79686802772861
 30
0.0
 40
0.2999999999999971
 50
90.0
 51
270.0
  0
ARC
  5
1C644
  8
SU
  6
CONTINUOUS
 62
     3
 10
77.016219887055144
 20
-101.79686802772861
 30
0.0
 40
0.2999999999999971
 50
270.0
 51
90.0
  0
ARC
  5
1C645
  8
SU
  6
CONTINUOUS
 62
     3
 10
41.016219902641829
 20
-160.2968680277138
 30
0.0
 40
0.2999999999999971
 50
180.0
 51
0.0
  0
ARC
  5
1C646
  8
SU
  6
CONTINUOUS
 62
     3
 10
41.016219902641829
 20
-160.2968680277138
 30
0.0
 40
0.2999999999999971
 50
0.0
 51
180.0
  0
ARC
  5
1C647
  8
SU
  6
CONTINUOUS
 62
     3
 10
37.016219887054959
 20
-160.2968680277138
 30
0.0
 40
0.2999999999999971
 50
0.0
 51
180.0
  0
ARC
  5
1C648
  8
SU
  6
CONTINUOUS
 62
     3
 10
37.016219887054959
 20
-160.2968680277138
 30
0.0
 40
0.2999999999999971
 50
180.0
 51
0.0
  0
ARC
  5
1C649
  8
SU
  6
CONTINUOUS
 62
     3
 10
13.016219887054911
 20
-160.2968680277138
 30
0.0
 40
0.3000000000000007
 50
0.0
 51
180.0
  0
ARC
  5
1C64A
  8
SU
  6
CONTINUOUS
 62
     3
 10
13.016219887054911
 20
-160.2968680277138
 30
0.0
 40
0.3000000000000007
 50
180.0
 51
0.0
  0
ARC
  5
1C64B
  8
SU
  6
CONTINUOUS
 62
     3
 10
235.01621987146791
 20
-160.2968680277138
 30
0.0
 40
0.3000000000000114
 50
0.0
 51
180.0
  0
ARC
  5
1C64C
  8
SU
  6
CONTINUOUS
 62
     3
 10
235.01621987146791
 20
-160.2968680277138
 30
0.0
 40
0.3000000000000114
 50
180.0
 51
0.0
  0
ARC
  5
1C64D
  8
SU
  6
CONTINUOUS
 62
     3
 10
239.0162198870548
 20
-160.2968680277138
 30
0.0
 40
0.3000000000000114
 50
180.0
 51
0.0
  0
ARC
  5
1C64E
  8
SU
  6
CONTINUOUS
 62
     3
 10
239.0162198870548
 20
-160.2968680277138
 30
0.0
 40
0.3000000000000114
 50
0.0
 51
180.0
  0
ARC
  5
1C64F
  8
SU
  6
CONTINUOUS
 62
     3
 10
235.01621987146791
 20
-160.2968680277138
 30
0.0
 40
0.3000000000000114
 50
180.0
 51
0.0
  0
ARC
  5
1C650
  8
SU
  6
CONTINUOUS
 62
     3
 10
235.01621987146791
 20
-160.2968680277138
 30
0.0
 40
0.3000000000000114
 50
0.0
 51
180.0
  0
ARC
  5
1C651
  8
SU
  6
CONTINUOUS
 62
     3
 10
41.016219902642042
 20
-160.2968680277138
 30
0.0
 40
0.2999999999999971
 50
0.0
 51
180.0
  0
ARC
  5
1C652
  8
SU
  6
CONTINUOUS
 62
     3
 10
41.016219902642042
 20
-160.2968680277138
 30
0.0
 40
0.2999999999999971
 50
180.0
 51
0.0
  0
ARC
  5
1C653
  8
SU
  6
CONTINUOUS
 62
     3
 10
77.016219902646299
 20
38.203131972269887
 30
0.0
 40
0.2999999999999971
 50
270.0
 51
90.0
  0
ARC
  5
1C654
  8
SU
  6
CONTINUOUS
 62
     3
 10
77.016219902646299
 20
38.203131972269887
 30
0.0
 40
0.2999999999999971
 50
90.0
 51
270.0
  0
ARC
  5
1C655
  8
SU
  6
CONTINUOUS
 62
     3
 10
239.0162199026409
 20
79.203131972269873
 30
0.0
 40
0.3000000000000114
 50
180.0
 51
0.0
  0
ARC
  5
1C656
  8
SU
  6
CONTINUOUS
 62
     3
 10
239.0162199026409
 20
79.203131972269873
 30
0.0
 40
0.3000000000000114
 50
0.0
 51
180.0
  0
ARC
  5
1C657
  8
SU
  6
CONTINUOUS
 62
     3
 10
219.0162198870548
 20
79.203131972269873
 30
0.0
 40
0.3000000000000114
 50
0.0
 51
180.0
  0
ARC
  5
1C658
  8
SU
  6
CONTINUOUS
 62
     3
 10
219.0162198870548
 20
79.203131972269873
 30
0.0
 40
0.3000000000000114
 50
180.0
 51
0.0
  0
ARC
  5
1C659
  8
SU
  6
CONTINUOUS
 62
     3
 10
57.016219887055151
 20
79.203131972269873
 30
0.0
 40
0.2999999999999971
 50
180.0
 51
0.0
  0
ARC
  5
1C65A
  8
SU
  6
CONTINUOUS
 62
     3
 10
57.016219887055151
 20
79.203131972269873
 30
0.0
 40
0.2999999999999971
 50
0.0
 51
180.0
  0
ARC
  5
1C65B
  8
SU
  6
CONTINUOUS
 62
     3
 10
91.016222351175287
 20
38.203131972269887
 30
0.0
 40
0.2999999999999971
 50
270.0
 51
90.0
  0
ARC
  5
1C65C
  8
SU
  6
CONTINUOUS
 62
     3
 10
91.016222351175287
 20
38.203131972269887
 30
0.0
 40
0.2999999999999971
 50
90.0
 51
270.0
  0
ARC
  5
1C65D
  8
SU
  6
CONTINUOUS
 62
     3
 10
91.016222351175188
 20
-101.79686802772861
 30
0.0
 40
0.2999999999999971
 50
90.0
 51
270.0
  0
ARC
  5
1C65E
  8
SU
  6
CONTINUOUS
 62
     3
 10
91.016222351175188
 20
-101.79686802772861
 30
0.0
 40
0.2999999999999971
 50
270.0
 51
90.0
  0
ARC
  5
1C65F
  8
SU
  6
CONTINUOUS
 62
     3
 10
-235.2633207693743
 20
82.204765774032666
 30
0.0
 40
0.3000000000000114
 50
180.0
 51
0.0
  0
ARC
  5
1C660
  8
SU
  6
CONTINUOUS
 62
     3
 10
-235.2633207693743
 20
82.204765774032666
 30
0.0
 40
0.3000000000000114
 50
0.0
 51
180.0
  0
ARC
  5
1C661
  8
SU
  6
CONTINUOUS
 62
     3
 10
-246.26332076962589
 20
82.204765774032666
 30
0.0
 40
0.3000000000000114
 50
0.0
 51
180.0
  0
ARC
  5
1C662
  8
SU
  6
CONTINUOUS
 62
     3
 10
-246.26332076962589
 20
82.204765774032666
 30
0.0
 40
0.3000000000000114
 50
180.0
 51
0.0
  0
ARC
  5
1C663
  8
SU
  6
CONTINUOUS
 62
     3
 10
-185.26331906086119
 20
82.204765774032509
 30
0.0
 40
0.3000000000000114
 50
180.0
 51
0.0
  0
ARC
  5
1C664
  8
SU
  6
CONTINUOUS
 62
     3
 10
-185.26331906086119
 20
82.204765774032509
 30
0.0
 40
0.3000000000000114
 50
0.0
 51
180.0
  0
ARC
  5
1C665
  8
SU
  6
CONTINUOUS
 62
     3
 10
-235.2633207693743
 20
82.204765774032509
 30
0.0
 40
0.3000000000000114
 50
0.0
 51
180.0
  0
ARC
  5
1C666
  8
SU
  6
CONTINUOUS
 62
     3
 10
-235.2633207693743
 20
82.204765774032509
 30
0.0
 40
0.3000000000000114
 50
180.0
 51
0.0
  0
ARC
  5
1C667
  8
SU
  6
CONTINUOUS
 62
     3
 10
-123.7633206468919
 20
123.704765774031
 30
0.0
 40
0.2999999999999971
 50
90.0
 51
270.0
  0
ARC
  5
1C668
  8
SU
  6
CONTINUOUS
 62
     3
 10
-123.7633206468919
 20
123.704765774031
 30
0.0
 40
0.2999999999999971
 50
270.0
 51
90.0
  0
ARC
  5
1C669
  8
SU
  6
CONTINUOUS
 62
     3
 10
-123.7633206468919
 20
147.7047657740309
 30
0.0
 40
0.3000000000000114
 50
270.0
 51
90.0
  0
ARC
  5
1C66A
  8
SU
  6
CONTINUOUS
 62
     3
 10
-123.7633206468919
 20
147.7047657740309
 30
0.0
 40
0.3000000000000114
 50
90.0
 51
270.0
  0
ARC
  5
1C66B
  8
SU
  6
CONTINUOUS
 62
     3
 10
-185.26331906086119
 20
82.204765774032509
 30
0.0
 40
0.3000000000000114
 50
0.0
 51
180.0
  0
ARC
  5
1C66C
  8
SU
  6
CONTINUOUS
 62
     3
 10
-185.26331906086119
 20
82.204765774032509
 30
0.0
 40
0.3000000000000114
 50
180.0
 51
0.0
  0
ARC
  5
1C66D
  8
SU
  6
CONTINUOUS
 62
     3
 10
-177.7633206470968
 20
82.204765774032509
 30
0.0
 40
0.3000000000000114
 50
180.0
 51
0.0
  0
ARC
  5
1C66E
  8
SU
  6
CONTINUOUS
 62
     3
 10
-177.7633206470968
 20
82.204765774032509
 30
0.0
 40
0.3000000000000114
 50
0.0
 51
180.0
  0
ARC
  5
1C66F
  8
SU
  6
CONTINUOUS
 62
     3
 10
-123.7633206468919
 20
120.7047332533685
 30
0.0
 40
0.2999999999999971
 50
90.0
 51
270.0
  0
ARC
  5
1C670
  8
SU
  6
CONTINUOUS
 62
     3
 10
-123.7633206468919
 20
120.7047332533685
 30
0.0
 40
0.2999999999999971
 50
270.0
 51
90.0
  0
ARC
  5
1C671
  8
SU
  6
CONTINUOUS
 62
     3
 10
-123.7633206468919
 20
123.704765774031
 30
0.0
 40
0.2999999999999971
 50
270.0
 51
90.0
  0
ARC
  5
1C672
  8
SU
  6
CONTINUOUS
 62
     3
 10
-123.7633206468919
 20
123.704765774031
 30
0.0
 40
0.2999999999999971
 50
90.0
 51
270.0
  0
ARC
  5
1C673
  8
SU
  6
CONTINUOUS
 62
     3
 10
-270.26331829522718
 20
82.204765774032509
 30
0.0
 40
0.3000000000000114
 50
180.0
 51
0.0
  0
ARC
  5
1C674
  8
SU
  6
CONTINUOUS
 62
     3
 10
-270.26331829522718
 20
82.204765774032509
 30
0.0
 40
0.3000000000000114
 50
0.0
 51
180.0
  0
ARC
  5
1C675
  8
SU
  6
CONTINUOUS
 62
     3
 10
-317.76332064699523
 20
82.204765774032509
 30
0.0
 40
0.3000000000000114
 50
0.0
 51
180.0
  0
ARC
  5
1C676
  8
SU
  6
CONTINUOUS
 62
     3
 10
-317.76332064699523
 20
82.204765774032509
 30
0.0
 40
0.3000000000000114
 50
180.0
 51
0.0
  0
ARC
  5
1C677
  8
SU
  6
CONTINUOUS
 62
     3
 10
-358.76332064699562
 20
123.70476577403061
 30
0.0
 40
0.2999999999999971
 50
270.0
 51
90.0
  0
ARC
  5
1C678
  8
SU
  6
CONTINUOUS
 62
     3
 10
-358.76332064699562
 20
123.70476577403061
 30
0.0
 40
0.2999999999999971
 50
90.0
 51
270.0
  0
ARC
  5
1C679
  8
SU
  6
CONTINUOUS
 62
     3
 10
-358.76332064699562
 20
103.7047332533687
 30
0.0
 40
0.2999999999999971
 50
90.0
 51
270.0
  0
ARC
  5
1C67A
  8
SU
  6
CONTINUOUS
 62
     3
 10
-358.76332064699562
 20
103.7047332533687
 30
0.0
 40
0.2999999999999971
 50
270.0
 51
90.0
  0
ARC
  5
1C67B
  8
SU
  6
CONTINUOUS
 62
     3
 10
-246.26332076962589
 20
82.204765774032779
 30
0.0
 40
0.3000000000000114
 50
180.0
 51
0.0
  0
ARC
  5
1C67C
  8
SU
  6
CONTINUOUS
 62
     3
 10
-246.26332076962589
 20
82.204765774032779
 30
0.0
 40
0.3000000000000114
 50
0.0
 51
180.0
  0
ARC
  5
1C67D
  8
SU
  6
CONTINUOUS
 62
     3
 10
-270.26331829522718
 20
82.204765774032779
 30
0.0
 40
0.3000000000000114
 50
0.0
 51
180.0
  0
ARC
  5
1C67E
  8
SU
  6
CONTINUOUS
 62
     3
 10
-270.26331829522718
 20
82.204765774032779
 30
0.0
 40
0.3000000000000114
 50
180.0
 51
0.0
  0
ARC
  5
1C67F
  8
SU
  6
CONTINUOUS
 62
     3
 10
-177.7633206470968
 20
67.204765774031955
 30
0.0
 40
0.3000000000000114
 50
180.0
 51
0.0
  0
ARC
  5
1C680
  8
SU
  6
CONTINUOUS
 62
     3
 10
-177.7633206470968
 20
67.204765774031955
 30
0.0
 40
0.3000000000000114
 50
0.0
 51
180.0
  0
ARC
  5
1C681
  8
SU
  6
CONTINUOUS
 62
     3
 10
-317.76332064699551
 20
67.204765774031955
 30
0.0
 40
0.3000000000000114
 50
0.0
 51
180.0
  0
ARC
  5
1C682
  8
SU
  6
CONTINUOUS
 62
     3
 10
-317.76332064699551
 20
67.204765774031955
 30
0.0
 40
0.3000000000000114
 50
180.0
 51
0.0
  0
ARC
  5
1C683
  8
SU
  6
CONTINUOUS
 62
     3
 10
-123.76332064688791
 20
-82.791390896381259
 30
0.0
 40
0.2999999999999971
 50
90.0
 51
270.0
  0
ARC
  5
1C684
  8
SU
  6
CONTINUOUS
 62
     3
 10
-123.76332064688791
 20
-82.791390896381259
 30
0.0
 40
0.2999999999999971
 50
270.0
 51
90.0
  0
ARC
  5
1C685
  8
SU
  6
CONTINUOUS
 62
     3
 10
-179.2633207696262
 20
-102.7913908963889
 30
0.0
 40
0.3000000000000114
 50
180.0
 51
0.0
  0
ARC
  5
1C686
  8
SU
  6
CONTINUOUS
 62
     3
 10
-179.2633207696262
 20
-102.7913908963889
 30
0.0
 40
0.3000000000000114
 50
0.0
 51
180.0
  0
ARC
  5
1C687
  8
SU
  6
CONTINUOUS
 62
     3
 10
-177.76332064709649
 20
-102.7913908963889
 30
0.0
 40
0.3000000000000114
 50
0.0
 51
180.0
  0
ARC
  5
1C688
  8
SU
  6
CONTINUOUS
 62
     3
 10
-177.76332064709649
 20
-102.7913908963889
 30
0.0
 40
0.3000000000000114
 50
180.0
 51
0.0
  0
ARC
  5
1C689
  8
SU
  6
CONTINUOUS
 62
     3
 10
-123.7633206468919
 20
-67.791388068497625
 30
0.0
 40
0.2999999999999971
 50
90.0
 51
270.0
  0
ARC
  5
1C68A
  8
SU
  6
CONTINUOUS
 62
     3
 10
-123.7633206468919
 20
-67.791388068497625
 30
0.0
 40
0.2999999999999971
 50
270.0
 51
90.0
  0
ARC
  5
1C68B
  8
SU
  6
CONTINUOUS
 62
     3
 10
-120.2633206469942
 20
-222.618812641528
 30
0.0
 40
0.3000000000000114
 50
90.0
 51
270.0
  0
ARC
  5
1C68C
  8
SU
  6
CONTINUOUS
 62
     3
 10
-120.2633206469942
 20
-222.618812641528
 30
0.0
 40
0.3000000000000114
 50
270.0
 51
90.0
  0
ARC
  5
1C68D
  8
SU
  6
CONTINUOUS
 62
     3
 10
-105.2633206469955
 20
-234.61881264152811
 30
0.0
 40
0.3000000000000114
 50
90.0
 51
270.0
  0
ARC
  5
1C68E
  8
SU
  6
CONTINUOUS
 62
     3
 10
-105.2633206469955
 20
-234.61881264152811
 30
0.0
 40
0.3000000000000114
 50
270.0
 51
90.0
  0
ARC
  5
1C68F
  8
SU
  6
CONTINUOUS
 62
     3
 10
-120.2633206469942
 20
-214.618812641528
 30
0.0
 40
0.3000000000000114
 50
90.0
 51
270.0
  0
ARC
  5
1C690
  8
SU
  6
CONTINUOUS
 62
     3
 10
-120.2633206469942
 20
-214.618812641528
 30
0.0
 40
0.3000000000000114
 50
270.0
 51
90.0
  0
ARC
  5
1C691
  8
SU
  6
CONTINUOUS
 62
     3
 10
-289.26331640997199
 20
-102.7913908963917
 30
0.0
 40
0.3000000000000114
 50
180.0
 51
0.0
  0
ARC
  5
1C692
  8
SU
  6
CONTINUOUS
 62
     3
 10
-289.26331640997199
 20
-102.7913908963917
 30
0.0
 40
0.3000000000000114
 50
0.0
 51
180.0
  0
ARC
  5
1C693
  8
SU
  6
CONTINUOUS
 62
     3
 10
-317.76332064699659
 20
-102.7913908963917
 30
0.0
 40
0.3000000000000114
 50
0.0
 51
180.0
  0
ARC
  5
1C694
  8
SU
  6
CONTINUOUS
 62
     3
 10
-317.76332064699659
 20
-102.7913908963917
 30
0.0
 40
0.3000000000000114
 50
180.0
 51
0.0
  0
ARC
  5
1C695
  8
SU
  6
CONTINUOUS
 62
     3
 10
-358.76332064699562
 20
-67.791388068498108
 30
0.0
 40
0.2999999999999971
 50
90.0
 51
270.0
  0
ARC
  5
1C696
  8
SU
  6
CONTINUOUS
 62
     3
 10
-358.76332064699562
 20
-67.791388068498108
 30
0.0
 40
0.2999999999999971
 50
270.0
 51
90.0
  0
ARC
  5
1C697
  8
SU
  6
CONTINUOUS
 62
     3
 10
-358.76332064699562
 20
-47.791388707097042
 30
0.0
 40
0.2999999999999971
 50
270.0
 51
90.0
  0
ARC
  5
1C698
  8
SU
  6
CONTINUOUS
 62
     3
 10
-358.76332064699562
 20
-47.791388707097042
 30
0.0
 40
0.2999999999999971
 50
90.0
 51
270.0
  0
ARC
  5
1C699
  8
SU
  6
CONTINUOUS
 62
     3
 10
-358.76332064699562
 20
-82.791390896383817
 30
0.0
 40
0.2999999999999971
 50
90.0
 51
270.0
  0
ARC
  5
1C69A
  8
SU
  6
CONTINUOUS
 62
     3
 10
-358.76332064699562
 20
-82.791390896383817
 30
0.0
 40
0.2999999999999971
 50
270.0
 51
90.0
  0
ARC
  5
1C69B
  8
SU
  6
CONTINUOUS
 62
     3
 10
-358.76332064699562
 20
-67.791388068498108
 30
0.0
 40
0.2999999999999971
 50
270.0
 51
90.0
  0
ARC
  5
1C69C
  8
SU
  6
CONTINUOUS
 62
     3
 10
-358.76332064699562
 20
-67.791388068498108
 30
0.0
 40
0.2999999999999971
 50
90.0
 51
270.0
  0
ARC
  5
1C69D
  8
SU
  6
CONTINUOUS
 62
     3
 10
-289.26331640997199
 20
-102.7913908963891
 30
0.0
 40
0.3000000000000114
 50
0.0
 51
180.0
  0
ARC
  5
1C69E
  8
SU
  6
CONTINUOUS
 62
     3
 10
-289.26331640997199
 20
-102.7913908963891
 30
0.0
 40
0.3000000000000114
 50
180.0
 51
0.0
  0
ARC
  5
1C69F
  8
SU
  6
CONTINUOUS
 62
     3
 10
-179.2633207696262
 20
-102.7913908963891
 30
0.0
 40
0.3000000000000114
 50
180.0
 51
0.0
  0
ARC
  5
1C6A0
  8
SU
  6
CONTINUOUS
 62
     3
 10
-179.2633207696262
 20
-102.7913908963891
 30
0.0
 40
0.3000000000000114
 50
0.0
 51
180.0
  0
ARC
  5
1C6A1
  8
SU
  6
CONTINUOUS
 62
     3
 10
-123.7633206468919
 20
-62.791388068497632
 30
0.0
 40
0.2999999999999971
 50
90.0
 51
270.0
  0
ARC
  5
1C6A2
  8
SU
  6
CONTINUOUS
 62
     3
 10
-123.7633206468919
 20
-62.791388068497632
 30
0.0
 40
0.2999999999999971
 50
270.0
 51
90.0
  0
ARC
  5
1C6A3
  8
SU
  6
CONTINUOUS
 62
     3
 10
239.016189203425
 20
79.203131972269844
 30
0.0
 40
0.3000000000000114
 50
0.0
 51
180.0
  0
ARC
  5
1C6A4
  8
SU
  6
CONTINUOUS
 62
     3
 10
239.016189203425
 20
79.203131972269844
 30
0.0
 40
0.3000000000000114
 50
180.0
 51
0.0
  0
ARC
  5
1C6A5
  8
SU
  6
CONTINUOUS
 62
     3
 10
248.0162199026405
 20
79.20313197226973
 30
0.0
 40
0.3000000000000114
 50
0.0
 51
180.0
  0
ARC
  5
1C6A6
  8
SU
  6
CONTINUOUS
 62
     3
 10
248.0162199026405
 20
79.20313197226973
 30
0.0
 40
0.3000000000000114
 50
180.0
 51
0.0
  0
ARC
  5
1C6A7
  8
SU
  6
CONTINUOUS
 62
     3
 10
272.01621990264073
 20
79.20313197226973
 30
0.0
 40
0.3000000000000114
 50
180.0
 51
0.0
  0
ARC
  5
1C6A8
  8
SU
  6
CONTINUOUS
 62
     3
 10
272.01621990264073
 20
79.20313197226973
 30
0.0
 40
0.3000000000000114
 50
0.0
 51
180.0
  0
ARC
  5
1C6A9
  8
SU
  6
CONTINUOUS
 62
     3
 10
-57.983782564547433
 20
45.203131972270043
 30
0.0
 40
0.2999999999999971
 50
270.0
 51
90.0
  0
ARC
  5
1C6AA
  8
SU
  6
CONTINUOUS
 62
     3
 10
-57.983782564547433
 20
45.203131972270043
 30
0.0
 40
0.2999999999999971
 50
90.0
 51
270.0
  0
ARC
  5
1C6AB
  8
SU
  6
CONTINUOUS
 62
     3
 10
-72.983782564547425
 20
45.20313197227005
 30
0.0
 40
0.2999999999999971
 50
90.0
 51
270.0
  0
ARC
  5
1C6AC
  8
SU
  6
CONTINUOUS
 62
     3
 10
-72.983782564547425
 20
45.20313197227005
 30
0.0
 40
0.2999999999999971
 50
270.0
 51
90.0
  0
ARC
  5
1C6AD
  8
SU
  6
CONTINUOUS
 62
     3
 10
-72.983782564547425
 20
59.203131974534593
 30
0.0
 40
0.2999999999999971
 50
270.0
 51
90.0
  0
ARC
  5
1C6AE
  8
SU
  6
CONTINUOUS
 62
     3
 10
-72.983782564547425
 20
59.203131974534593
 30
0.0
 40
0.2999999999999971
 50
90.0
 51
270.0
  0
ARC
  5
1C6AF
  8
SU
  6
CONTINUOUS
 62
     3
 10
-57.983782564547433
 20
32.703131972270043
 30
0.0
 40
0.2999999999999971
 50
270.0
 51
90.0
  0
ARC
  5
1C6B0
  8
SU
  6
CONTINUOUS
 62
     3
 10
-57.983782564547433
 20
32.703131972270043
 30
0.0
 40
0.2999999999999971
 50
90.0
 51
270.0
  0
ARC
  5
1C6B1
  8
SU
  6
CONTINUOUS
 62
     3
 10
-57.983782564547433
 20
-96.296868027729872
 30
0.0
 40
0.2999999999999971
 50
90.0
 51
270.0
  0
ARC
  5
1C6B2
  8
SU
  6
CONTINUOUS
 62
     3
 10
-57.983782564547433
 20
-96.296868027729872
 30
0.0
 40
0.2999999999999971
 50
270.0
 51
90.0
  0
ARC
  5
1C6B3
  8
SU
  6
CONTINUOUS
 62
     3
 10
-72.983782564547425
 20
-108.7968680277298
 30
0.0
 40
0.2999999999999971
 50
270.0
 51
90.0
  0
ARC
  5
1C6B4
  8
SU
  6
CONTINUOUS
 62
     3
 10
-72.983782564547425
 20
-108.7968680277298
 30
0.0
 40
0.2999999999999971
 50
90.0
 51
270.0
  0
ARC
  5
1C6B5
  8
SU
  6
CONTINUOUS
 62
     3
 10
-72.983782564547425
 20
-122.7968680254652
 30
0.0
 40
0.2999999999999971
 50
90.0
 51
270.0
  0
ARC
  5
1C6B6
  8
SU
  6
CONTINUOUS
 62
     3
 10
-72.983782564547425
 20
-122.7968680254652
 30
0.0
 40
0.2999999999999971
 50
270.0
 51
90.0
  0
ARC
  5
1C6B7
  8
SU
  6
CONTINUOUS
 62
     3
 10
-57.802683501001603
 20
-108.7968680277298
 30
0.0
 40
0.2999999999999971
 50
90.0
 51
270.0
  0
ARC
  5
1C6B8
  8
SU
  6
CONTINUOUS
 62
     3
 10
-57.802683501001603
 20
-108.7968680277298
 30
0.0
 40
0.2999999999999971
 50
270.0
 51
90.0
  0
ARC
  5
1C6B9
  8
SU
  6
CONTINUOUS
 62
     3
 10
-57.983782564547447
 20
-84.296868027729886
 30
0.0
 40
0.2999999999999971
 50
90.0
 51
270.0
  0
ARC
  5
1C6BA
  8
SU
  6
CONTINUOUS
 62
     3
 10
-57.983782564547447
 20
-84.296868027729886
 30
0.0
 40
0.2999999999999971
 50
270.0
 51
90.0
  0
ARC
  5
1C6BB
  8
SU
  6
CONTINUOUS
 62
     3
 10
-57.983782564547433
 20
20.70313197226999
 30
0.0
 40
0.3000000000000007
 50
270.0
 51
90.0
  0
ARC
  5
1C6BC
  8
SU
  6
CONTINUOUS
 62
     3
 10
-57.983782564547433
 20
20.70313197226999
 30
0.0
 40
0.3000000000000007
 50
90.0
 51
270.0
  0
ARC
  5
1C6BD
  8
SU
  6
CONTINUOUS
 62
     3
 10
-312.26332064699562
 20
208.704765774039
 30
0.0
 40
0.3000000000000114
 50
0.0
 51
180.0
  0
ARC
  5
1C6BE
  8
SU
  6
CONTINUOUS
 62
     3
 10
-312.26332064699562
 20
208.704765774039
 30
0.0
 40
0.3000000000000114
 50
180.0
 51
0.0
  0
ARC
  5
1C6BF
  8
SU
  6
CONTINUOUS
 62
     3
 10
-324.76332064699562
 20
208.704765774039
 30
0.0
 40
0.3000000000000114
 50
0.0
 51
180.0
  0
ARC
  5
1C6C0
  8
SU
  6
CONTINUOUS
 62
     3
 10
-324.76332064699562
 20
208.704765774039
 30
0.0
 40
0.3000000000000114
 50
180.0
 51
0.0
  0
ARC
  5
1C6C1
  8
SU
  6
CONTINUOUS
 62
     3
 10
-324.76332064699562
 20
223.704765774039
 30
0.0
 40
0.3000000000000114
 50
180.0
 51
0.0
  0
ARC
  5
1C6C2
  8
SU
  6
CONTINUOUS
 62
     3
 10
-324.76332064699562
 20
223.704765774039
 30
0.0
 40
0.3000000000000114
 50
0.0
 51
180.0
  0
ARC
  5
1C6C3
  8
SU
  6
CONTINUOUS
 62
     3
 10
-338.76332065304041
 20
223.704765774039
 30
0.0
 40
0.3000000000000114
 50
0.0
 51
180.0
  0
ARC
  5
1C6C4
  8
SU
  6
CONTINUOUS
 62
     3
 10
-338.76332065304041
 20
223.704765774039
 30
0.0
 40
0.3000000000000114
 50
180.0
 51
0.0
  0
ARC
  5
1C6C5
  8
SU
  6
CONTINUOUS
 62
     3
 10
-183.26332064699571
 20
208.704765774039
 30
0.0
 40
0.3000000000000114
 50
180.0
 51
0.0
  0
ARC
  5
1C6C6
  8
SU
  6
CONTINUOUS
 62
     3
 10
-183.26332064699571
 20
208.704765774039
 30
0.0
 40
0.3000000000000114
 50
0.0
 51
180.0
  0
ARC
  5
1C6C7
  8
SU
  6
CONTINUOUS
 62
     3
 10
-108.76332064689331
 20
156.70476576675011
 30
0.0
 40
0.3000000000000114
 50
270.0
 51
90.0
  0
ARC
  5
1C6C8
  8
SU
  6
CONTINUOUS
 62
     3
 10
-108.76332064689331
 20
156.70476576675011
 30
0.0
 40
0.3000000000000114
 50
90.0
 51
270.0
  0
ARC
  5
1C6C9
  8
SU
  6
CONTINUOUS
 62
     3
 10
-170.76332064699571
 20
208.704765774039
 30
0.0
 40
0.3000000000000114
 50
180.0
 51
0.0
  0
ARC
  5
1C6CA
  8
SU
  6
CONTINUOUS
 62
     3
 10
-170.76332064699571
 20
208.704765774039
 30
0.0
 40
0.3000000000000114
 50
0.0
 51
180.0
  0
ARC
  5
1C6CB
  8
SU
  6
CONTINUOUS
 62
     3
 10
-170.76332064699571
 20
223.704765774039
 30
0.0
 40
0.3000000000000114
 50
0.0
 51
180.0
  0
ARC
  5
1C6CC
  8
SU
  6
CONTINUOUS
 62
     3
 10
-170.76332064699571
 20
223.704765774039
 30
0.0
 40
0.3000000000000114
 50
180.0
 51
0.0
  0
ARC
  5
1C6CD
  8
SU
  6
CONTINUOUS
 62
     3
 10
-156.76332064105191
 20
223.704765774039
 30
0.0
 40
0.3000000000000114
 50
180.0
 51
0.0
  0
ARC
  5
1C6CE
  8
SU
  6
CONTINUOUS
 62
     3
 10
-156.76332064105191
 20
223.704765774039
 30
0.0
 40
0.3000000000000114
 50
0.0
 51
180.0
  0
ARC
  5
1C6CF
  8
SU
  6
CONTINUOUS
 62
     3
 10
37.016250601873018
 20
79.203131972269873
 30
0.0
 40
0.2999999999999971
 50
180.0
 51
0.0
  0
ARC
  5
1C6D0
  8
SU
  6
CONTINUOUS
 62
     3
 10
37.016250601873018
 20
79.203131972269873
 30
0.0
 40
0.2999999999999971
 50
0.0
 51
180.0
  0
ARC
  5
1C6D1
  8
SU
  6
CONTINUOUS
 62
     3
 10
28.016219902646348
 20
79.203131972269759
 30
0.0
 40
0.3000000000000007
 50
180.0
 51
0.0
  0
ARC
  5
1C6D2
  8
SU
  6
CONTINUOUS
 62
     3
 10
28.016219902646348
 20
79.203131972269759
 30
0.0
 40
0.3000000000000007
 50
0.0
 51
180.0
  0
ARC
  5
1C6D3
  8
SU
  6
CONTINUOUS
 62
     3
 10
4.0162506088464553
 20
79.203131972269759
 30
0.0
 40
0.2999999999999998
 50
0.0
 51
180.0
  0
ARC
  5
1C6D4
  8
SU
  6
CONTINUOUS
 62
     3
 10
4.0162506088464553
 20
79.203131972269759
 30
0.0
 40
0.2999999999999998
 50
180.0
 51
0.0
  0
ARC
  5
1C6D5
  8
SU
  6
CONTINUOUS
 62
     3
 10
-300.26332064699568
 20
208.704765774039
 30
0.0
 40
0.3000000000000114
 50
0.0
 51
180.0
  0
ARC
  5
1C6D6
  8
SU
  6
CONTINUOUS
 62
     3
 10
-300.26332064699568
 20
208.704765774039
 30
0.0
 40
0.3000000000000114
 50
180.0
 51
0.0
  0
ARC
  5
1C6D7
  8
SU
  6
CONTINUOUS
 62
     3
 10
-195.26332064699571
 20
208.704765774039
 30
0.0
 40
0.3000000000000114
 50
180.0
 51
0.0
  0
ARC
  5
1C6D8
  8
SU
  6
CONTINUOUS
 62
     3
 10
-195.26332064699571
 20
208.704765774039
 30
0.0
 40
0.3000000000000114
 50
0.0
 51
180.0
  0
ARC
  5
1C6D9
  8
SU
  6
CONTINUOUS
 62
     3
 10
-358.76332064699562
 20
156.70476577218491
 30
0.0
 40
0.3000000000000114
 50
270.0
 51
90.0
  0
ARC
  5
1C6DA
  8
SU
  6
CONTINUOUS
 62
     3
 10
-358.76332064699562
 20
156.70476577218491
 30
0.0
 40
0.3000000000000114
 50
90.0
 51
270.0
  0
ARC
  5
1C6DB
  8
SU
  6
CONTINUOUS
 62
     3
 10
-358.76332064699562
 20
132.704766727703
 30
0.0
 40
0.3000000000000114
 50
270.0
 51
90.0
  0
ARC
  5
1C6DC
  8
SU
  6
CONTINUOUS
 62
     3
 10
-358.76332064699562
 20
132.704766727703
 30
0.0
 40
0.3000000000000114
 50
90.0
 51
270.0
  0
ARC
  5
1C6DD
  8
SU
  6
CONTINUOUS
 62
     3
 10
-358.76332064699562
 20
123.704766727703
 30
0.0
 40
0.2999999999999971
 50
90.0
 51
270.0
  0
ARC
  5
1C6DE
  8
SU
  6
CONTINUOUS
 62
     3
 10
-358.76332064699562
 20
123.704766727703
 30
0.0
 40
0.2999999999999971
 50
270.0
 51
90.0
  0
ENDSEC
  0
EOF
