  0
SECTION
  2
HEADER
  9
$ACADVER
  1
AC1009
  9
$INSBASE
 10
0.0
 20
0.0
 30
0.0
  9
$EXTMIN
 10
-410.01248970200788
 20
-278.43057118546062
 30
-0.0000000000112498
  9
$EXTMAX
 10
389.02865978753471
 20
249.05851873669121
 30
0.0000000000002956
  9
$LIMMIN
 10
-410.0
 20
-286.0
  9
$LIMMAX
 10
408.99999999999989
 20
279.0
  9
$ORTHOMODE
 70
     1
  9
$REGENMODE
 70
     1
  9
$FILLMODE
 70
     1
  9
$QTEXTMODE
 70
     0
  9
$MIRRTEXT
 70
     0
  9
$DRAGMODE
 70
     2
  9
$LTSCALE
 40
1.0
  9
$OSMODE
 70
     0
  9
$ATTMODE
 70
     1
  9
$TEXTSIZE
 40
2.5
  9
$TRACEWID
 40
1.0
  9
$TEXTSTYLE
  7
STANDARD
  9
$CLAYER
  8
0
  9
$CELTYPE
  6
BYLAYER
  9
$CECOLOR
 62
   256
  9
$DIMSCALE
 40
1.0
  9
$DIMASZ
 40
1.5
  9
$DIMEXO
 40
3.0
  9
$DIMDLI
 40
7.0
  9
$DIMRND
 40
0.0
  9
$DIMDLE
 40
0.0
  9
$DIMEXE
 40
1.0
  9
$DIMTP
 40
0.1
  9
$DIMTM
 40
0.1
  9
$DIMTXT
 40
10.0
  9
$DIMCEN
 40
0.0
  9
$DIMTSZ
 40
0.0
  9
$DIMTOL
 70
     0
  9
$DIMLIM
 70
     0
  9
$DIMTIH
 70
     0
  9
$DIMTOH
 70
     0
  9
$DIMSE1
 70
     0
  9
$DIMSE2
 70
     0
  9
$DIMTAD
 70
     1
  9
$DIMZIN
 70
     0
  9
$DIMBLK
  1
DOTSMALL
  9
$DIMASO
 70
     1
  9
$DIMSHO
 70
     1
  9
$DIMPOST
  1

  9
$DIMAPOST
  1
"
  9
$DIMALT
 70
     0
  9
$DIMALTD
 70
     2
  9
$DIMALTF
 40
0.0393701
  9
$DIMLFAC
 40
1.0
  9
$DIMTOFL
 70
     1
  9
$DIMTVP
 40
0.0
  9
$DIMTIX
 70
     0
  9
$DIMSOXD
 70
     0
  9
$DIMSAH
 70
     0
  9
$DIMBLK1
  1

  9
$DIMBLK2
  1

  9
$DIMSTYLE
  2
SANKYO
  9
$DIMCLRD
 70
   256
  9
$DIMCLRE
 70
   256
  9
$DIMCLRT
 70
   256
  9
$DIMTFAC
 40
0.71
  9
$DIMGAP
 40
0.5
  9
$LUNITS
 70
     2
  9
$LUPREC
 70
     4
  9
$SKETCHINC
 40
1.0
  9
$FILLETRAD
 40
0.5
  9
$AUNITS
 70
     0
  9
$AUPREC
 70
     0
  9
$MENU
  1
.
  9
$ELEVATION
 40
0.0
  9
$PELEVATION
 40
0.0
  9
$THICKNESS
 40
0.0
  9
$LIMCHECK
 70
     0
  9
$BLIPMODE
 70
     0
  9
$CHAMFERA
 40
10.0
  9
$CHAMFERB
 40
10.0
  9
$SKPOLY
 70
     0
  9
$TDCREATE
 40
2452388.6082117362
  9
$TDUPDATE
 40
2456027.6131162378
  9
$TDINDWG
 40
1.5979659606000001
  9
$TDUSRTIMER
 40
1.5979658449
  9
$USRTIMER
 70
     1
  9
$ANGBASE
 50
0.0
  9
$ANGDIR
 70
     0
  9
$PDMODE
 70
     0
  9
$PDSIZE
 40
0.0
  9
$PLINEWID
 40
0.0
  9
$COORDS
 70
     1
  9
$SPLFRAME
 70
     0
  9
$SPLINETYPE
 70
     6
  9
$SPLINESEGS
 70
     8
  9
$ATTDIA
 70
     0
  9
$ATTREQ
 70
     1
  9
$HANDLING
 70
-16383
  9
$HANDSEED
  5
18F35
  9
$SURFTAB1
 70
     6
  9
$SURFTAB2
 70
     6
  9
$SURFTYPE
 70
     6
  9
$SURFU
 70
     6
  9
$SURFV
 70
     6
  9
$UCSNAME
  2

  9
$UCSORG
 10
0.0
 20
0.0
 30
0.0
  9
$UCSXDIR
 10
1.0
 20
0.0
 30
0.0
  9
$UCSYDIR
 10
0.0
 20
1.0
 30
0.0
  9
$PUCSNAME
  2

  9
$PUCSORG
 10
0.0
 20
0.0
 30
0.0
  9
$PUCSXDIR
 10
1.0
 20
0.0
 30
0.0
  9
$PUCSYDIR
 10
0.0
 20
1.0
 30
0.0
  9
$USERI1
 70
     0
  9
$USERI2
 70
     1
  9
$USERI3
 70
     0
  9
$USERI4
 70
     0
  9
$USERI5
 70
     0
  9
$USERR1
 40
0.0
  9
$USERR2
 40
0.0
  9
$USERR3
 40
0.0
  9
$USERR4
 40
0.0
  9
$USERR5
 40
0.0
  9
$WORLDVIEW
 70
     1
  9
$SHADEDGE
 70
     3
  9
$SHADEDIF
 70
    70
  9
$TILEMODE
 70
     1
  9
$MAXACTVP
 70
    48
  9
$PLIMCHECK
 70
     0
  9
$PEXTMIN
 10
1.0000000000000000E+020
 20
1.0000000000000000E+020
 30
1.0000000000000000E+020
  9
$PEXTMAX
 10
-1.0000000000000000E+020
 20
-1.0000000000000000E+020
 30
-1.0000000000000000E+020
  9
$PLIMMIN
 10
0.0
 20
0.0
  9
$PLIMMAX
 10
420.0
 20
297.0
  9
$UNITMODE
 70
     0
  9
$VISRETAIN
 70
     1
  9
$PLINEGEN
 70
     0
  9
$PSLTSCALE
 70
     1
  0
ENDSEC
  0
SECTION
  2
TABLES
  0
TABLE
  2
VPORT
 70
     2
  0
VPORT
  2
*ACTIVE
 70
     0
 10
0.0
 20
0.0
 11
1.0
 21
1.0
 12
-10.49191495723664
 22
-14.686026224384699
 13
0.0
 23
0.0
 14
2.5
 24
2.5
 15
10.0
 25
10.0
 16
0.0
 26
0.0
 36
1.0
 17
0.0
 27
0.0
 37
0.0
 40
575.31670545376244
 41
1.3969986357435189
 42
50.0
 43
0.0
 44
0.0
 50
0.0
 51
0.0
 71
    16
 72
   100
 73
     1
 74
     0
 75
     0
 76
     0
 77
     0
 78
     0
  0
ENDTAB
  0
TABLE
  2
LTYPE
 70
    17
  0
LTYPE
  2
CONTINUOUS
 70
     0
  3
Solid line
 72
    65
 73
     0
 40
0.0
  0
LTYPE
  2
CENTER2
 70
     0
  3
Center (.5x) ___ _ ___ _ ___ _ ___ _ ___ _ ___
 72
    65
 73
     4
 40
28.574999999999989
 49
19.050000000000001
 49
-3.174999999999998
 49
3.174999999999998
 49
-3.174999999999998
  0
LTYPE
  2
PHANTOM2
 70
     0
  3
Phantom (.5x) ___ _ _ ___ _ _ ___ _ _ ___ _ _
 72
    65
 73
     6
 40
31.75
 49
15.875
 49
-3.174999999999998
 49
3.174999999999998
 49
-3.174999999999998
 49
3.174999999999998
 49
-3.174999999999998
  0
LTYPE
  2
DASHED2
 70
     0
  3
Dashed (.5x) _ _ _ _ _ _ _ _ _ _ _ _ _ _ _ _ _
 72
    65
 73
     2
 40
9.5249999999999986
 49
6.349999999999997
 49
-3.174999999999998
  0
ENDTAB
  0
TABLE
  2
LAYER
 70
     4
  0
LAYER
  2
0
 70
     0
 62
     7
  6
CONTINUOUS
  0
LAYER
  2
SU
 70
     0
 62
     7
  6
CONTINUOUS
  0
LAYER
  2
KI
 70
     0
 62
     7
  6
CONTINUOUS
  0
LAYER
  2
OS
 70
     0
 62
     7
  6
CONTINUOUS
  0
ENDTAB
  0
TABLE
  2
STYLE
 70
     4
  0
STYLE
  2
STANDARD
 70
     0
 40
0.0
 41
0.8299999999999999
 50
0.0
 71
     0
 42
2.5
  3
txt.shx
  4
extfont.shx
  0
ENDTAB
  0
TABLE
  2
VIEW
 70
     6
  0
VIEW
  2
AM_VIEW1
 70
     0
 40
148.9999998536185
 10
126.61001776470241
 20
223.4999997804278
 41
253.2200355294051
 11
0.0
 21
0.0
 31
1.0
 12
0.0
 22
0.0
 32
0.0
 42
50.0
 43
0.0
 44
0.0
 50
0.0
 71
    16
  0
VIEW
  2
AM_VIEW2
 70
     0
 40
148.9999998536185
 10
294.38998139545481
 20
223.4999997804278
 41
253.2200355294051
 11
0.0
 21
0.0
 31
1.0
 12
0.0
 22
0.0
 32
0.0
 42
50.0
 43
0.0
 44
0.0
 50
0.0
 71
    16
  0
VIEW
  2
AM_VIEW3
 70
     0
 40
148.9999998536185
 10
126.61001776470241
 20
74.499999926809267
 41
253.2200355294051
 11
0.0
 21
0.0
 31
1.0
 12
0.0
 22
0.0
 32
0.0
 42
50.0
 43
0.0
 44
0.0
 50
0.0
 71
    16
  0
VIEW
  2
AM_VIEW4
 70
     0
 40
148.9999998536185
 10
294.38998139545481
 20
74.499999926809267
 41
253.2200355294051
 11
0.0
 21
0.0
 31
1.0
 12
0.0
 22
0.0
 32
0.0
 42
50.0
 43
0.0
 44
0.0
 50
0.0
 71
    16
  0
VIEW
  2
AM_VIEW5
 70
     0
 40
148.9999998536185
 10
210.49999958007871
 20
148.9999998536185
 41
253.2200355294051
 11
0.0
 21
0.0
 31
1.0
 12
0.0
 22
0.0
 32
0.0
 42
50.0
 43
0.0
 44
0.0
 50
0.0
 71
    16
  0
VIEW
  2
AM_VIEW6
 70
     0
 40
297.99701970723982
 10
210.49999958007871
 20
148.9999998536185
 41
506.43500665810018
 11
0.0
 21
0.0
 31
1.0
 12
0.0
 22
0.0
 32
0.0
 42
50.0
 43
0.0
 44
0.0
 50
0.0
 71
    16
  0
ENDTAB
  0
TABLE
  2
UCS
 70
     0
  0
ENDTAB
  0
TABLE
  2
APPID
 70
    22
  0
APPID
  2
ACAD
 70
     0
  0
APPID
  2
MCAD_NO_VIS
 70
     0
  0
APPID
  2
ACAD_TEMP_GRAPHIC
 70
     0
  0
APPID
  2
ACATTRIBSERVICES
 70
     0
  0
APPID
  2
GENIUS_GENDIMSH_14
 70
     0
  0
APPID
  2
GENIUS_GENOLIS_13
 70
     0
  0
APPID
  2
GENIUS_GENOENT_13
 70
     0
  0
APPID
  2
GENIUS_GENODEF_13
 70
     0
  0
APPID
  2
GENIUS_GENOBJ-N-TIT_13
 70
     0
  0
APPID
  2
GENIUS_GENTITLE_13
 70
     0
  0
APPID
  2
GENIUS_GENOREF_13
 70
     0
  0
APPID
  2
GENIUS_GENSCREG_15
 70
     0
  0
APPID
  2
GENIUS_GENOBJ-N-SDF_13
 70
     0
  0
APPID
  2
GENIUS_GENOBJ-N-FIL_13
 70
     0
  0
APPID
  2
GENIUS_GENREC_14
 70
     0
  0
APPID
  2
GENIUS_GENOBJ-N-REC_13
 70
     0
  0
APPID
  2
GENIUS_GENDTOL_13
 70
     0
  0
APPID
  2
GENIUS_GENOBJ-N-CEN_13
 70
     0
  0
APPID
  2
GENIUS_GENOBJ-N-HTC_13
 70
     0
  0
APPID
  2
GENIUS_GENHATCH_13
 70
     0
  0
APPID
  2
GENIUS_GENFIL_13
 70
     0
  0
APPID
  2
GENIUS_GENOBJ-N-CHA_13
 70
     0
  0
ENDTAB
  0
TABLE
  2
DIMSTYLE
 70
     7
  0
DIMSTYLE
  2
SANKYO
 70
     0
  3

  4
"
  5

  6

  7

 40
1.0
 41
2.399999999999999
 42
3.0
 43
7.0
 44
3.0
 45
0.0
 46
0.0
 47
0.1
 48
0.1
140
4.0
141
0.0
142
0.0
143
0.0393701
144
1.0
145
0.0
146
0.71
147
1.3
 71
     0
 72
     0
 73
     0
 74
     0
 75
     0
 76
     0
 77
     1
 78
     8
170
     0
171
     2
172
     1
173
     0
174
     0
175
     0
176
   256
177
   256
178
   256
  0
ENDTAB
  0
ENDSEC
  0
SECTION
  2
BLOCKS
  0
BLOCK
  8
0
  2
$MODEL_SPACE
 70
     0
 10
0.0
 20
0.0
 30
0.0
  3
$MODEL_SPACE
  1

  0
ENDBLK
  5
18A00
  8
0
  0
BLOCK
 67
     1
  8
0
  2
$PAPER_SPACE
 70
     0
 10
0.0
 20
0.0
 30
0.0
  3
$PAPER_SPACE
  1

  0
ENDBLK
  5
189FC
 67
     1
  8
0
  0
BLOCK
  8
0
  2
_DOTSMALL
 70
     0
 10
0.0
 20
0.0
 30
0.0
  3
_DOTSMALL
  1

  0
POLYLINE
  5
18A48
  8
0
  6
BYBLOCK
 62
     0
 66
     1
 10
0.0
 20
0.0
 30
0.0
 70
     1
 40
1.0
 41
1.0
  0
VERTEX
  5
18A49
  8
0
  6
BYBLOCK
 62
     0
 10
-0.125
 20
0.0
 30
0.0
 42
1.0
  0
VERTEX
  5
18A4A
  8
0
  6
BYBLOCK
 62
     0
 10
0.125
 20
0.0
 30
0.0
 42
1.0
  0
SEQEND
  5
18A4B
  8
0
  6
BYBLOCK
 62
     0
  0
ENDBLK
  5
18A4C
  8
0
  0
ENDSEC
  0
SECTION
  2
ENTITIES
  0
TEXT
  5
18A51
  8
KI
  6
CONTINUOUS
 62
     7
 10
217.70790036644311
 20
-269.30914795167661
 30
0.0
 40
7.0
  1
たて横断面
 41
0.84552428
  0
LINE
  5
18A52
  8
KI
  6
CONTINUOUS
 62
     7
 10
-364.5
 20
-152.20288723538201
 30
0.0
 11
-364.5
 21
-63.452887234464761
 31
0.0
  0
LINE
  5
18A53
  8
KI
  6
CONTINUOUS
 62
     7
 10
-212.5
 20
51.297112766452742
 30
0.0
 11
-212.5
 21
-61.45288723446474
 31
0.0
  0
LINE
  5
18A54
  8
KI
  6
CONTINUOUS
 62
     7
 10
-364.5
 20
51.297112766452742
 30
0.0
 11
-212.5
 21
51.297112766452742
 31
0.0
  0
LINE
  5
18A55
  8
KI
  6
PHANTOM2
 62
     7
 10
-14.19563974656597
 20
-88.835959097242764
 30
0.0
 11
-14.19563974656597
 21
-147.9359590972426
 31
0.0
  0
LINE
  5
18A56
  8
KI
  6
PHANTOM2
 62
     7
 10
-16.19563974656597
 20
-88.835959097242679
 30
0.0
 11
-16.19563974656597
 21
-147.9359590972426
 31
0.0
  0
LINE
  5
18A57
  8
KI
  6
PHANTOM2
 62
     7
 10
-16.19563974656597
 20
-147.9359590972426
 30
0.0
 11
-14.19563974656597
 21
-147.9359590972424
 31
0.0
  0
LINE
  5
18A58
  8
KI
  6
PHANTOM2
 62
     7
 10
333.80436025343403
 20
-88.83595909724302
 30
0.0
 11
333.80436025343403
 21
-147.93595909724249
 31
0.0
  0
LINE
  5
18A59
  8
KI
  6
PHANTOM2
 62
     7
 10
331.80436025343403
 20
-88.835959097242764
 30
0.0
 11
331.80436025343403
 21
-147.93595909724249
 31
0.0
  0
LINE
  5
18A5A
  8
KI
  6
PHANTOM2
 62
     7
 10
331.80436025343403
 20
-147.93595909724249
 30
0.0
 11
333.80436025343403
 21
-147.93595909724249
 31
0.0
  0
LINE
  5
18A5B
  8
KI
  6
CONTINUOUS
 62
     7
 10
-201.50000000183371
 20
-142.20288723539591
 30
0.0
 11
-191.00000000183391
 21
-142.202887235399
 31
0.0
  0
LINE
  5
18A5C
  8
KI
  6
CONTINUOUS
 62
     7
 10
-201.50000000183371
 20
52.297112764604201
 30
0.0
 11
-201.50000000183371
 21
-61.45288723446474
 31
0.0
  0
LINE
  5
18A5D
  8
KI
  6
CONTINUOUS
 62
     7
 10
-171.5000000018338
 20
52.297112764595568
 30
0.0
 11
-171.5000000018338
 21
-61.45288723446474
 31
0.0
  0
LINE
  5
18A5E
  8
KI
  6
CONTINUOUS
 62
     7
 10
-201.50000000183371
 20
52.297112764604201
 30
0.0
 11
-171.5000000018338
 21
52.297112764595568
 31
0.0
  0
LINE
  5
18A5F
  8
KI
  6
CONTINUOUS
 62
     7
 10
-191.00000000183351
 20
-142.2028872354004
 30
0.0
 11
-191.00000000183351
 21
-125.202887235399
 31
0.0
  0
LINE
  5
18A60
  8
KI
  6
CONTINUOUS
 62
     7
 10
-191.00000000183351
 20
-125.202887235399
 30
0.0
 11
-182.0000000018336
 21
-125.20288723540141
 31
0.0
  0
LINE
  5
18A61
  8
KI
  6
CONTINUOUS
 62
     7
 10
-182.0000000018336
 20
-125.20288723540141
 30
0.0
 11
-182.0000000018336
 21
-142.2028872354015
 31
0.0
  0
LINE
  5
18A62
  8
KI
  6
CONTINUOUS
 62
     7
 10
-182.0000000018336
 20
-142.2028872354015
 30
0.0
 11
-171.5000000018338
 21
-142.2028872354044
 31
0.0
  0
LINE
  5
18A63
  8
KI
  6
CONTINUOUS
 62
     7
 10
-364.5
 20
-61.45288723446474
 30
0.0
 11
-364.5
 21
51.297112766452742
 31
0.0
  0
LINE
  5
18A64
  8
KI
  6
CONTINUOUS
 62
     7
 10
-212.5
 20
-63.452887234464761
 30
0.0
 11
-212.5
 21
-152.20288723538201
 31
0.0
  0
LINE
  5
18A65
  8
KI
  6
CONTINUOUS
 62
     7
 10
-201.50000000183371
 20
-63.452887234464761
 30
0.0
 11
-201.50000000183371
 21
-142.20288723539591
 31
0.0
  0
LINE
  5
18A66
  8
KI
  6
CONTINUOUS
 62
     7
 10
-171.5000000018338
 20
-63.452887234464761
 30
0.0
 11
-171.5000000018338
 21
-142.2028872354044
 31
0.0
  0
LINE
  5
18A67
  8
KI
  6
CONTINUOUS
 62
     7
 10
130.1555465109698
 20
-110.83595909899
 30
0.0
 11
218.72995338220181
 21
-110.83595909899211
 31
0.0
  0
LINE
  5
18A68
  8
KI
  6
CONTINUOUS
 62
     7
 10
130.1555465109698
 20
-140.8359590989738
 30
0.0
 11
218.72995338220181
 21
-140.8359590989761
 31
0.0
  0
ARC
  5
18A69
  8
KI
  6
CONTINUOUS
 62
     7
 10
130.1555465109698
 20
-138.8359590989734
 30
0.0
 40
2.0
 50
180.0
 51
270.0
  0
LINE
  5
18A6A
  8
KI
  6
CONTINUOUS
 62
     7
 10
128.1555465109698
 20
-112.83595909898931
 30
0.0
 11
128.1555465109698
 21
-138.8359590989734
 31
0.0
  0
ARC
  5
18A6B
  8
KI
  6
CONTINUOUS
 62
     7
 10
130.1555465109698
 20
-112.83595909898931
 30
0.0
 40
2.0
 50
90.0
 51
180.0
  0
ARC
  5
18A6C
  8
KI
  6
CONTINUOUS
 62
     7
 10
309.30436025343391
 20
-138.83595909898119
 30
0.0
 40
2.0
 50
270.0
 51
0.0
  0
LINE
  5
18A6D
  8
KI
  6
CONTINUOUS
 62
     7
 10
311.30436025343391
 20
-112.83595909899719
 30
0.0
 11
311.30436025343391
 21
-138.83595909898119
 31
0.0
  0
ARC
  5
18A6E
  8
KI
  6
CONTINUOUS
 62
     7
 10
309.30436025343391
 20
-112.83595909899719
 30
0.0
 40
2.0
 50
0.0
 51
90.0
  0
LINE
  5
18A6F
  8
KI
  6
CONTINUOUS
 62
     7
 10
220.72995338220181
 20
-110.835959098995
 30
0.0
 11
309.30436025343391
 21
-110.83595909899729
 31
0.0
  0
LINE
  5
18A70
  8
KI
  6
CONTINUOUS
 62
     7
 10
220.72995338220181
 20
-140.83595909897909
 30
0.0
 11
309.30436025343391
 21
-140.83595909898131
 31
0.0
  0
LINE
  5
18A71
  8
KI
  6
PHANTOM2
 62
     7
 10
8.3043602534340248
 20
-110.8359591013043
 30
0.0
 11
48.471980455984642
 21
-110.8359591013045
 31
0.0
  0
LINE
  5
18A72
  8
KI
  6
PHANTOM2
 62
     7
 10
8.3043602534340248
 20
-140.83595910128841
 30
0.0
 11
48.471980455984642
 21
-140.83595910128841
 31
0.0
  0
LINE
  5
18A73
  8
KI
  6
PHANTOM2
 62
     7
 10
6.3043602534340231
 20
-112.8359591013043
 30
0.0
 11
6.3043602534340231
 21
-138.83595910128841
 31
0.0
  0
ARC
  5
18A74
  8
KI
  6
PHANTOM2
 62
     7
 10
8.3043602534340248
 20
-138.83595910128841
 30
0.0
 40
2.0
 50
180.0
 51
270.0
  0
ARC
  5
18A75
  8
KI
  6
PHANTOM2
 62
     7
 10
8.3043602534340248
 20
-112.8359591013043
 30
0.0
 40
2.0
 50
90.0
 51
180.0
  0
LINE
  5
18A76
  8
KI
  6
PHANTOM2
 62
     7
 10
205.15554651096949
 20
-112.8359591013043
 30
0.0
 11
205.15554651096949
 21
-138.83595910128841
 31
0.0
  0
ARC
  5
18A77
  8
KI
  6
PHANTOM2
 62
     7
 10
203.15554651096929
 20
-138.83595910128841
 30
0.0
 40
2.0
 50
270.0
 51
0.0
  0
ARC
  5
18A78
  8
KI
  6
PHANTOM2
 62
     7
 10
203.15554651096929
 20
-112.8359591013043
 30
0.0
 40
2.0
 50
0.0
 51
90.0
  0
LINE
  5
18A79
  8
KI
  6
PHANTOM2
 62
     7
 10
50.471980455984628
 20
-110.8359591013047
 30
0.0
 11
203.15554651096949
 21
-110.83595910130499
 31
0.0
  0
LINE
  5
18A7A
  8
KI
  6
PHANTOM2
 62
     7
 10
50.471980455984628
 20
-140.83595910128881
 30
0.0
 11
203.15554651096929
 21
-140.83595910128921
 31
0.0
  0
LINE
  5
18A7B
  8
KI
  6
PHANTOM2
 62
     7
 10
-14.19563974656597
 20
-147.4359590972424
 30
0.0
 11
48.471980455984642
 21
-147.4359590972424
 31
0.0
  0
LINE
  5
18A7C
  8
KI
  6
PHANTOM2
 62
     7
 10
-223.4999999999998
 20
51.297112766452742
 30
0.0
 11
-223.4999999999998
 21
-61.45288723446474
 31
0.0
  0
LINE
  5
18A7D
  8
KI
  6
PHANTOM2
 62
     7
 10
-223.4999999999998
 20
-63.452887234464761
 30
0.0
 11
-223.4999999999998
 21
-152.20288723538201
 31
0.0
  0
LINE
  5
18A7E
  8
KI
  6
PHANTOM2
 62
     7
 10
-353.5
 20
51.297112766452742
 30
0.0
 11
-353.5
 21
-61.45288723446474
 31
0.0
  0
LINE
  5
18A7F
  8
KI
  6
PHANTOM2
 62
     7
 10
-353.5
 20
-63.452887234464761
 30
0.0
 11
-353.5
 21
-152.20288723538201
 31
0.0
  0
LINE
  5
18A80
  8
KI
  6
PHANTOM2
 62
     7
 10
220.72995338220181
 20
-147.4359590972428
 30
0.0
 11
331.80436025343403
 21
-147.435959097243
 31
0.0
  0
LINE
  5
18A81
  8
KI
  6
PHANTOM2
 62
     7
 10
50.471980455984628
 20
-147.43595909724269
 30
0.0
 11
218.72995338220181
 21
-147.4359590972428
 31
0.0
  0
LINE
  5
18A82
  8
SU
  6
CONTINUOUS
 62
     3
 10
-271.27141404824732
 20
17.7329939906964
 30
0.0
 11
-237.7072952219759
 21
51.297112766452628
 31
0.0
  0
LINE
  5
18A83
  8
SU
  6
CONTINUOUS
 62
     3
 10
-306.08232376588688
 20
17.7329939906964
 30
0.0
 11
-271.27141404824732
 21
17.7329939906964
 31
0.0
  0
LINE
  5
18A84
  8
KI
  6
PHANTOM2
 62
     7
 10
220.72995338220181
 20
-88.835959097242764
 30
0.0
 11
311.30436025343403
 21
-88.835959097242764
 31
0.0
  0
LINE
  5
18A85
  8
KI
  6
PHANTOM2
 62
     7
 10
128.1555465109698
 20
-88.835959097242764
 30
0.0
 11
218.72995338220181
 21
-88.835959097242679
 31
0.0
  0
TEXT
  5
18A86
  8
KI
  6
CONTINUOUS
 62
     7
 10
-374.27025742961791
 20
233.69945489643041
 30
0.0
 40
7.0
  1
C：戸先かかり寸法
 41
0.84552428
  0
TEXT
  5
18A87
  8
KI
  6
CONTINUOUS
 62
     7
 10
-374.27025742961791
 20
242.0394399291641
 30
0.0
 40
7.0
  1
B：戸尻かかり寸法
 41
0.84552428
  0
TEXT
  5
18A88
  8
KI
  6
CONTINUOUS
 62
     7
 10
-374.27025742961791
 20
224.8425911174414
 30
0.0
 40
7.0
  1
D：チリ寸法
 41
0.84552428
  0
TEXT
  5
18A89
  8
KI
  6
CONTINUOUS
 62
     7
 10
218.27257340280701
 20
-242.19551188801111
 30
0.0
 40
7.0
  1
室内引戸　アウトセット引戸（上吊り仕様）
 41
0.84552428
  0
TEXT
  5
18A8A
  8
KI
  6
CONTINUOUS
 62
     7
 10
218.27257340280701
 20
-260.11880434947739
 30
0.0
 40
7.0
  1
無目枠納め（ノンケーシング枠）
 41
0.84552428
  0
TEXT
  5
18A8B
  8
KI
  6
CONTINUOUS
 62
     7
 10
218.27257340280701
 20
-251.1188043494775
 30
0.0
 40
7.0
  1
片引き戸（錠無し）
 41
0.84552428
  0
TEXT
  5
18A8C
  8
KI
  6
CONTINUOUS
 62
     7
 10
218.27257340280701
 20
-232.7262791206054
 30
0.0
 40
7.0
  1
D TOS多機能商品シリーズ
 41
0.84552428
  0
TEXT
  5
18A8D
  8
KI
  6
CONTINUOUS
 62
     7
 10
217.70790036644311
 20
-278.4199493701791
 30
0.0
 40
7.0
  1
dt28a001
 41
0.84552428
  0
LINE
  5
18A8E
  8
KI
  6
CONTINUOUS
 62
     7
 10
-364.5
 20
-152.20288723538201
 30
0.0
 11
-212.5
 21
-152.20288723538201
 31
0.0
  0
LINE
  5
18A8F
  8
SU
  6
CONTINUOUS
 62
     3
 10
-306.08232376588688
 20
0.6282798038241709
 30
0.0
 11
-332.75115677903102
 21
27.297112766452749
 31
0.0
  0
LINE
  5
18A90
  8
SU
  6
CONTINUOUS
 62
     3
 10
-306.08232376588688
 20
0.6282798038241709
 30
0.0
 11
-277.36644944283211
 21
0.6282798038241717
 31
0.0
  0
LINE
  5
18A91
  8
KI
  6
CENTER2
 62
     7
 10
-216.4999999999994
 20
85.797112766452287
 30
0.0
 11
-269.4999999999992
 21
85.797112766452287
 31
0.0
  0
LINE
  5
18A92
  8
KI
  6
CENTER2
 62
     7
 10
-216.4999999999994
 20
71.797112766452287
 30
0.0
 11
-269.4999999999992
 21
71.797112766452287
 31
0.0
  0
LINE
  5
18A93
  8
KI
  6
CENTER2
 62
     7
 10
2.3043602534340391
 20
-125.8359591012964
 30
0.0
 11
313.30436025343391
 21
-125.8359591012964
 31
0.0
  0
LINE
  5
18A94
  8
SU
  6
CONTINUOUS
 62
     3
 10
-332.75115677903102
 20
27.297112766452749
 30
0.0
 11
-331.278207162586
 21
25.377527453384751
 31
0.0
  0
LINE
  5
18A95
  8
SU
  6
CONTINUOUS
 62
     3
 10
-332.75115677903102
 20
27.297112766452749
 30
0.0
 11
-330.83104466297669
 21
25.82375891985879
 31
0.0
  0
TEXT
  5
18A96
  8
SU
  6
CONTINUOUS
 62
     3
 10
-304.33347743952271
 20
1.4128133645216061
 30
0.0
 40
4.0
  1
無目枠（別途）
 41
0.8299999999999999
  0
LINE
  5
18A97
  8
SU
  6
CONTINUOUS
 62
     3
 10
304.30436025343391
 20
-105.83595909898931
 30
0.0
 11
356.80436025343403
 21
-105.83595909898931
 31
0.0
  0
LINE
  5
18A98
  8
SU
  6
CONTINUOUS
 62
     3
 10
312.30436025343408
 20
-88.835959097242835
 30
0.0
 11
356.80436025343403
 21
-88.835959097242835
 31
0.0
  0
LINE
  5
18A99
  8
SU
  6
CONTINUOUS
 62
     3
 10
353.80436025343403
 20
-105.83595909898931
 30
0.0
 11
353.80436025343403
 21
-88.835959097242835
 31
0.0
  0
LINE
  5
18A9A
  8
SU
  6
CONTINUOUS
 62
     3
 10
304.30436025343408
 20
-145.83595909898901
 30
0.0
 11
356.80436025343391
 21
-145.83595909898901
 31
0.0
  0
LINE
  5
18A9B
  8
SU
  6
CONTINUOUS
 62
     3
 10
304.30436025343408
 20
-105.83595909898931
 30
0.0
 11
356.80436025343403
 21
-105.83595909898931
 31
0.0
  0
LINE
  5
18A9C
  8
SU
  6
CONTINUOUS
 62
     3
 10
353.80436025343391
 20
-145.83595909898901
 30
0.0
 11
353.80436025343403
 21
-105.83595909898931
 31
0.0
  0
LINE
  5
18A9D
  8
SU
  6
CONTINUOUS
 62
     3
 10
303.30436025343391
 20
-146.83595909898909
 30
0.0
 11
303.30436025343391
 21
-170.9359590972426
 31
0.0
  0
LINE
  5
18A9E
  8
SU
  6
CONTINUOUS
 62
     3
 10
263.30436025343391
 20
-146.83595909898909
 30
0.0
 11
263.30436025343391
 21
-170.9359590972426
 31
0.0
  0
LINE
  5
18A9F
  8
SU
  6
CONTINUOUS
 62
     3
 10
303.30436025343391
 20
-167.9359590972428
 30
0.0
 11
263.30436025343391
 21
-167.9359590972428
 31
0.0
  0
LINE
  5
18AA0
  8
SU
  6
CONTINUOUS
 62
     3
 10
-40.695639746567899
 20
28.664040902757201
 30
0.0
 11
-62.695639746567899
 21
28.664040902757201
 31
0.0
  0
LINE
  5
18AA1
  8
SU
  6
CONTINUOUS
 62
     3
 10
-40.695639746567899
 20
41.164040902757172
 30
0.0
 11
-62.695639746567899
 21
41.164040902757201
 31
0.0
  0
LINE
  5
18AA2
  8
SU
  6
CONTINUOUS
 62
     3
 10
-59.695639746567892
 20
28.664040902757201
 30
0.0
 11
-59.695639746567892
 21
41.164040902757201
 31
0.0
  0
LINE
  5
18AA3
  8
SU
  6
CONTINUOUS
 62
     3
 10
-40.695639746567899
 20
-76.33595909724275
 30
0.0
 11
-62.695639746567899
 21
-76.33595909724275
 31
0.0
  0
LINE
  5
18AA4
  8
SU
  6
CONTINUOUS
 62
     3
 10
-40.695639746567899
 20
-88.835959097242764
 30
0.0
 11
-62.695639746567899
 21
-88.835959097242764
 31
0.0
  0
LINE
  5
18AA5
  8
SU
  6
CONTINUOUS
 62
     3
 10
-59.695639746567892
 20
-76.33595909724275
 30
0.0
 11
-59.695639746567892
 21
-88.835959097242764
 31
0.0
  0
LINE
  5
18AA6
  8
SU
  6
CONTINUOUS
 62
     3
 10
-40.695639746567899
 20
28.664040902757201
 30
0.0
 11
-62.695639746567899
 21
28.664040902757201
 31
0.0
  0
LINE
  5
18AA7
  8
SU
  6
CONTINUOUS
 62
     3
 10
-40.695639746567927
 20
-76.33595909724275
 30
0.0
 11
-62.695639746567927
 21
-76.33595909724275
 31
0.0
  0
LINE
  5
18AA8
  8
SU
  6
CONTINUOUS
 62
     3
 10
-59.695639746567892
 20
28.664040902757201
 30
0.0
 11
-59.695639746567927
 21
-76.33595909724275
 31
0.0
  0
LINE
  5
18AA9
  8
SU
  6
CONTINUOUS
 62
     3
 10
-40.695639746567899
 20
41.164040902757172
 30
0.0
 11
-77.695639746567892
 21
41.164040902757201
 31
0.0
  0
LINE
  5
18AAA
  8
SU
  6
CONTINUOUS
 62
     3
 10
-40.695639746567899
 20
-88.835959097242679
 30
0.0
 11
-77.69563974656792
 21
-88.835959097242679
 31
0.0
  0
LINE
  5
18AAB
  8
SU
  6
CONTINUOUS
 62
     3
 10
-74.695639746567892
 20
41.164040902757201
 30
0.0
 11
-74.69563974656792
 21
-88.835959097242679
 31
0.0
  0
LINE
  5
18AAC
  8
SU
  6
CONTINUOUS
 62
     3
 10
-40.695639746567899
 20
-88.835959097242679
 30
0.0
 11
-77.695639746567906
 21
-88.835959097242679
 31
0.0
  0
LINE
  5
18AAD
  8
SU
  6
CONTINUOUS
 62
     3
 10
1.3043602534340391
 20
-125.8359591012964
 30
0.0
 11
-77.69563974656792
 21
-125.8359591012964
 31
0.0
  0
LINE
  5
18AAE
  8
SU
  6
CONTINUOUS
 62
     3
 10
-74.695639746567906
 20
-88.835959097242679
 30
0.0
 11
-74.69563974656792
 21
-125.8359591012964
 31
0.0
  0
LINE
  5
18AAF
  8
SU
  6
CONTINUOUS
 62
     3
 10
-196.2500000018336
 20
-153.20288723538221
 30
0.0
 11
-196.2500000018336
 21
-187.20288723538221
 31
0.0
  0
LINE
  5
18AB0
  8
SU
  6
CONTINUOUS
 62
     3
 10
-176.7500000018338
 20
-153.20288723538221
 30
0.0
 11
-176.7500000018338
 21
-187.20288723538221
 31
0.0
  0
LINE
  5
18AB1
  8
SU
  6
CONTINUOUS
 62
     3
 10
-196.2500000018336
 20
-184.20288723538221
 30
0.0
 11
-176.7500000018338
 21
-184.20288723538221
 31
0.0
  0
LINE
  5
18AB2
  8
SU
  6
CONTINUOUS
 62
     3
 10
-186.50000000183351
 20
-153.20288723538221
 30
0.0
 11
-186.50000000183351
 21
-202.20288723538221
 31
0.0
  0
LINE
  5
18AB3
  8
SU
  6
CONTINUOUS
 62
     3
 10
-223.4999999999998
 20
-153.20288723538221
 30
0.0
 11
-223.4999999999998
 21
-202.20288723538221
 31
0.0
  0
LINE
  5
18AB4
  8
SU
  6
CONTINUOUS
 62
     3
 10
-186.50000000183351
 20
-199.20288723538221
 30
0.0
 11
-223.4999999999998
 21
-199.20288723538221
 31
0.0
  0
LINE
  5
18AB5
  8
SU
  6
CONTINUOUS
 62
     3
 10
153.1555465109698
 20
-140.83595910128921
 30
0.0
 11
190.1555465109694
 21
-140.83595910128921
 31
0.0
  0
LINE
  5
18AB6
  8
SU
  6
CONTINUOUS
 62
     3
 10
153.1555465109698
 20
-147.4359590972428
 30
0.0
 11
190.1555465109694
 21
-147.4359590972428
 31
0.0
  0
LINE
  5
18AB7
  8
SU
  6
CONTINUOUS
 62
     3
 10
187.1555465109694
 20
-140.83595910128921
 30
0.0
 11
187.1555465109694
 21
-147.4359590972428
 31
0.0
  0
LINE
  5
18AB8
  8
SU
  6
CONTINUOUS
 62
     3
 10
187.1555465109694
 20
-147.4359590972428
 30
0.0
 11
187.1555465109694
 21
-159.2340543353379
 31
0.0
  0
LINE
  5
18AB9
  8
SU
  6
CONTINUOUS
 62
     3
 10
153.1555465109698
 20
-110.8359590989905
 30
0.0
 11
190.1555465109694
 21
-110.8359590989905
 31
0.0
  0
LINE
  5
18ABA
  8
SU
  6
CONTINUOUS
 62
     3
 10
153.1555465109698
 20
-140.83595910128921
 30
0.0
 11
190.1555465109694
 21
-140.83595910128921
 31
0.0
  0
LINE
  5
18ABB
  8
SU
  6
CONTINUOUS
 62
     3
 10
187.1555465109694
 20
-110.8359590989905
 30
0.0
 11
187.1555465109694
 21
-140.83595910128921
 31
0.0
  0
LINE
  5
18ABC
  8
SU
  6
CONTINUOUS
 62
     3
 10
153.1555465109698
 20
-99.835959097243844
 30
0.0
 11
190.1555465109694
 21
-99.835959097243844
 31
0.0
  0
LINE
  5
18ABD
  8
SU
  6
CONTINUOUS
 62
     3
 10
153.1555465109698
 20
-110.8359591013047
 30
0.0
 11
190.1555465109694
 21
-110.8359591013047
 31
0.0
  0
LINE
  5
18ABE
  8
SU
  6
CONTINUOUS
 62
     3
 10
187.1555465109694
 20
-99.835959097243844
 30
0.0
 11
187.1555465109694
 21
-110.8359591013047
 31
0.0
  0
LINE
  5
18ABF
  8
SU
  6
CONTINUOUS
 62
     3
 10
187.1555465109694
 20
-105.3359590992744
 30
0.0
 11
172.15554651096971
 21
-87.806516081924485
 31
0.0
  0
LINE
  5
18AC0
  8
SU
  6
CONTINUOUS
 62
     3
 10
172.15554651096971
 20
-87.806516081924485
 30
0.0
 11
172.15554651096971
 21
-73.507468462876858
 31
0.0
  0
LINE
  5
18AC1
  8
SU
  6
CONTINUOUS
 62
     3
 10
153.1555465109698
 20
52.164040902756277
 30
0.0
 11
190.1555465109698
 21
52.16404090275627
 31
0.0
  0
LINE
  5
18AC2
  8
SU
  6
CONTINUOUS
 62
     3
 10
153.1555465109698
 20
-99.835959097243844
 30
0.0
 11
190.1555465109698
 21
-99.835959097243844
 31
0.0
  0
LINE
  5
18AC3
  8
SU
  6
CONTINUOUS
 62
     3
 10
187.15554651096949
 20
52.16404090275627
 30
0.0
 11
187.15554651096949
 21
-99.835959097243844
 31
0.0
  0
LINE
  5
18AC4
  8
SU
  6
CONTINUOUS
 62
     3
 10
-16.195639746565941
 20
-148.9359590972426
 30
0.0
 11
-16.195639746565959
 21
-215.93595909724289
 31
0.0
  0
LINE
  5
18AC5
  8
SU
  6
CONTINUOUS
 62
     3
 10
333.80436025343403
 20
-148.93595909724249
 30
0.0
 11
333.80436025343403
 21
-215.93595909724289
 31
0.0
  0
LINE
  5
18AC6
  8
SU
  6
CONTINUOUS
 62
     3
 10
-16.195639746565959
 20
-212.9359590972426
 30
0.0
 11
333.80436025343403
 21
-212.9359590972426
 31
0.0
  0
LINE
  5
18AC7
  8
SU
  6
CONTINUOUS
 62
     3
 10
6.3043602534340391
 20
-141.83595910128841
 30
0.0
 11
6.3043602534340364
 21
-200.93595909724289
 31
0.0
  0
LINE
  5
18AC8
  8
SU
  6
CONTINUOUS
 62
     3
 10
-16.195639746565941
 20
-148.9359590972426
 30
0.0
 11
-16.195639746565959
 21
-200.93595909724289
 31
0.0
  0
LINE
  5
18AC9
  8
SU
  6
CONTINUOUS
 62
     3
 10
6.3043602534340364
 20
-197.9359590972426
 30
0.0
 11
-16.195639746565959
 21
-197.9359590972426
 31
0.0
  0
LINE
  5
18ACA
  8
SU
  6
CONTINUOUS
 62
     3
 10
128.1555465109698
 20
-141.83595910128901
 30
0.0
 11
128.1555465109698
 21
-200.93595909724289
 31
0.0
  0
LINE
  5
18ACB
  8
SU
  6
CONTINUOUS
 62
     3
 10
6.3043602534340391
 20
-141.83595910128901
 30
0.0
 11
6.3043602534340364
 21
-200.93595909724289
 31
0.0
  0
LINE
  5
18ACC
  8
SU
  6
CONTINUOUS
 62
     3
 10
128.1555465109698
 20
-197.9359590972426
 30
0.0
 11
6.3043602534340364
 21
-197.9359590972426
 31
0.0
  0
LINE
  5
18ACD
  8
SU
  6
CONTINUOUS
 62
     3
 10
128.1555465109698
 20
-141.83595910128901
 30
0.0
 11
128.1555465109698
 21
-200.93595909724289
 31
0.0
  0
LINE
  5
18ACE
  8
SU
  6
CONTINUOUS
 62
     3
 10
311.30436025343391
 20
-141.83595910128901
 30
0.0
 11
311.30436025343391
 21
-200.93595909724289
 31
0.0
  0
LINE
  5
18ACF
  8
SU
  6
CONTINUOUS
 62
     3
 10
128.1555465109698
 20
-197.9359590972426
 30
0.0
 11
311.30436025343391
 21
-197.9359590972426
 31
0.0
  0
LINE
  5
18AD0
  8
SU
  6
CONTINUOUS
 62
     3
 10
128.1555465109698
 20
-141.83595910128901
 30
0.0
 11
128.1555465109698
 21
-185.9359590972428
 31
0.0
  0
LINE
  5
18AD1
  8
SU
  6
CONTINUOUS
 62
     3
 10
205.15554651096949
 20
-141.83595910128901
 30
0.0
 11
205.15554651096949
 21
-185.9359590972428
 31
0.0
  0
LINE
  5
18AD2
  8
SU
  6
CONTINUOUS
 62
     3
 10
128.1555465109698
 20
-182.9359590972428
 30
0.0
 11
205.15554651096949
 21
-182.9359590972428
 31
0.0
  0
LINE
  5
18AD3
  8
SU
  6
CONTINUOUS
 62
     3
 10
156.6555465109694
 20
-129.73595871577271
 30
0.0
 11
156.6555465109694
 21
-170.9359590972426
 31
0.0
  0
LINE
  5
18AD4
  8
SU
  6
CONTINUOUS
 62
     3
 10
128.1555465109698
 20
-141.83595910128901
 30
0.0
 11
128.1555465109698
 21
-170.9359590972426
 31
0.0
  0
LINE
  5
18AD5
  8
SU
  6
CONTINUOUS
 62
     3
 10
156.6555465109694
 20
-167.9359590972428
 30
0.0
 11
128.1555465109698
 21
-167.9359590972428
 31
0.0
  0
LINE
  5
18AD6
  8
SU
  6
CONTINUOUS
 62
     3
 10
311.30436025343391
 20
-141.83595909898131
 30
0.0
 11
311.30436025343391
 21
-200.93595909724289
 31
0.0
  0
LINE
  5
18AD7
  8
SU
  6
CONTINUOUS
 62
     3
 10
333.80436025343403
 20
-148.93595909724249
 30
0.0
 11
333.80436025343403
 21
-200.93595909724289
 31
0.0
  0
LINE
  5
18AD8
  8
SU
  6
CONTINUOUS
 62
     3
 10
311.30436025343391
 20
-197.9359590972426
 30
0.0
 11
333.80436025343403
 21
-197.9359590972426
 31
0.0
  0
LINE
  5
18AD9
  8
SU
  6
CONTINUOUS
 62
     3
 10
311.30436025343391
 20
-141.83595909898131
 30
0.0
 11
311.30436025343391
 21
-170.9359590972426
 31
0.0
  0
LINE
  5
18ADA
  8
SU
  6
CONTINUOUS
 62
     3
 10
303.30436025343391
 20
-146.83595909898909
 30
0.0
 11
303.30436025343391
 21
-170.9359590972426
 31
0.0
  0
LINE
  5
18ADB
  8
SU
  6
CONTINUOUS
 62
     3
 10
311.30436025343391
 20
-167.9359590972428
 30
0.0
 11
303.30436025343391
 21
-167.9359590972428
 31
0.0
  0
LINE
  5
18ADC
  8
SU
  6
CONTINUOUS
 62
     3
 10
287.30436025343391
 20
53.164040902756291
 30
0.0
 11
287.30436025343391
 21
75.164040902756753
 31
0.0
  0
LINE
  5
18ADD
  8
SU
  6
CONTINUOUS
 62
     3
 10
263.30436025343391
 20
-104.83595909898921
 30
0.0
 11
263.30436025343391
 21
75.164040902756753
 31
0.0
  0
LINE
  5
18ADE
  8
SU
  6
CONTINUOUS
 62
     3
 10
287.30436025343391
 20
72.164040902756724
 30
0.0
 11
263.30436025343391
 21
72.164040902756724
 31
0.0
  0
LINE
  5
18ADF
  8
SU
  6
CONTINUOUS
 62
     3
 10
287.30436025343391
 20
53.164040902756291
 30
0.0
 11
287.30436025343391
 21
90.164040902760263
 31
0.0
  0
LINE
  5
18AE0
  8
SU
  6
CONTINUOUS
 62
     3
 10
205.15554651096949
 20
-109.83595909899149
 30
0.0
 11
205.15554651096949
 21
90.164040902760263
 31
0.0
  0
LINE
  5
18AE1
  8
SU
  6
CONTINUOUS
 62
     3
 10
287.30436025343391
 20
87.164040902760263
 30
0.0
 11
205.15554651096949
 21
87.164040902760263
 31
0.0
  0
LINE
  5
18AE2
  8
SU
  6
CONTINUOUS
 62
     3
 10
311.30436025343391
 20
53.164040902757172
 30
0.0
 11
311.30436025343391
 21
105.1640409027567
 31
0.0
  0
LINE
  5
18AE3
  8
SU
  6
CONTINUOUS
 62
     3
 10
128.1555465109698
 20
53.164040902757172
 30
0.0
 11
128.1555465109698
 21
105.1640409027567
 31
0.0
  0
LINE
  5
18AE4
  8
SU
  6
CONTINUOUS
 62
     3
 10
311.30436025343391
 20
102.1640409027567
 30
0.0
 11
128.1555465109698
 21
102.1640409027567
 31
0.0
  0
LINE
  5
18AE5
  8
SU
  6
CONTINUOUS
 62
     3
 10
311.30436025343391
 20
53.164040902757172
 30
0.0
 11
311.30436025343391
 21
90.164040902760263
 31
0.0
  0
LINE
  5
18AE6
  8
SU
  6
CONTINUOUS
 62
     3
 10
287.30436025343391
 20
53.164040902756291
 30
0.0
 11
287.30436025343391
 21
90.164040902760263
 31
0.0
  0
LINE
  5
18AE7
  8
SU
  6
CONTINUOUS
 62
     3
 10
311.30436025343391
 20
87.164040902760263
 30
0.0
 11
287.30436025343391
 21
87.164040902760263
 31
0.0
  0
LINE
  5
18AE8
  8
SU
  6
CONTINUOUS
 62
     3
 10
152.1555465109698
 20
53.164040902756291
 30
0.0
 11
152.1555465109698
 21
90.164040902754465
 31
0.0
  0
LINE
  5
18AE9
  8
SU
  6
CONTINUOUS
 62
     3
 10
205.15554651096949
 20
-109.83595909899149
 30
0.0
 11
205.15554651096949
 21
90.164040902754465
 31
0.0
  0
LINE
  5
18AEA
  8
SU
  6
CONTINUOUS
 62
     3
 10
152.1555465109698
 20
87.164040902754465
 30
0.0
 11
205.15554651096949
 21
87.164040902754465
 31
0.0
  0
LINE
  5
18AEB
  8
SU
  6
CONTINUOUS
 62
     3
 10
128.1555465109698
 20
53.164040902757172
 30
0.0
 11
128.1555465109698
 21
90.164040902754465
 31
0.0
  0
LINE
  5
18AEC
  8
SU
  6
CONTINUOUS
 62
     3
 10
152.1555465109698
 20
53.164040902757172
 30
0.0
 11
152.1555465109698
 21
90.164040902754465
 31
0.0
  0
LINE
  5
18AED
  8
SU
  6
CONTINUOUS
 62
     3
 10
128.1555465109698
 20
87.164040902754465
 30
0.0
 11
152.1555465109698
 21
87.164040902754465
 31
0.0
  0
LINE
  5
18AEE
  8
SU
  6
CONTINUOUS
 62
     3
 10
-378.5000058224889
 20
41.29710858547935
 30
0.0
 11
-390.5000020224893
 21
41.29710858547935
 31
0.0
  0
LINE
  5
18AEF
  8
SU
  6
CONTINUOUS
 62
     3
 10
-378.62000572248911
 20
41.497108385479343
 30
0.0
 11
-390.38000212248909
 21
41.497108385479343
 31
0.0
  0
LINE
  5
18AF0
  8
SU
  6
CONTINUOUS
 62
     3
 10
-378.74000562248898
 20
41.697108185479351
 30
0.0
 11
-390.26000222248911
 21
41.697108185479351
 31
0.0
  0
LINE
  5
18AF1
  8
SU
  6
CONTINUOUS
 62
     3
 10
-378.8600055224889
 20
41.897107985479352
 30
0.0
 11
-390.1400023224889
 21
41.897107985479352
 31
0.0
  0
LINE
  5
18AF2
  8
SU
  6
CONTINUOUS
 62
     3
 10
-378.98000542248911
 20
42.097107785479352
 30
0.0
 11
-390.02000252248899
 21
42.097107785479352
 31
0.0
  0
LINE
  5
18AF3
  8
SU
  6
CONTINUOUS
 62
     3
 10
-379.10000522248907
 20
42.297107585479353
 30
0.0
 11
-389.9000026224893
 21
42.297107585479353
 31
0.0
  0
LINE
  5
18AF4
  8
SU
  6
CONTINUOUS
 62
     3
 10
-379.22000512248911
 20
42.497107485479347
 30
0.0
 11
-389.78000272248892
 21
42.497107485479347
 31
0.0
  0
LINE
  5
18AF5
  8
SU
  6
CONTINUOUS
 62
     3
 10
-379.34000412248918
 20
42.697107285479341
 30
0.0
 11
-389.6600028224891
 21
42.697107285479341
 31
0.0
  0
LINE
  5
18AF6
  8
SU
  6
CONTINUOUS
 62
     3
 10
-379.46000392248919
 20
42.897107085479348
 30
0.0
 11
-389.54000292248912
 21
42.897107085479348
 31
0.0
  0
LINE
  5
18AF7
  8
SU
  6
CONTINUOUS
 62
     3
 10
-379.58000382248912
 20
43.097106885479349
 30
0.0
 11
-389.42000302248908
 21
43.097106885479349
 31
0.0
  0
LINE
  5
18AF8
  8
SU
  6
CONTINUOUS
 62
     3
 10
-379.70000372248899
 20
43.297106685479342
 30
0.0
 11
-389.30000312248899
 21
43.297106685479342
 31
0.0
  0
LINE
  5
18AF9
  8
SU
  6
CONTINUOUS
 62
     3
 10
-379.82000362248908
 20
43.497106485479357
 30
0.0
 11
-389.18000332248891
 21
43.497106485479357
 31
0.0
  0
LINE
  5
18AFA
  8
SU
  6
CONTINUOUS
 62
     3
 10
-379.94000352248901
 20
43.69710628547935
 30
0.0
 11
-389.06000342248899
 21
43.69710628547935
 31
0.0
  0
LINE
  5
18AFB
  8
SU
  6
CONTINUOUS
 62
     3
 10
-380.0600034224891
 20
43.897106085479351
 30
0.0
 11
-388.94000352248901
 21
43.897106085479351
 31
0.0
  0
LINE
  5
18AFC
  8
SU
  6
CONTINUOUS
 62
     3
 10
-380.3000031224891
 20
44.297105685479337
 30
0.0
 11
-388.7000037224891
 21
44.297105685479337
 31
0.0
  0
LINE
  5
18AFD
  8
SU
  6
CONTINUOUS
 62
     3
 10
-380.18000332248891
 20
44.097105885479358
 30
0.0
 11
-388.82000362248891
 21
44.097105885479358
 31
0.0
  0
LINE
  5
18AFE
  8
SU
  6
CONTINUOUS
 62
     3
 10
-381.02000252248911
 20
45.497104585479342
 30
0.0
 11
-387.98000442248912
 21
45.497104585479342
 31
0.0
  0
LINE
  5
18AFF
  8
SU
  6
CONTINUOUS
 62
     3
 10
-381.14000142248892
 20
45.697104385479349
 30
0.0
 11
-387.86000452248891
 21
45.697104385479349
 31
0.0
  0
LINE
  5
18B00
  8
SU
  6
CONTINUOUS
 62
     3
 10
-381.26000132248919
 20
45.897104185479357
 30
0.0
 11
-387.7400046224891
 21
45.897104185479357
 31
0.0
  0
LINE
  5
18B01
  8
SU
  6
CONTINUOUS
 62
     3
 10
-381.38000122248911
 20
46.097103985479343
 30
0.0
 11
-387.62000472248911
 21
46.097103985479343
 31
0.0
  0
LINE
  5
18B02
  8
SU
  6
CONTINUOUS
 62
     3
 10
-381.50000102248919
 20
46.297103785479358
 30
0.0
 11
-387.5000049224891
 21
46.297103785479358
 31
0.0
  0
LINE
  5
18B03
  8
SU
  6
CONTINUOUS
 62
     3
 10
-381.62000092248911
 20
46.497103585479358
 30
0.0
 11
-387.38000502248912
 21
46.497103585479358
 31
0.0
  0
LINE
  5
18B04
  8
SU
  6
CONTINUOUS
 62
     3
 10
-381.74000082248909
 20
46.697103485479339
 30
0.0
 11
-387.26000512248919
 21
46.697103485479339
 31
0.0
  0
LINE
  5
18B05
  8
SU
  6
CONTINUOUS
 62
     3
 10
-381.8600007224893
 20
46.897103285479339
 30
0.0
 11
-387.14000522248898
 21
46.897103285479339
 31
0.0
  0
LINE
  5
18B06
  8
SU
  6
CONTINUOUS
 62
     3
 10
-381.98000062248911
 20
47.097103085479347
 30
0.0
 11
-387.02000532248911
 21
47.097103085479347
 31
0.0
  0
LINE
  5
18B07
  8
SU
  6
CONTINUOUS
 62
     3
 10
-382.10000052248893
 20
47.29710288547934
 30
0.0
 11
-386.90000542248907
 21
47.29710288547934
 31
0.0
  0
LINE
  5
18B08
  8
SU
  6
CONTINUOUS
 62
     3
 10
-382.22000042248919
 20
47.497102685479348
 30
0.0
 11
-386.78000552248898
 21
47.497102685479348
 31
0.0
  0
LINE
  5
18B09
  8
SU
  6
CONTINUOUS
 62
     3
 10
-382.33999932248901
 20
47.697102485479348
 30
0.0
 11
-386.6600057224889
 21
47.697102485479348
 31
0.0
  0
LINE
  5
18B0A
  8
SU
  6
CONTINUOUS
 62
     3
 10
-382.4599992224891
 20
47.897102285479342
 30
0.0
 11
-386.54000582248892
 21
47.897102285479342
 31
0.0
  0
LINE
  5
18B0B
  8
SU
  6
CONTINUOUS
 62
     3
 10
-382.57999912248903
 20
48.097102085479357
 30
0.0
 11
-386.42000592248911
 21
48.097102085479357
 31
0.0
  0
LINE
  5
18B0C
  8
SU
  6
CONTINUOUS
 62
     3
 10
-382.6999989224891
 20
48.297101885479343
 30
0.0
 11
-386.3000060224889
 21
48.297101885479343
 31
0.0
  0
LINE
  5
18B0D
  8
SU
  6
CONTINUOUS
 62
     3
 10
-382.81999882248903
 20
48.497101685479358
 30
0.0
 11
-386.18000612248898
 21
48.497101685479358
 31
0.0
  0
LINE
  5
18B0E
  8
SU
  6
CONTINUOUS
 62
     3
 10
-382.93999872248918
 20
48.697101485479358
 30
0.0
 11
-386.06000622248911
 21
48.697101485479358
 31
0.0
  0
LINE
  5
18B0F
  8
SU
  6
CONTINUOUS
 62
     3
 10
-383.0599986224891
 20
48.897101385479338
 30
0.0
 11
-385.9400063224893
 21
48.897101385479338
 31
0.0
  0
LINE
  5
18B10
  8
SU
  6
CONTINUOUS
 62
     3
 10
-383.2999984224893
 20
49.297100985479361
 30
0.0
 11
-385.70000662248901
 21
49.297100985479361
 31
0.0
  0
LINE
  5
18B11
  8
SU
  6
CONTINUOUS
 62
     3
 10
-383.17999852248897
 20
49.097101185479339
 30
0.0
 11
-385.82000652248911
 21
49.097101185479339
 31
0.0
  0
LINE
  5
18B12
  8
SU
  6
CONTINUOUS
 62
     3
 10
-383.41999832248911
 20
49.49710078547934
 30
0.0
 11
-385.58000672248897
 21
49.49710078547934
 31
0.0
  0
LINE
  5
18B13
  8
SU
  6
CONTINUOUS
 62
     3
 10
-383.53999817248888
 20
49.697100585479348
 30
0.0
 11
-385.46000683248911
 21
49.697100585479348
 31
0.0
  0
LINE
  5
18B14
  8
SU
  6
CONTINUOUS
 62
     3
 10
-383.65999805248919
 20
49.897100385479362
 30
0.0
 11
-385.34000694248891
 21
49.897100385479362
 31
0.0
  0
LINE
  5
18B15
  8
SU
  6
CONTINUOUS
 62
     3
 10
-383.77999698248908
 20
50.097100185479341
 30
0.0
 11
-385.22000706248917
 21
50.097100185479341
 31
0.0
  0
LINE
  5
18B16
  8
SU
  6
CONTINUOUS
 62
     3
 10
-383.89999687248911
 20
50.297099985479363
 30
0.0
 11
-385.10000717248897
 21
50.297099985479363
 31
0.0
  0
LINE
  5
18B17
  8
SU
  6
CONTINUOUS
 62
     3
 10
-384.13999950248899
 20
50.69709962547936
 30
0.0
 11
-384.86000740248892
 21
50.69709962547936
 31
0.0
  0
LINE
  5
18B18
  8
SU
  6
CONTINUOUS
 62
     3
 10
-384.01999676248897
 20
50.497099815479338
 30
0.0
 11
-384.98000728248911
 21
50.497099815479338
 31
0.0
  0
LINE
  5
18B19
  8
SU
  6
CONTINUOUS
 62
     3
 10
-384.25999939248919
 20
50.897099425479347
 30
0.0
 11
-384.74000751248911
 21
50.897099425479347
 31
0.0
  0
LINE
  5
18B1A
  8
SU
  6
CONTINUOUS
 62
     3
 10
-384.5
 20
51.297112766452841
 30
0.0
 11
-390.5000019224891
 21
41.297108985479341
 31
0.0
  0
LINE
  5
18B1B
  8
SU
  6
CONTINUOUS
 62
     3
 10
-384.37999451248891
 20
51.097096375479339
 30
0.0
 11
-384.62000953248918
 21
51.097096375479353
 31
0.0
  0
LINE
  5
18B1C
  8
SU
  6
CONTINUOUS
 62
     3
 10
-384.50000208429719
 20
51.297108765630171
 30
0.0
 11
-378.5000063224893
 21
41.297108685479337
 31
0.0
  0
LINE
  5
18B1D
  8
SU
  6
CONTINUOUS
 62
     3
 10
-380.9000016224893
 20
45.297104785479362
 30
0.0
 11
-388.10000432248899
 21
45.297104785479362
 31
0.0
  0
LINE
  5
18B1E
  8
SU
  6
CONTINUOUS
 62
     3
 10
-380.78000172248909
 20
45.097104985479341
 30
0.0
 11
-388.22000422248919
 21
45.097104985479341
 31
0.0
  0
LINE
  5
18B1F
  8
SU
  6
CONTINUOUS
 62
     3
 10
-380.6600028224891
 20
44.89710518547934
 30
0.0
 11
-388.34000412248889
 21
44.89710518547934
 31
0.0
  0
LINE
  5
18B20
  8
SU
  6
CONTINUOUS
 62
     3
 10
-380.5400029224889
 20
44.697105385479347
 30
0.0
 11
-388.46000392248919
 21
44.697105385479347
 31
0.0
  0
LINE
  5
18B21
  8
SU
  6
CONTINUOUS
 62
     3
 10
-380.42000302248891
 20
44.497105485479352
 30
0.0
 11
-388.58000382248912
 21
44.497105485479352
 31
0.0
  0
LINE
  5
18B22
  8
SU
  6
CONTINUOUS
 62
     3
 10
-390.4999962
 20
-142.20288723538221
 30
0.0
 11
-378.5
 21
-142.20288723538221
 31
0.0
  0
LINE
  5
18B23
  8
SU
  6
CONTINUOUS
 62
     3
 10
-390.37999630000002
 20
-142.40288703538221
 30
0.0
 11
-378.61999989999993
 21
-142.40288703538221
 31
0.0
  0
LINE
  5
18B24
  8
SU
  6
CONTINUOUS
 62
     3
 10
-390.25999639999992
 20
-142.60288683538221
 30
0.0
 11
-378.73999979999991
 21
-142.60288683538221
 31
0.0
  0
LINE
  5
18B25
  8
SU
  6
CONTINUOUS
 62
     3
 10
-390.13999649999988
 20
-142.80288663538221
 30
0.0
 11
-378.85999969999989
 21
-142.80288663538221
 31
0.0
  0
LINE
  5
18B26
  8
SU
  6
CONTINUOUS
 62
     3
 10
-390.01999660000001
 20
-143.00288643538221
 30
0.0
 11
-378.97999949999991
 21
-143.00288643538221
 31
0.0
  0
LINE
  5
18B27
  8
SU
  6
CONTINUOUS
 62
     3
 10
-389.8999968
 20
-143.20288623538201
 30
0.0
 11
-379.09999939999989
 21
-143.20288623538201
 31
0.0
  0
LINE
  5
18B28
  8
SU
  6
CONTINUOUS
 62
     3
 10
-389.77999690000001
 20
-143.4028861353822
 30
0.0
 11
-379.21999929999998
 21
-143.4028861353822
 31
0.0
  0
LINE
  5
18B29
  8
SU
  6
CONTINUOUS
 62
     3
 10
-389.65999790000001
 20
-143.6028859353822
 30
0.0
 11
-379.3399991999998
 21
-143.6028859353822
 31
0.0
  0
LINE
  5
18B2A
  8
SU
  6
CONTINUOUS
 62
     3
 10
-389.53999809999999
 20
-143.80288573538201
 30
0.0
 11
-379.4599991
 21
-143.80288573538201
 31
0.0
  0
LINE
  5
18B2B
  8
SU
  6
CONTINUOUS
 62
     3
 10
-389.41999820000001
 20
-144.00288553538221
 30
0.0
 11
-379.57999899999987
 21
-144.00288553538221
 31
0.0
  0
LINE
  5
18B2C
  8
SU
  6
CONTINUOUS
 62
     3
 10
-389.29999829999991
 20
-144.20288533538221
 30
0.0
 11
-379.69999889999991
 21
-144.20288533538221
 31
0.0
  0
LINE
  5
18B2D
  8
SU
  6
CONTINUOUS
 62
     3
 10
-389.17999839999999
 20
-144.40288513538221
 30
0.0
 11
-379.81999869999993
 21
-144.40288513538221
 31
0.0
  0
LINE
  5
18B2E
  8
SU
  6
CONTINUOUS
 62
     3
 10
-389.05999850000001
 20
-144.60288493538221
 30
0.0
 11
-379.93999859999991
 21
-144.60288493538221
 31
0.0
  0
LINE
  5
18B2F
  8
SU
  6
CONTINUOUS
 62
     3
 10
-388.93999859999991
 20
-144.80288473538221
 30
0.0
 11
-380.05999850000001
 21
-144.80288473538221
 31
0.0
  0
LINE
  5
18B30
  8
SU
  6
CONTINUOUS
 62
     3
 10
-388.69999889999991
 20
-145.20288433538221
 30
0.0
 11
-380.29999829999991
 21
-145.20288433538221
 31
0.0
  0
LINE
  5
18B31
  8
SU
  6
CONTINUOUS
 62
     3
 10
-388.81999869999999
 20
-145.00288453538221
 30
0.0
 11
-380.17999839999999
 21
-145.00288453538221
 31
0.0
  0
LINE
  5
18B32
  8
SU
  6
CONTINUOUS
 62
     3
 10
-387.97999949999991
 20
-146.40288323538221
 30
0.0
 11
-381.01999760000001
 21
-146.40288323538221
 31
0.0
  0
LINE
  5
18B33
  8
SU
  6
CONTINUOUS
 62
     3
 10
-387.86000059999992
 20
-146.60288303538201
 30
0.0
 11
-381.13999749999999
 21
-146.60288303538201
 31
0.0
  0
LINE
  5
18B34
  8
SU
  6
CONTINUOUS
 62
     3
 10
-387.74000069999988
 20
-146.80288283538221
 30
0.0
 11
-381.25999739999992
 21
-146.80288283538221
 31
0.0
  0
LINE
  5
18B35
  8
SU
  6
CONTINUOUS
 62
     3
 10
-387.62000079999962
 20
-147.00288263538221
 30
0.0
 11
-381.37999730000001
 21
-147.00288263538221
 31
0.0
  0
LINE
  5
18B36
  8
SU
  6
CONTINUOUS
 62
     3
 10
-387.50000099999988
 20
-147.20288243538221
 30
0.0
 11
-381.49999709999992
 21
-147.20288243538221
 31
0.0
  0
LINE
  5
18B37
  8
SU
  6
CONTINUOUS
 62
     3
 10
-387.38000109999979
 20
-147.40288223538221
 30
0.0
 11
-381.61999699999961
 21
-147.40288223538221
 31
0.0
  0
LINE
  5
18B38
  8
SU
  6
CONTINUOUS
 62
     3
 10
-387.26000119999992
 20
-147.6028821353818
 30
0.0
 11
-381.73999689999999
 21
-147.6028821353818
 31
0.0
  0
LINE
  5
18B39
  8
SU
  6
CONTINUOUS
 62
     3
 10
-387.14000129999999
 20
-147.8028819353822
 30
0.0
 11
-381.85999679999998
 21
-147.8028819353822
 31
0.0
  0
LINE
  5
18B3A
  8
SU
  6
CONTINUOUS
 62
     3
 10
-387.02000139999979
 20
-148.0028817353822
 30
0.0
 11
-381.97999670000002
 21
-148.0028817353822
 31
0.0
  0
LINE
  5
18B3B
  8
SU
  6
CONTINUOUS
 62
     3
 10
-386.90000149999992
 20
-148.2028815353822
 30
0.0
 11
-382.0999966
 21
-148.2028815353822
 31
0.0
  0
LINE
  5
18B3C
  8
SU
  6
CONTINUOUS
 62
     3
 10
-386.78000159999988
 20
-148.40288133538201
 30
0.0
 11
-382.21999649999992
 21
-148.40288133538201
 31
0.0
  0
LINE
  5
18B3D
  8
SU
  6
CONTINUOUS
 62
     3
 10
-386.66000269999989
 20
-148.60288113538221
 30
0.0
 11
-382.33999629999988
 21
-148.60288113538221
 31
0.0
  0
LINE
  5
18B3E
  8
SU
  6
CONTINUOUS
 62
     3
 10
-386.54000280000002
 20
-148.80288093538221
 30
0.0
 11
-382.45999619999992
 21
-148.80288093538221
 31
0.0
  0
LINE
  5
18B3F
  8
SU
  6
CONTINUOUS
 62
     3
 10
-386.42000289999999
 20
-149.00288073538221
 30
0.0
 11
-382.57999610000002
 21
-149.00288073538221
 31
0.0
  0
LINE
  5
18B40
  8
SU
  6
CONTINUOUS
 62
     3
 10
-386.30000310000003
 20
-149.20288053538221
 30
0.0
 11
-382.699996
 21
-149.20288053538221
 31
0.0
  0
LINE
  5
18B41
  8
SU
  6
CONTINUOUS
 62
     3
 10
-386.18000319999999
 20
-149.40288033538201
 30
0.0
 11
-382.81999589999992
 21
-149.40288033538201
 31
0.0
  0
LINE
  5
18B42
  8
SU
  6
CONTINUOUS
 62
     3
 10
-386.06000329999989
 20
-149.60288013538221
 30
0.0
 11
-382.93999580000002
 21
-149.60288013538221
 31
0.0
  0
LINE
  5
18B43
  8
SU
  6
CONTINUOUS
 62
     3
 10
-385.94000340000002
 20
-149.8028800353822
 30
0.0
 11
-383.05999569999989
 21
-149.8028800353822
 31
0.0
  0
LINE
  5
18B44
  8
SU
  6
CONTINUOUS
 62
     3
 10
-385.70000359999989
 20
-150.2028796353822
 30
0.0
 11
-383.29999539999989
 21
-150.2028796353822
 31
0.0
  0
LINE
  5
18B45
  8
SU
  6
CONTINUOUS
 62
     3
 10
-385.82000349999993
 20
-150.0028798353822
 30
0.0
 11
-383.17999550000002
 21
-150.0028798353822
 31
0.0
  0
LINE
  5
18B46
  8
SU
  6
CONTINUOUS
 62
     3
 10
-385.58000370000002
 20
-150.40287943538181
 30
0.0
 11
-383.41999529999993
 21
-150.40287943538181
 31
0.0
  0
LINE
  5
18B47
  8
SU
  6
CONTINUOUS
 62
     3
 10
-385.46000385000002
 20
-150.6028792353822
 30
0.0
 11
-383.53999519000001
 21
-150.6028792353822
 31
0.0
  0
LINE
  5
18B48
  8
SU
  6
CONTINUOUS
 62
     3
 10
-385.34000396999988
 20
-150.8028790353822
 30
0.0
 11
-383.65999507999999
 21
-150.8028790353822
 31
0.0
  0
LINE
  5
18B49
  8
SU
  6
CONTINUOUS
 62
     3
 10
-385.22000503999999
 20
-151.00287883538221
 30
0.0
 11
-383.77999495999961
 21
-151.00287883538221
 31
0.0
  0
LINE
  5
18B4A
  8
SU
  6
CONTINUOUS
 62
     3
 10
-385.10000515000002
 20
-151.20287863538201
 30
0.0
 11
-383.89999484999993
 21
-151.20287863538201
 31
0.0
  0
LINE
  5
18B4B
  8
SU
  6
CONTINUOUS
 62
     3
 10
-384.86000251999991
 20
-151.6028782753821
 30
0.0
 11
-384.13999461999992
 21
-151.6028782753821
 31
0.0
  0
LINE
  5
18B4C
  8
SU
  6
CONTINUOUS
 62
     3
 10
-384.98000525999998
 20
-151.4028784653822
 30
0.0
 11
-384.01999474000002
 21
-151.4028784653822
 31
0.0
  0
LINE
  5
18B4D
  8
SU
  6
CONTINUOUS
 62
     3
 10
-384.74000262999988
 20
-151.8028780753821
 30
0.0
 11
-384.25999450999979
 21
-151.8028780753821
 31
0.0
  0
LINE
  5
18B4E
  8
SU
  6
CONTINUOUS
 62
     3
 10
-384.5000020224889
 20
-152.2028914163557
 30
0.0
 11
-378.50000009999991
 21
-142.20288763538201
 31
0.0
  0
LINE
  5
18B4F
  8
SU
  6
CONTINUOUS
 62
     3
 10
-384.62000750999999
 20
-152.00287502538211
 30
0.0
 11
-384.37999248999989
 21
-152.00287502538211
 31
0.0
  0
LINE
  5
18B50
  8
SU
  6
CONTINUOUS
 62
     3
 10
-384.49999993819188
 20
-152.20288741553301
 30
0.0
 11
-390.4999957
 21
-142.2028873353822
 31
0.0
  0
LINE
  5
18B51
  8
SU
  6
CONTINUOUS
 62
     3
 10
-388.1000004
 20
-146.2028834353822
 30
0.0
 11
-380.89999769999991
 21
-146.2028834353822
 31
0.0
  0
LINE
  5
18B52
  8
SU
  6
CONTINUOUS
 62
     3
 10
-388.22000029999992
 20
-146.0028836353822
 30
0.0
 11
-380.77999779999988
 21
-146.0028836353822
 31
0.0
  0
LINE
  5
18B53
  8
SU
  6
CONTINUOUS
 62
     3
 10
-388.33999919999991
 20
-145.8028838353822
 30
0.0
 11
-380.65999789999989
 21
-145.8028838353822
 31
0.0
  0
LINE
  5
18B54
  8
SU
  6
CONTINUOUS
 62
     3
 10
-388.45999909999989
 20
-145.602884035382
 30
0.0
 11
-380.53999809999988
 21
-145.602884035382
 31
0.0
  0
LINE
  5
18B55
  8
SU
  6
CONTINUOUS
 62
     3
 10
-388.57999899999987
 20
-145.40288413538201
 30
0.0
 11
-380.41999820000001
 21
-145.40288413538201
 31
0.0
  0
TEXT
  5
18B56
  8
SU
  6
CONTINUOUS
 62
     3
 10
-302.38372604992441
 20
19.066327324029729
 30
0.0
 40
4.0
  1
補強材（躯体）
 41
0.8299999999999999
  0
TEXT
  5
18B57
  8
SU
  6
CONTINUOUS
 62
     3
 10
-305.95667843087682
 20
12.39966065736307
 30
0.0
 40
4.0
  1
24×60mm以上
 41
0.8299999999999999
  0
LINE
  5
18B58
  8
SU
  6
CONTINUOUS
 62
     3
 10
-237.7072952219759
 20
51.297112766452628
 30
0.0
 11
-239.1802448384208
 21
49.377527453384637
 31
0.0
  0
LINE
  5
18B59
  8
SU
  6
CONTINUOUS
 62
     3
 10
-237.7072952219759
 20
51.297112766452628
 30
0.0
 11
-239.62740733803031
 21
49.823758919858641
 31
0.0
  0
LINE
  5
18B5A
  8
SU
  6
CONTINUOUS
 62
     3
 10
-365.5
 20
51.297112766452742
 30
0.0
 11
-387.5
 21
51.297112766452763
 31
0.0
  0
LINE
  5
18B5B
  8
SU
  6
CONTINUOUS
 62
     3
 10
-365.5
 20
-152.20288723538201
 30
0.0
 11
-387.5
 21
-152.20288723538201
 31
0.0
  0
LINE
  5
18B5C
  8
SU
  6
CONTINUOUS
 62
     3
 10
-384.5
 20
51.297112766452763
 30
0.0
 11
-384.5
 21
-152.20288723538201
 31
0.0
  0
LINE
  5
18B5D
  8
SU
  6
CONTINUOUS
 62
     3
 10
-223.4999999999998
 20
162.29711276461799
 30
0.0
 11
-223.4999999999998
 21
191.79711276645239
 31
0.0
  0
LINE
  5
18B5E
  8
SU
  6
CONTINUOUS
 62
     3
 10
-164.90000000183301
 20
98.79711276461785
 30
0.0
 11
-164.90000000183301
 21
191.79711276645239
 31
0.0
  0
LINE
  5
18B5F
  8
SU
  6
CONTINUOUS
 62
     3
 10
-223.4999999999998
 20
188.79711276645239
 30
0.0
 11
-164.90000000183301
 21
188.79711276645239
 31
0.0
  0
LINE
  5
18B60
  8
SU
  6
CONTINUOUS
 62
     3
 10
-353.5
 20
162.29711276461799
 30
0.0
 11
-353.5
 21
191.79711276645239
 31
0.0
  0
LINE
  5
18B61
  8
SU
  6
CONTINUOUS
 62
     3
 10
-223.4999999999998
 20
162.29711276461799
 30
0.0
 11
-223.4999999999998
 21
191.79711276645239
 31
0.0
  0
LINE
  5
18B62
  8
SU
  6
CONTINUOUS
 62
     3
 10
-353.5
 20
188.79711276645239
 30
0.0
 11
-223.4999999999998
 21
188.79711276645239
 31
0.0
  0
LINE
  5
18B63
  8
SU
  6
CONTINUOUS
 62
     3
 10
-223.4999999999998
 20
162.29711276461799
 30
0.0
 11
-223.4999999999998
 21
176.79711276645239
 31
0.0
  0
LINE
  5
18B64
  8
SU
  6
CONTINUOUS
 62
     3
 10
-186.50000000183351
 20
76.797112764618078
 30
0.0
 11
-186.50000000183351
 21
176.79711276645239
 31
0.0
  0
LINE
  5
18B65
  8
SU
  6
CONTINUOUS
 62
     3
 10
-223.4999999999998
 20
173.79711276645239
 30
0.0
 11
-186.50000000183351
 21
173.79711276645239
 31
0.0
  0
LINE
  5
18B66
  8
SU
  6
CONTINUOUS
 62
     3
 10
-235.9999999999998
 20
162.29711276461799
 30
0.0
 11
-235.9999999999998
 21
176.79711276645239
 31
0.0
  0
LINE
  5
18B67
  8
SU
  6
CONTINUOUS
 62
     3
 10
-223.4999999999998
 20
162.29711276461799
 30
0.0
 11
-223.4999999999998
 21
176.79711276645239
 31
0.0
  0
LINE
  5
18B68
  8
SU
  6
CONTINUOUS
 62
     3
 10
-235.9999999999998
 20
173.79711276645239
 30
0.0
 11
-223.4999999999998
 21
173.79711276645239
 31
0.0
  0
LINE
  5
18B69
  8
SU
  6
CONTINUOUS
 62
     3
 10
-341.0
 20
162.29711276461799
 30
0.0
 11
-341.0
 21
176.79711276645239
 31
0.0
  0
LINE
  5
18B6A
  8
SU
  6
CONTINUOUS
 62
     3
 10
-235.9999999999998
 20
162.29711276461799
 30
0.0
 11
-235.9999999999998
 21
176.79711276645239
 31
0.0
  0
LINE
  5
18B6B
  8
SU
  6
CONTINUOUS
 62
     3
 10
-341.0
 20
173.79711276645239
 30
0.0
 11
-235.9999999999998
 21
173.79711276645239
 31
0.0
  0
LINE
  5
18B6C
  8
SU
  6
CONTINUOUS
 62
     3
 10
-341.0
 20
162.29711276461799
 30
0.0
 11
-341.0
 21
176.79711276645239
 31
0.0
  0
LINE
  5
18B6D
  8
SU
  6
CONTINUOUS
 62
     3
 10
-353.5
 20
162.29711276461799
 30
0.0
 11
-353.5
 21
176.79711276645239
 31
0.0
  0
LINE
  5
18B6E
  8
SU
  6
CONTINUOUS
 62
     3
 10
-341.0
 20
173.79711276645239
 30
0.0
 11
-353.5
 21
173.79711276645239
 31
0.0
  0
LINE
  5
18B6F
  8
SU
  6
CONTINUOUS
 62
     3
 10
-201.50000000183371
 20
51.297112764604222
 30
0.0
 11
-201.50000000183371
 21
4.2971127664527531
 31
0.0
  0
LINE
  5
18B70
  8
SU
  6
CONTINUOUS
 62
     3
 10
-212.5
 20
50.297112766452763
 30
0.0
 11
-212.5
 21
4.2971127664527531
 31
0.0
  0
LINE
  5
18B71
  8
SU
  6
CONTINUOUS
 62
     3
 10
-201.50000000183371
 20
7.2971127664527584
 30
0.0
 11
-212.5
 21
7.2971127664527584
 31
0.0
  0
LINE
  5
18B72
  8
SU
  6
CONTINUOUS
 62
     3
 10
-212.5
 20
7.2971127664527584
 30
0.0
 11
-238.7420114845178
 21
7.2971127664527584
 31
0.0
  0
LINE
  5
18B73
  8
SU
  6
CONTINUOUS
 62
     3
 10
-171.5000000018338
 20
51.29711276459556
 30
0.0
 11
-171.5000000018338
 21
4.2971127664527531
 31
0.0
  0
LINE
  5
18B74
  8
SU
  6
CONTINUOUS
 62
     3
 10
-201.50000000183371
 20
51.297112764604222
 30
0.0
 11
-201.50000000183371
 21
4.2971127664527531
 31
0.0
  0
LINE
  5
18B75
  8
SU
  6
CONTINUOUS
 62
     3
 10
-171.5000000018338
 20
7.2971127664527584
 30
0.0
 11
-201.50000000183371
 21
7.2971127664527584
 31
0.0
  0
LINE
  5
18B76
  8
SU
  6
CONTINUOUS
 62
     3
 10
-171.5000000018338
 20
51.29711276459556
 30
0.0
 11
-171.5000000018338
 21
4.2971127664527531
 31
0.0
  0
LINE
  5
18B77
  8
SU
  6
CONTINUOUS
 62
     3
 10
-164.90000000183321
 20
46.797112764617623
 30
0.0
 11
-164.90000000183321
 21
4.2971127664527531
 31
0.0
  0
LINE
  5
18B78
  8
SU
  6
CONTINUOUS
 62
     3
 10
-171.5000000018338
 20
7.2971127664527584
 30
0.0
 11
-164.90000000183321
 21
7.2971127664527584
 31
0.0
  0
LINE
  5
18B79
  8
SU
  6
CONTINUOUS
 62
     3
 10
-164.90000000183321
 20
7.2971127664527584
 30
0.0
 11
-153.1019047637383
 21
7.2971127664527584
 31
0.0
  0
LINE
  5
18B7A
  8
SU
  6
CONTINUOUS
 62
     3
 10
-170.5000000018338
 20
-142.2028872354044
 30
0.0
 11
-126.9000000018335
 21
-142.2028872354044
 31
0.0
  0
LINE
  5
18B7B
  8
SU
  6
CONTINUOUS
 62
     3
 10
-170.5000000018338
 20
52.297112764595568
 30
0.0
 11
-126.9000000018334
 21
52.297112764595568
 31
0.0
  0
LINE
  5
18B7C
  8
SU
  6
CONTINUOUS
 62
     3
 10
-129.9000000018334
 20
-142.2028872354044
 30
0.0
 11
-129.9000000018334
 21
52.297112764595568
 31
0.0
  0
LINE
  5
18B7D
  8
SU
  6
CONTINUOUS
 62
     3
 10
-151.0
 20
-152.20288723538201
 30
0.0
 11
-126.9000000018334
 21
-152.20288723538201
 31
0.0
  0
LINE
  5
18B7E
  8
SU
  6
CONTINUOUS
 62
     3
 10
-170.5000000018338
 20
-142.2028872354044
 30
0.0
 11
-126.9000000018334
 21
-142.2028872354044
 31
0.0
  0
LINE
  5
18B7F
  8
SU
  6
CONTINUOUS
 62
     3
 10
-129.9000000018334
 20
-152.20288723538201
 30
0.0
 11
-129.9000000018334
 21
-142.2028872354044
 31
0.0
  0
LINE
  5
18B80
  8
SU
  6
CONTINUOUS
 62
     3
 10
-163.90000000183301
 20
97.79711276461785
 30
0.0
 11
-96.900000001833433
 21
97.79711276461785
 31
0.0
  0
LINE
  5
18B81
  8
SU
  6
CONTINUOUS
 62
     3
 10
-151.0
 20
-152.20288723538201
 30
0.0
 11
-96.900000001833476
 21
-152.20288723538201
 31
0.0
  0
LINE
  5
18B82
  8
SU
  6
CONTINUOUS
 62
     3
 10
-99.900000001833433
 20
97.79711276461785
 30
0.0
 11
-99.900000001833476
 21
-152.20288723538201
 31
0.0
  0
LINE
  5
18B83
  8
SU
  6
CONTINUOUS
 62
     3
 10
-163.90000000183301
 20
97.79711276461785
 30
0.0
 11
-111.90000000183331
 21
97.79711276461785
 31
0.0
  0
LINE
  5
18B84
  8
SU
  6
CONTINUOUS
 62
     3
 10
-163.90000000183301
 20
47.797112764617601
 30
0.0
 11
-111.90000000183331
 21
47.797112764617601
 31
0.0
  0
LINE
  5
18B85
  8
SU
  6
CONTINUOUS
 62
     3
 10
-114.9000000018334
 20
97.79711276461785
 30
0.0
 11
-114.9000000018334
 21
47.797112764617601
 31
0.0
  0
LINE
  5
18B86
  8
SU
  6
CONTINUOUS
 62
     3
 10
-171.5000000018338
 20
59.797112764618078
 30
0.0
 11
-126.9000000018334
 21
59.79711276461807
 31
0.0
  0
LINE
  5
18B87
  8
SU
  6
CONTINUOUS
 62
     3
 10
-163.90000000183301
 20
97.79711276461785
 30
0.0
 11
-126.9000000018334
 21
97.79711276461785
 31
0.0
  0
LINE
  5
18B88
  8
SU
  6
CONTINUOUS
 62
     3
 10
-129.9000000018334
 20
59.79711276461807
 30
0.0
 11
-129.9000000018334
 21
97.79711276461785
 31
0.0
  0
LINE
  5
18B89
  8
SU
  6
CONTINUOUS
 62
     3
 10
-170.5000000018338
 20
52.297112764595568
 30
0.0
 11
-126.9000000018334
 21
52.297112764595568
 31
0.0
  0
LINE
  5
18B8A
  8
SU
  6
CONTINUOUS
 62
     3
 10
-171.5000000018338
 20
59.797112764618078
 30
0.0
 11
-126.9000000018334
 21
59.79711276461807
 31
0.0
  0
LINE
  5
18B8B
  8
SU
  6
CONTINUOUS
 62
     3
 10
-129.9000000018334
 20
52.297112764595568
 30
0.0
 11
-129.9000000018334
 21
59.79711276461807
 31
0.0
  0
LINE
  5
18B8C
  8
SU
  6
CONTINUOUS
 62
     3
 10
-129.9000000018334
 20
56.047112764606808
 30
0.0
 11
-144.9000000018334
 21
65.802551604980138
 31
0.0
  0
LINE
  5
18B8D
  8
SU
  6
CONTINUOUS
 62
     3
 10
-144.9000000018334
 20
65.802551604980138
 30
0.0
 11
-144.9000000018334
 21
75.358742081170632
 31
0.0
  0
LINE
  5
18B8E
  8
SU
  6
CONTINUOUS
 62
     3
 10
-170.5000000018338
 20
52.297112764595568
 30
0.0
 11
-141.9000000018334
 21
52.297112764595568
 31
0.0
  0
LINE
  5
18B8F
  8
SU
  6
CONTINUOUS
 62
     3
 10
-163.9000000018334
 20
47.797112764617601
 30
0.0
 11
-141.9000000018334
 21
47.797112764617601
 31
0.0
  0
LINE
  5
18B90
  8
SU
  6
CONTINUOUS
 62
     3
 10
-144.9000000018334
 20
52.297112764595568
 30
0.0
 11
-144.9000000018334
 21
47.797112764617601
 31
0.0
  0
LINE
  5
18B91
  8
SU
  6
CONTINUOUS
 62
     3
 10
-144.9000000018334
 20
47.797112764617601
 30
0.0
 11
-144.9000000018334
 21
35.84092228842713
 31
0.0
  0
LINE
  5
18B92
  8
OS
  6
CONTINUOUS
 62
     2
 10
128.1555465109698
 20
-86.835959097242906
 30
0.0
 11
50.471980455984671
 21
-86.835959097242835
 31
0.0
  0
LINE
  5
18B93
  8
OS
  6
CONTINUOUS
 62
     2
 10
50.471980455984671
 20
-88.835959097242721
 30
0.0
 11
128.1555465109698
 21
-88.835959097242764
 31
0.0
  0
LINE
  5
18B94
  8
OS
  6
CONTINUOUS
 62
     2
 10
128.1555465109698
 20
-78.335959097242906
 30
0.0
 11
50.471980455984671
 21
-78.335959097242835
 31
0.0
  0
LINE
  5
18B95
  8
OS
  6
CONTINUOUS
 62
     2
 10
128.1555465109698
 20
-76.335959097242835
 30
0.0
 11
50.471980455984671
 21
-76.335959097242835
 31
0.0
  0
LINE
  5
18B96
  8
OS
  6
CONTINUOUS
 62
     2
 10
128.1555465109698
 20
28.664040902757151
 30
0.0
 11
50.471980455984671
 21
28.664040902757151
 31
0.0
  0
LINE
  5
18B97
  8
OS
  6
CONTINUOUS
 62
     2
 10
128.1555465109698
 20
30.664040902757161
 30
0.0
 11
50.471980455984671
 21
30.664040902757161
 31
0.0
  0
LINE
  5
18B98
  8
OS
  6
CONTINUOUS
 62
     2
 10
128.1555465109698
 20
39.164040902757151
 30
0.0
 11
50.471980455984671
 21
39.164040902757151
 31
0.0
  0
LINE
  5
18B99
  8
OS
  6
CONTINUOUS
 62
     2
 10
128.1555465109698
 20
41.164040902757151
 30
0.0
 11
50.471980455984671
 21
41.164040902757151
 31
0.0
  0
LINE
  5
18B9A
  8
OS
  6
CONTINUOUS
 62
     2
 10
50.471980455984628
 20
-3.652393042257529
 30
0.0
 11
123.1555465109699
 21
-76.335959097242835
 31
0.0
  0
LINE
  5
18B9B
  8
OS
  6
CONTINUOUS
 62
     2
 10
50.471980455984671
 20
-44.019525152228077
 30
0.0
 11
123.1555465109699
 21
28.664040902757151
 31
0.0
  0
LINE
  5
18B9C
  8
OS
  6
CONTINUOUS
 62
     2
 10
128.15554651096991
 20
28.664040902757272
 30
0.0
 11
123.1555465109699
 21
-76.335959097242721
 31
0.0
  0
LINE
  5
18B9D
  8
OS
  6
CONTINUOUS
 62
     2
 10
123.1555465109699
 20
-76.335959097242721
 30
0.0
 11
123.1555465109699
 21
28.664040902757272
 31
0.0
  0
LINE
  5
18B9E
  8
OS
  6
CONTINUOUS
 62
     2
 10
48.471980455984657
 20
-76.335959097242835
 30
0.0
 11
-39.695639746567878
 21
-76.335959097242835
 31
0.0
  0
LINE
  5
18B9F
  8
OS
  6
CONTINUOUS
 62
     2
 10
48.471980455984657
 20
-78.335959097242835
 30
0.0
 11
-39.695639746567878
 21
-78.335959097242835
 31
0.0
  0
LINE
  5
18BA0
  8
OS
  6
CONTINUOUS
 62
     2
 10
48.471980455984657
 20
-86.835959097242835
 30
0.0
 11
-39.695639746567878
 21
-86.835959097242835
 31
0.0
  0
LINE
  5
18BA1
  8
OS
  6
CONTINUOUS
 62
     2
 10
-39.695639746567878
 20
-88.835959097242721
 30
0.0
 11
48.471980455984657
 21
-88.835959097242721
 31
0.0
  0
LINE
  5
18BA2
  8
OS
  6
CONTINUOUS
 62
     2
 10
48.471980455984657
 20
30.664040902757161
 30
0.0
 11
-39.695639746567878
 21
30.664040902757161
 31
0.0
  0
LINE
  5
18BA3
  8
OS
  6
CONTINUOUS
 62
     2
 10
48.471980455984657
 20
28.664040902757151
 30
0.0
 11
-39.695639746567878
 21
28.664040902757151
 31
0.0
  0
LINE
  5
18BA4
  8
OS
  6
CONTINUOUS
 62
     2
 10
48.471980455984657
 20
39.164040902757151
 30
0.0
 11
-39.695639746567878
 21
39.164040902757151
 31
0.0
  0
LINE
  5
18BA5
  8
OS
  6
CONTINUOUS
 62
     2
 10
48.471980455984657
 20
41.164040902757151
 30
0.0
 11
-39.695639746567878
 21
41.164040902757151
 31
0.0
  0
LINE
  5
18BA6
  8
OS
  6
CONTINUOUS
 62
     2
 10
-247.5
 20
51.297112766452742
 30
0.0
 11
-247.5
 21
111.2971127664527
 31
0.0
  0
LINE
  5
18BA7
  8
OS
  6
CONTINUOUS
 62
     2
 10
-223.5000000000002
 20
111.2971127664527
 30
0.0
 11
-247.5
 21
111.2971127664527
 31
0.0
  0
LINE
  5
18BA8
  8
OS
  6
CONTINUOUS
 62
     2
 10
-235.9999999999998
 20
53.297112766452628
 30
0.0
 11
-340.99999999999972
 21
53.297112766452628
 31
0.0
  0
LINE
  5
18BA9
  8
OS
  6
CONTINUOUS
 62
     2
 10
-353.5
 20
51.297112766452742
 30
0.0
 11
-353.5
 21
161.29711276461791
 31
0.0
  0
LINE
  5
18BAA
  8
OS
  6
CONTINUOUS
 62
     2
 10
-236.0000000000004
 20
153.79711276645239
 30
0.0
 11
-341.0
 21
108.7971127664526
 31
0.0
  0
LINE
  5
18BAB
  8
OS
  6
CONTINUOUS
 62
     2
 10
-341.00000000000023
 20
51.297112766452628
 30
0.0
 11
-341.0
 21
161.29711276461791
 31
0.0
  0
LINE
  5
18BAC
  8
OS
  6
CONTINUOUS
 62
     2
 10
-351.50000000000023
 20
51.297112766452628
 30
0.0
 11
-351.5
 21
161.29711276461791
 31
0.0
  0
LINE
  5
18BAD
  8
OS
  6
CONTINUOUS
 62
     2
 10
-343.00000000000023
 20
51.297112766452628
 30
0.0
 11
-343.0
 21
161.29711276461791
 31
0.0
  0
LINE
  5
18BAE
  8
OS
  6
CONTINUOUS
 62
     2
 10
-236.0000000000004
 20
108.7971127664526
 30
0.0
 11
-341.0
 21
108.7971127664526
 31
0.0
  0
LINE
  5
18BAF
  8
OS
  6
CONTINUOUS
 62
     2
 10
-236.0000000000002
 20
61.797112766452642
 30
0.0
 11
-340.99999999999972
 21
61.797112766452642
 31
0.0
  0
LINE
  5
18BB0
  8
OS
  6
CONTINUOUS
 62
     2
 10
-236.0000000000002
 20
63.797112766452628
 30
0.0
 11
-340.99999999999972
 21
63.797112766452628
 31
0.0
  0
LINE
  5
18BB1
  8
OS
  6
CONTINUOUS
 62
     2
 10
-236.0000000000004
 20
108.7971127664526
 30
0.0
 11
-341.0
 21
63.797112766452628
 31
0.0
  0
LINE
  5
18BB2
  8
OS
  6
CONTINUOUS
 62
     2
 10
-236.0000000000004
 20
153.79711276645239
 30
0.0
 11
-341.0
 21
153.79711276645239
 31
0.0
  0
LINE
  5
18BB3
  8
OS
  6
CONTINUOUS
 62
     2
 10
-223.4999999999998
 20
51.297112766452742
 30
0.0
 11
-223.4999999999998
 21
161.29711276461791
 31
0.0
  0
LINE
  5
18BB4
  8
OS
  6
CONTINUOUS
 62
     2
 10
-235.9999999999998
 20
51.297112766452628
 30
0.0
 11
-235.9999999999998
 21
161.29711276461791
 31
0.0
  0
LINE
  5
18BB5
  8
OS
  6
CONTINUOUS
 62
     2
 10
-233.9999999999998
 20
51.297112766452628
 30
0.0
 11
-233.9999999999998
 21
161.29711276461791
 31
0.0
  0
LINE
  5
18BB6
  8
OS
  6
CONTINUOUS
 62
     2
 10
-225.49999999999989
 20
51.297112766452628
 30
0.0
 11
-225.49999999999989
 21
161.29711276461791
 31
0.0
  0
LINE
  5
18BB7
  8
OS
  6
CONTINUOUS
 62
     2
 10
-152.0
 20
-161.20288723538221
 30
0.0
 11
-410.0
 21
-161.20288723538221
 31
0.0
  0
LINE
  5
18BB8
  8
OS
  6
CONTINUOUS
 62
     2
 10
-152.0
 20
-158.20288723538221
 30
0.0
 11
-410.0
 21
-158.20288723538221
 31
0.0
  0
LINE
  5
18BB9
  8
OS
  6
CONTINUOUS
 62
     2
 10
-152.0
 20
-155.20288723538221
 30
0.0
 11
-410.0
 21
-155.20288723538221
 31
0.0
  0
LINE
  5
18BBA
  8
OS
  6
CONTINUOUS
 62
     2
 10
-152.0
 20
-164.20288723538221
 30
0.0
 11
-410.0
 21
-164.20288723538221
 31
0.0
  0
LINE
  5
18BBB
  8
OS
  6
CONTINUOUS
 62
     2
 10
-152.0
 20
-152.20288723538201
 30
0.0
 11
-410.0
 21
-152.20288723538201
 31
0.0
  0
LINE
  5
18BBC
  8
OS
  6
CONTINUOUS
 62
     2
 10
311.30436025343403
 20
-76.335959097242835
 30
0.0
 11
388.98792630841911
 21
-76.335959097242835
 31
0.0
  0
LINE
  5
18BBD
  8
OS
  6
CONTINUOUS
 62
     2
 10
311.30436025343403
 20
-78.335959097242835
 30
0.0
 11
388.98792630841911
 21
-78.335959097242835
 31
0.0
  0
LINE
  5
18BBE
  8
OS
  6
CONTINUOUS
 62
     2
 10
311.30436025343403
 20
-86.835959097242835
 30
0.0
 11
388.98792630841911
 21
-86.835959097242835
 31
0.0
  0
LINE
  5
18BBF
  8
OS
  6
CONTINUOUS
 62
     2
 10
311.30436025343403
 20
-88.835959097242835
 30
0.0
 11
388.98792630841911
 21
-88.835959097242835
 31
0.0
  0
LINE
  5
18BC0
  8
OS
  6
CONTINUOUS
 62
     2
 10
388.98792630841911
 20
-3.6523930422575841
 30
0.0
 11
316.30436025343403
 21
-76.335959097242835
 31
0.0
  0
LINE
  5
18BC1
  8
OS
  6
CONTINUOUS
 62
     2
 10
388.98792630841911
 20
-44.019525152228077
 30
0.0
 11
316.30436025343403
 21
28.664040902757151
 31
0.0
  0
LINE
  5
18BC2
  8
OS
  6
CONTINUOUS
 62
     2
 10
311.30436025343403
 20
41.164040902757151
 30
0.0
 11
388.98792630841911
 21
41.164040902757151
 31
0.0
  0
LINE
  5
18BC3
  8
OS
  6
CONTINUOUS
 62
     2
 10
311.30436025343403
 20
39.164040902757151
 30
0.0
 11
388.98792630841911
 21
39.164040902757151
 31
0.0
  0
LINE
  5
18BC4
  8
OS
  6
CONTINUOUS
 62
     2
 10
311.30436025343403
 20
30.664040902757279
 30
0.0
 11
388.98792630841911
 21
30.664040902757161
 31
0.0
  0
LINE
  5
18BC5
  8
OS
  6
CONTINUOUS
 62
     2
 10
311.30436025343403
 20
28.664040902757272
 30
0.0
 11
388.98792630841911
 21
28.664040902757151
 31
0.0
  0
LINE
  5
18BC6
  8
OS
  6
CONTINUOUS
 62
     2
 10
316.30436025343403
 20
28.664040902757151
 30
0.0
 11
311.30436025343403
 21
-76.335959097242835
 31
0.0
  0
LINE
  5
18BC7
  8
OS
  6
CONTINUOUS
 62
     2
 10
316.30436025343403
 20
-76.335959097242835
 30
0.0
 11
316.30436025343403
 21
28.664040902757272
 31
0.0
  0
LINE
  5
18BC8
  8
OS
  6
CONTINUOUS
 62
     2
 10
311.30436025343403
 20
-88.835959097242721
 30
0.0
 11
311.30436025343403
 21
41.164040902757279
 31
0.0
  0
ARC
  5
18BC9
  8
KI
  6
DASHED2
 62
     7
 10
283.30436025343391
 20
-125.83595909898931
 30
0.0
 40
9.0
 50
285.76970162175297
 51
74.230298378247056
  0
LINE
  5
18BCA
  8
KI
  6
CONTINUOUS
 62
     7
 10
263.80436025343391
 20
-105.83595909898921
 30
0.0
 11
302.80436025343391
 21
-105.83595909898931
 31
0.0
  0
LINE
  5
18BCB
  8
KI
  6
CONTINUOUS
 62
     7
 10
302.80436025343391
 20
-145.83595909898901
 30
0.0
 11
263.80436025343391
 21
-145.83595909898901
 31
0.0
  0
LINE
  5
18BCC
  8
KI
  6
CONTINUOUS
 62
     7
 10
303.30436025343391
 20
-145.33595909898901
 30
0.0
 11
303.30436025343391
 21
-140.83595909898131
 31
0.0
  0
ARC
  5
18BCD
  8
KI
  6
CONTINUOUS
 62
     7
 10
302.80436025343391
 20
-106.33595909898931
 30
0.0
 40
0.5
 50
0.0
 51
90.0
  0
LINE
  5
18BCE
  8
KI
  6
DASHED2
 62
     7
 10
297.05436025343391
 20
-118.58595909898921
 30
0.0
 11
294.55436025343391
 21
-118.58595909898921
 31
0.0
1001
GENIUS_GENODEF_13
1002
{
1000
HIER
1070
     0
1002
}
1002
{
1000
MANEDIT
1070
     0
1002
}
1002
{
1000
NOSEL
1070
     0
1002
}
1002
{
1000
BEHIND
1070
     0
1002
}
1002
{
1000
OTHER
1070
     0
1002
}
1002
{
1000
REACTOR
1002
}
1001
GENIUS_GENOBJ-N-CEN_13
1002
{
1000
OWNER
1000
GEN
1002
}
  0
ARC
  5
18BCF
  8
KI
  6
DASHED2
 62
     7
 10
294.55436025343391
 20
-116.83595909898921
 30
0.0
 40
1.75
 50
90.0
 51
270.0
  0
LINE
  5
18BD0
  8
KI
  6
DASHED2
 62
     7
 10
297.05436025343391
 20
-115.08595909898879
 30
0.0
 11
294.55436025343391
 21
-115.08595909898879
 31
0.0
1001
GENIUS_GENODEF_13
1002
{
1000
HIER
1070
     0
1002
}
1002
{
1000
MANEDIT
1070
     0
1002
}
1002
{
1000
NOSEL
1070
     0
1002
}
1002
{
1000
BEHIND
1070
     0
1002
}
1002
{
1000
OTHER
1070
     0
1002
}
1002
{
1000
REACTOR
1002
}
1001
GENIUS_GENOBJ-N-CEN_13
1002
{
1000
OWNER
1000
GEN
1002
}
  0
ARC
  5
18BD1
  8
KI
  6
DASHED2
 62
     7
 10
297.05436025343391
 20
-116.83595909898921
 30
0.0
 40
1.75
 50
270.0
 51
90.0
  0
ARC
  5
18BD2
  8
KI
  6
DASHED2
 62
     7
 10
294.55436025343391
 20
-134.83595909898901
 30
0.0
 40
1.75
 50
90.0
 51
270.0
  0
ARC
  5
18BD3
  8
KI
  6
DASHED2
 62
     7
 10
297.05436025343391
 20
-134.83595909898901
 30
0.0
 40
1.75
 50
270.0
 51
90.0
  0
LINE
  5
18BD4
  8
KI
  6
DASHED2
 62
     7
 10
297.05436025343391
 20
-133.08595909898921
 30
0.0
 11
294.55436025343391
 21
-133.08595909898921
 31
0.0
1001
GENIUS_GENODEF_13
1002
{
1000
HIER
1070
     0
1002
}
1002
{
1000
MANEDIT
1070
     0
1002
}
1002
{
1000
NOSEL
1070
     0
1002
}
1002
{
1000
BEHIND
1070
     0
1002
}
1002
{
1000
OTHER
1070
     0
1002
}
1002
{
1000
REACTOR
1002
}
1001
GENIUS_GENOBJ-N-CEN_13
1002
{
1000
OWNER
1000
GEN
1002
}
  0
LINE
  5
18BD5
  8
KI
  6
DASHED2
 62
     7
 10
297.05436025343391
 20
-136.58595909898921
 30
0.0
 11
294.55436025343391
 21
-136.58595909898921
 31
0.0
1001
GENIUS_GENODEF_13
1002
{
1000
HIER
1070
     0
1002
}
1002
{
1000
MANEDIT
1070
     0
1002
}
1002
{
1000
NOSEL
1070
     0
1002
}
1002
{
1000
BEHIND
1070
     0
1002
}
1002
{
1000
OTHER
1070
     0
1002
}
1002
{
1000
REACTOR
1002
}
1001
GENIUS_GENOBJ-N-CEN_13
1002
{
1000
OWNER
1000
GEN
1002
}
  0
ARC
  5
18BD6
  8
KI
  6
CONTINUOUS
 62
     7
 10
302.80436025343391
 20
-145.33595909898901
 30
0.0
 40
0.5
 50
270.0
 51
0.0
  0
LINE
  5
18BD7
  8
KI
  6
CONTINUOUS
 62
     7
 10
263.30436025343391
 20
-145.33595909898901
 30
0.0
 11
263.30436025343403
 21
-140.83595909898889
 31
0.0
  0
LINE
  5
18BD8
  8
KI
  6
DASHED2
 62
     7
 10
263.30436025343391
 20
-110.83595909898921
 30
0.0
 11
285.75030269058033
 21
-117.1747025161274
 31
0.0
  0
ARC
  5
18BD9
  8
KI
  6
CONTINUOUS
 62
     7
 10
288.30436025343482
 20
-111.33595909898951
 30
0.0
 40
1.75
 50
359.99999999999329
 51
179.99999999999341
  0
LINE
  5
18BDA
  8
KI
  6
DASHED2
 62
     7
 10
290.05436025343482
 20
-111.3359590989896
 30
0.0
 11
290.0543602534346
 21
-113.8359590989896
 31
0.0
1001
GENIUS_GENODEF_13
1002
{
1000
HIER
1070
     0
1002
}
1002
{
1000
MANEDIT
1070
     0
1002
}
1002
{
1000
NOSEL
1070
     0
1002
}
1002
{
1000
BEHIND
1070
     0
1002
}
1002
{
1000
OTHER
1070
     0
1002
}
1002
{
1000
REACTOR
1002
}
1001
GENIUS_GENOBJ-N-CEN_13
1002
{
1000
OWNER
1000
GEN
1002
}
  0
LINE
  5
18BDB
  8
KI
  6
DASHED2
 62
     7
 10
286.55436025343482
 20
-111.33595909898941
 30
0.0
 11
286.5543602534346
 21
-113.83595909898941
 31
0.0
1001
GENIUS_GENODEF_13
1002
{
1000
HIER
1070
     0
1002
}
1002
{
1000
MANEDIT
1070
     0
1002
}
1002
{
1000
NOSEL
1070
     0
1002
}
1002
{
1000
BEHIND
1070
     0
1002
}
1002
{
1000
OTHER
1070
     0
1002
}
1002
{
1000
REACTOR
1002
}
1001
GENIUS_GENOBJ-N-CEN_13
1002
{
1000
OWNER
1000
GEN
1002
}
  0
ARC
  5
18BDC
  8
KI
  6
DASHED2
 62
     7
 10
288.30436025343471
 20
-113.83595909898951
 30
0.0
 40
1.75
 50
179.99999999999341
 51
359.99999999999329
  0
ARC
  5
18BDD
  8
KI
  6
CONTINUOUS
 62
     7
 10
263.80436025343391
 20
-106.33595909898921
 30
0.0
 40
0.5
 50
90.0
 51
180.0
  0
LINE
  5
18BDE
  8
KI
  6
DASHED2
 62
     7
 10
263.30436025343391
 20
-140.83595909898901
 30
0.0
 11
285.75030269058033
 21
-134.497215681851
 31
0.0
  0
LINE
  5
18BDF
  8
KI
  6
DASHED2
 62
     7
 10
290.05436025343408
 20
-140.33595909898921
 30
0.0
 11
290.05436025343408
 21
-137.83595909898921
 31
0.0
1001
GENIUS_GENODEF_13
1002
{
1000
HIER
1070
     0
1002
}
1002
{
1000
MANEDIT
1070
     0
1002
}
1002
{
1000
NOSEL
1070
     0
1002
}
1002
{
1000
BEHIND
1070
     0
1002
}
1002
{
1000
OTHER
1070
     0
1002
}
1002
{
1000
REACTOR
1002
}
1001
GENIUS_GENOBJ-N-CEN_13
1002
{
1000
OWNER
1000
GEN
1002
}
  0
LINE
  5
18BE0
  8
KI
  6
DASHED2
 62
     7
 10
286.55436025343403
 20
-140.33595909898921
 30
0.0
 11
286.55436025343403
 21
-137.83595909898921
 31
0.0
1001
GENIUS_GENODEF_13
1002
{
1000
HIER
1070
     0
1002
}
1002
{
1000
MANEDIT
1070
     0
1002
}
1002
{
1000
NOSEL
1070
     0
1002
}
1002
{
1000
BEHIND
1070
     0
1002
}
1002
{
1000
OTHER
1070
     0
1002
}
1002
{
1000
REACTOR
1002
}
1001
GENIUS_GENOBJ-N-CEN_13
1002
{
1000
OWNER
1000
GEN
1002
}
  0
ARC
  5
18BE1
  8
KI
  6
DASHED2
 62
     7
 10
288.30436025343403
 20
-137.83595909898941
 30
0.0
 40
1.75
 50
0.0
 51
180.0
  0
ARC
  5
18BE2
  8
KI
  6
CONTINUOUS
 62
     7
 10
288.30436025343403
 20
-140.33595909898941
 30
0.0
 40
1.75
 50
180.0
 51
0.0
  0
ARC
  5
18BE3
  8
KI
  6
CONTINUOUS
 62
     7
 10
263.80436025343391
 20
-145.33595909898901
 30
0.0
 40
0.5
 50
180.0
 51
270.0
  0
LINE
  5
18BE4
  8
KI
  6
CONTINUOUS
 62
     7
 10
263.30436025343403
 20
-110.83595909898921
 30
0.0
 11
263.30436025343391
 21
-106.33595909898921
 31
0.0
  0
LINE
  5
18BE5
  8
KI
  6
CONTINUOUS
 62
     7
 10
303.30436025343391
 20
-110.83595909899699
 30
0.0
 11
303.30436025343391
 21
-106.33595909898931
 31
0.0
  0
LINE
  5
18BE6
  8
KI
  6
DASHED2
 62
     7
 10
263.30436025343391
 20
-140.83595909898901
 30
0.0
 11
263.30436025343391
 21
-110.83595909898921
 31
0.0
  0
LINE
  5
18BE7
  8
KI
  6
DASHED2
 62
     7
 10
303.30436025343391
 20
-140.83595909898131
 30
0.0
 11
303.30436025343391
 21
-110.83595909899699
 31
0.0
  0
LINE
  5
18BE8
  8
KI
  6
CONTINUOUS
 62
     7
 10
311.30436025343391
 20
52.164040902757201
 30
0.0
 11
311.30436025343391
 21
-99.835959097242934
 31
0.0
  0
LINE
  5
18BE9
  8
KI
  6
CONTINUOUS
 62
     7
 10
287.30436025343391
 20
-97.335959097243844
 30
0.0
 11
287.30436025343391
 21
49.664040902756277
 31
0.0
  0
LINE
  5
18BEA
  8
KI
  6
CONTINUOUS
 62
     7
 10
311.30436025343391
 20
-99.835959097242934
 30
0.0
 11
289.80436025343391
 21
-99.835959097243844
 31
0.0
  0
LINE
  5
18BEB
  8
KI
  6
CONTINUOUS
 62
     7
 10
287.30436025343391
 20
-97.335959097243844
 30
0.0
 11
289.80436025343391
 21
-99.835959097243844
 31
0.0
  0
LINE
  5
18BEC
  8
KI
  6
CONTINUOUS
 62
     7
 10
289.80436025343391
 20
52.164040902756277
 30
0.0
 11
311.30436025343391
 21
52.164040902757201
 31
0.0
  0
LINE
  5
18BED
  8
KI
  6
CONTINUOUS
 62
     7
 10
289.80436025343391
 20
52.164040902756277
 30
0.0
 11
287.30436025343391
 21
49.664040902756277
 31
0.0
  0
LINE
  5
18BEE
  8
KI
  6
CONTINUOUS
 62
     7
 10
119.1555465109694
 20
-116.08595909724249
 30
0.0
 11
128.15554651096971
 21
-116.08595909724249
 31
0.0
  0
LINE
  5
18BEF
  8
KI
  6
CONTINUOUS
 62
     7
 10
119.1555465109694
 20
-135.58595909724281
 30
0.0
 11
128.15554651096971
 21
-135.58595909724281
 31
0.0
  0
ARC
  5
18BF0
  8
KI
  6
DASHED2
 62
     7
 10
161.155546510969
 20
-133.58595909724281
 30
0.0
 40
2.0
 50
269.99999134857859
 51
0.0000006832429909
  0
LINE
  5
18BF1
  8
KI
  6
DASHED2
 62
     7
 10
163.155546510969
 20
-128.08595909724281
 30
0.0
 11
161.155546510969
 21
-128.08595909724281
 31
0.0
  0
LINE
  5
18BF2
  8
KI
  6
DASHED2
 62
     7
 10
163.155546510969
 20
-127.58595909724249
 30
0.0
 11
161.155546510969
 21
-127.58595909724249
 31
0.0
  0
LINE
  5
18BF3
  8
KI
  6
DASHED2
 62
     7
 10
163.155546510969
 20
-126.58595909724249
 30
0.0
 11
161.155546510969
 21
-126.58595909724249
 31
0.0
  0
LINE
  5
18BF4
  8
KI
  6
DASHED2
 62
     7
 10
163.155546510969
 20
-127.08595909724249
 30
0.0
 11
161.155546510969
 21
-127.08595909724249
 31
0.0
  0
LINE
  5
18BF5
  8
KI
  6
DASHED2
 62
     7
 10
163.155546510969
 20
-124.58595909724249
 30
0.0
 11
161.155546510969
 21
-124.58595909724249
 31
0.0
  0
LINE
  5
18BF6
  8
KI
  6
DASHED2
 62
     7
 10
163.155546510969
 20
-125.08595909724281
 30
0.0
 11
161.155546510969
 21
-125.08595909724281
 31
0.0
  0
LINE
  5
18BF7
  8
KI
  6
DASHED2
 62
     7
 10
163.155546510969
 20
-125.58595909724249
 30
0.0
 11
160.6555465109694
 21
-125.58595909724249
 31
0.0
  0
LINE
  5
18BF8
  8
KI
  6
DASHED2
 62
     7
 10
163.155546510969
 20
-126.08595909724281
 30
0.0
 11
160.6555465109694
 21
-126.08595909724281
 31
0.0
  0
LINE
  5
18BF9
  8
KI
  6
DASHED2
 62
     7
 10
163.155546510969
 20
-129.08595909724281
 30
0.0
 11
161.155546510969
 21
-129.08595909724281
 31
0.0
  0
LINE
  5
18BFA
  8
KI
  6
DASHED2
 62
     7
 10
163.155546510969
 20
-128.58595909724281
 30
0.0
 11
161.155546510969
 21
-128.58595909724281
 31
0.0
  0
LINE
  5
18BFB
  8
KI
  6
DASHED2
 62
     7
 10
163.155546510969
 20
-122.58595909724249
 30
0.0
 11
161.155546510969
 21
-122.58595909724249
 31
0.0
  0
LINE
  5
18BFC
  8
KI
  6
DASHED2
 62
     7
 10
163.155546510969
 20
-123.08595909724281
 30
0.0
 11
161.155546510969
 21
-123.08595909724281
 31
0.0
  0
LINE
  5
18BFD
  8
KI
  6
DASHED2
 62
     7
 10
163.155546510969
 20
-124.08595909724281
 30
0.0
 11
161.155546510969
 21
-124.08595909724281
 31
0.0
  0
LINE
  5
18BFE
  8
KI
  6
DASHED2
 62
     7
 10
163.155546510969
 20
-123.58595909724249
 30
0.0
 11
161.155546510969
 21
-123.58595909724249
 31
0.0
  0
ARC
  5
18BFF
  8
KI
  6
DASHED2
 62
     7
 10
161.155546510969
 20
-118.08595909724249
 30
0.0
 40
2.0
 50
359.99999749551819
 51
90.0
  0
LINE
  5
18C00
  8
KI
  6
DASHED2
 62
     7
 10
163.155546510969
 20
-129.08595909724281
 30
0.0
 11
163.155546510969
 21
-133.58595909724281
 31
0.0
  0
LINE
  5
18C01
  8
KI
  6
DASHED2
 62
     7
 10
163.155546510969
 20
-122.58595909724249
 30
0.0
 11
163.155546510969
 21
-118.08595909724249
 31
0.0
  0
ARC
  5
18C02
  8
KI
  6
DASHED2
 62
     7
 10
163.155546510969
 20
-122.83595909724249
 30
0.0
 40
0.25
 50
269.99999134857859
 51
90.00001001791064
  0
ARC
  5
18C03
  8
KI
  6
DASHED2
 62
     7
 10
163.155546510969
 20
-123.83595909724249
 30
0.0
 40
0.25
 50
269.99999134857859
 51
90.00001001791064
  0
LINE
  5
18C04
  8
KI
  6
DASHED2
 62
     7
 10
163.155546510969
 20
-123.58595909724249
 30
0.0
 11
163.155546510969
 21
-123.08595909724281
 31
0.0
  0
LINE
  5
18C05
  8
KI
  6
DASHED2
 62
     7
 10
163.155546510969
 20
-125.58595909724249
 30
0.0
 11
163.155546510969
 21
-125.08595909724281
 31
0.0
  0
LINE
  5
18C06
  8
KI
  6
DASHED2
 62
     7
 10
163.155546510969
 20
-126.08595909724281
 30
0.0
 11
163.155546510969
 21
-126.58595909724249
 31
0.0
  0
ARC
  5
18C07
  8
KI
  6
DASHED2
 62
     7
 10
163.155546510969
 20
-124.83595909724249
 30
0.0
 40
0.25
 50
269.99999134857859
 51
90.00001001791064
  0
ARC
  5
18C08
  8
KI
  6
DASHED2
 62
     7
 10
163.155546510969
 20
-126.83595909724249
 30
0.0
 40
0.25
 50
269.99999134857859
 51
90.00001001791064
  0
ARC
  5
18C09
  8
KI
  6
DASHED2
 62
     7
 10
163.155546510969
 20
-125.83595909724249
 30
0.0
 40
0.25
 50
269.99999134857859
 51
90.00001001791064
  0
LINE
  5
18C0A
  8
KI
  6
DASHED2
 62
     7
 10
163.155546510969
 20
-124.58595909724249
 30
0.0
 11
163.155546510969
 21
-124.08595909724281
 31
0.0
  0
LINE
  5
18C0B
  8
KI
  6
DASHED2
 62
     7
 10
163.155546510969
 20
-128.08595909724281
 30
0.0
 11
163.155546510969
 21
-128.58595909724281
 31
0.0
  0
ARC
  5
18C0C
  8
KI
  6
DASHED2
 62
     7
 10
163.155546510969
 20
-127.83595909724249
 30
0.0
 40
0.25
 50
269.99999134857859
 51
90.00001001791064
  0
ARC
  5
18C0D
  8
KI
  6
DASHED2
 62
     7
 10
163.155546510969
 20
-128.83595909724281
 30
0.0
 40
0.25
 50
269.99999134857859
 51
90.00001001791064
  0
LINE
  5
18C0E
  8
KI
  6
DASHED2
 62
     7
 10
163.155546510969
 20
-127.08595909724249
 30
0.0
 11
163.155546510969
 21
-127.58595909724249
 31
0.0
  0
ARC
  5
18C0F
  8
KI
  6
DASHED2
 62
     7
 10
143.6555465109694
 20
-125.83595909724249
 30
0.0
 40
6.5
 50
270.0
 51
90.0
  0
ARC
  5
18C10
  8
KI
  6
DASHED2
 62
     7
 10
156.6555465109694
 20
-122.9359594787114
 30
0.0
 40
4.0
 50
359.99999749551819
 51
180.00000250447511
  0
LINE
  5
18C11
  8
KI
  6
DASHED2
 62
     7
 10
161.155546510969
 20
-123.08595909724281
 30
0.0
 11
161.155546510969
 21
-122.58595909724249
 31
0.0
  0
LINE
  5
18C12
  8
KI
  6
DASHED2
 62
     7
 10
161.155546510969
 20
-124.08595909724281
 30
0.0
 11
161.155546510969
 21
-123.58595909724249
 31
0.0
  0
LINE
  5
18C13
  8
KI
  6
DASHED2
 62
     7
 10
161.155546510969
 20
-126.58595909724249
 30
0.0
 11
161.155546510969
 21
-127.08595909724249
 31
0.0
  0
LINE
  5
18C14
  8
KI
  6
DASHED2
 62
     7
 10
161.155546510969
 20
-125.08595909724281
 30
0.0
 11
161.155546510969
 21
-124.58595909724249
 31
0.0
  0
LINE
  5
18C15
  8
KI
  6
DASHED2
 62
     7
 10
161.155546510969
 20
-127.58595909724249
 30
0.0
 11
161.155546510969
 21
-128.08595909724281
 31
0.0
  0
LINE
  5
18C16
  8
KI
  6
DASHED2
 62
     7
 10
161.155546510969
 20
-128.58595909724281
 30
0.0
 11
161.155546510969
 21
-129.08595909724281
 31
0.0
  0
ARC
  5
18C17
  8
KI
  6
DASHED2
 62
     7
 10
156.6555465109694
 20
-128.73595871577271
 30
0.0
 40
2.099999904632599
 50
180.00000250447511
 51
0.0000006832429909
  0
LINE
  5
18C18
  8
KI
  6
DASHED2
 62
     7
 10
152.655546510969
 20
-128.73595871577271
 30
0.0
 11
152.655546510969
 21
-122.9359594787114
 31
0.0
  0
LINE
  5
18C19
  8
KI
  6
DASHED2
 62
     7
 10
154.55554660633661
 20
-128.73595871577271
 30
0.0
 11
154.55554660633661
 21
-122.9359594787114
 31
0.0
  0
LINE
  5
18C1A
  8
KI
  6
DASHED2
 62
     7
 10
160.6555465109694
 20
-128.73595871577271
 30
0.0
 11
160.6555465109694
 21
-122.9359594787114
 31
0.0
  0
LINE
  5
18C1B
  8
KI
  6
DASHED2
 62
     7
 10
158.7555465348112
 20
-128.73595871577271
 30
0.0
 11
158.7555465348112
 21
-122.9359594787114
 31
0.0
  0
ARC
  5
18C1C
  8
KI
  6
DASHED2
 62
     7
 10
156.6555465109694
 20
-128.73595871577271
 30
0.0
 40
4.0
 50
180.00000250447511
 51
0.0000006832429909
  0
ARC
  5
18C1D
  8
KI
  6
DASHED2
 62
     7
 10
156.6555465109694
 20
-122.9359594787114
 30
0.0
 40
2.099999904632599
 50
359.99999749551819
 51
180.00000250447511
  0
ARC
  5
18C1E
  8
KI
  6
DASHED2
 62
     7
 10
136.6555465109694
 20
-125.83595909724249
 30
0.0
 40
6.5
 50
90.0
 51
270.0
  0
LINE
  5
18C1F
  8
KI
  6
DASHED2
 62
     7
 10
136.6555465109694
 20
-132.33595909724281
 30
0.0
 11
143.6555465109694
 21
-132.33595909724281
 31
0.0
  0
CIRCLE
  5
18C20
  8
KI
  6
DASHED2
 62
     7
 10
140.1555465109692
 20
-125.83595909724249
 30
0.0
 40
4.0
  0
LINE
  5
18C21
  8
KI
  6
DASHED2
 62
     7
 10
136.6555465109694
 20
-119.33595909724249
 30
0.0
 11
143.6555465109694
 21
-119.33595909724249
 31
0.0
  0
LINE
  5
18C22
  8
KI
  6
CONTINUOUS
 62
     7
 10
117.1555465109693
 20
-129.08595909724281
 30
0.0
 11
117.1555465109693
 21
-133.58595909724281
 31
0.0
  0
ARC
  5
18C23
  8
KI
  6
CONTINUOUS
 62
     7
 10
119.1555465109694
 20
-133.58595909724281
 30
0.0
 40
2.0
 50
180.00000250447511
 51
270.0000050089568
  0
LINE
  5
18C24
  8
KI
  6
CONTINUOUS
 62
     7
 10
117.1555465109693
 20
-122.58595909724249
 30
0.0
 11
117.1555465109693
 21
-118.08595909724249
 31
0.0
  0
ARC
  5
18C25
  8
KI
  6
CONTINUOUS
 62
     7
 10
123.6555465109693
 20
-122.9359594787114
 30
0.0
 40
4.0
 50
359.99999749551819
 51
180.00000250447511
  0
LINE
  5
18C26
  8
KI
  6
CONTINUOUS
 62
     7
 10
117.1555465109693
 20
-122.58595909724249
 30
0.0
 11
119.1555465109694
 21
-122.58595909724249
 31
0.0
  0
LINE
  5
18C27
  8
KI
  6
CONTINUOUS
 62
     7
 10
117.1555465109693
 20
-123.08595909724281
 30
0.0
 11
119.1555465109694
 21
-123.08595909724281
 31
0.0
  0
LINE
  5
18C28
  8
KI
  6
CONTINUOUS
 62
     7
 10
119.1555465109694
 20
-123.08595909724281
 30
0.0
 11
119.1555465109694
 21
-122.58595909724249
 31
0.0
  0
ARC
  5
18C29
  8
KI
  6
CONTINUOUS
 62
     7
 10
117.1555465109693
 20
-122.83595909724249
 30
0.0
 40
0.25
 50
90.0
 51
270.0000050089568
  0
LINE
  5
18C2A
  8
KI
  6
CONTINUOUS
 62
     7
 10
117.1555465109693
 20
-123.58595909724249
 30
0.0
 11
119.1555465109694
 21
-123.58595909724249
 31
0.0
  0
LINE
  5
18C2B
  8
KI
  6
CONTINUOUS
 62
     7
 10
117.1555465109693
 20
-124.08595909724281
 30
0.0
 11
119.1555465109694
 21
-124.08595909724281
 31
0.0
  0
LINE
  5
18C2C
  8
KI
  6
CONTINUOUS
 62
     7
 10
119.1555465109694
 20
-124.08595909724281
 30
0.0
 11
119.1555465109694
 21
-123.58595909724249
 31
0.0
  0
ARC
  5
18C2D
  8
KI
  6
CONTINUOUS
 62
     7
 10
117.1555465109693
 20
-123.83595909724249
 30
0.0
 40
0.25
 50
90.0
 51
270.0000050089568
  0
LINE
  5
18C2E
  8
KI
  6
CONTINUOUS
 62
     7
 10
117.1555465109693
 20
-123.58595909724249
 30
0.0
 11
117.1555465109693
 21
-123.08595909724281
 31
0.0
  0
LINE
  5
18C2F
  8
KI
  6
CONTINUOUS
 62
     7
 10
117.1555465109693
 20
-125.08595909724281
 30
0.0
 11
119.1555465109694
 21
-125.08595909724281
 31
0.0
  0
LINE
  5
18C30
  8
KI
  6
CONTINUOUS
 62
     7
 10
117.1555465109693
 20
-126.08595909724281
 30
0.0
 11
119.6555465109694
 21
-126.08595909724281
 31
0.0
  0
LINE
  5
18C31
  8
KI
  6
CONTINUOUS
 62
     7
 10
117.1555465109693
 20
-125.58595909724249
 30
0.0
 11
119.6555465109694
 21
-125.58595909724249
 31
0.0
  0
LINE
  5
18C32
  8
KI
  6
CONTINUOUS
 62
     7
 10
117.1555465109693
 20
-127.08595909724249
 30
0.0
 11
119.1555465109694
 21
-127.08595909724249
 31
0.0
  0
LINE
  5
18C33
  8
KI
  6
CONTINUOUS
 62
     7
 10
117.1555465109693
 20
-124.58595909724249
 30
0.0
 11
119.1555465109694
 21
-124.58595909724249
 31
0.0
  0
LINE
  5
18C34
  8
KI
  6
CONTINUOUS
 62
     7
 10
117.1555465109693
 20
-126.58595909724249
 30
0.0
 11
119.1555465109694
 21
-126.58595909724249
 31
0.0
  0
LINE
  5
18C35
  8
KI
  6
CONTINUOUS
 62
     7
 10
119.1555465109694
 20
-125.08595909724281
 30
0.0
 11
119.1555465109694
 21
-124.58595909724249
 31
0.0
  0
LINE
  5
18C36
  8
KI
  6
CONTINUOUS
 62
     7
 10
119.1555465109694
 20
-126.58595909724249
 30
0.0
 11
119.1555465109694
 21
-127.08595909724249
 31
0.0
  0
ARC
  5
18C37
  8
KI
  6
CONTINUOUS
 62
     7
 10
117.1555465109693
 20
-124.83595909724249
 30
0.0
 40
0.25
 50
90.0
 51
270.0000050089568
  0
ARC
  5
18C38
  8
KI
  6
CONTINUOUS
 62
     7
 10
117.1555465109693
 20
-125.83595909724249
 30
0.0
 40
0.25
 50
90.0
 51
270.0000050089568
  0
ARC
  5
18C39
  8
KI
  6
CONTINUOUS
 62
     7
 10
117.1555465109693
 20
-126.83595909724249
 30
0.0
 40
0.25
 50
90.0
 51
270.0000050089568
  0
LINE
  5
18C3A
  8
KI
  6
CONTINUOUS
 62
     7
 10
117.1555465109693
 20
-125.58595909724249
 30
0.0
 11
117.1555465109693
 21
-125.08595909724281
 31
0.0
  0
LINE
  5
18C3B
  8
KI
  6
CONTINUOUS
 62
     7
 10
117.1555465109693
 20
-126.08595909724281
 30
0.0
 11
117.1555465109693
 21
-126.58595909724249
 31
0.0
  0
LINE
  5
18C3C
  8
KI
  6
CONTINUOUS
 62
     7
 10
117.1555465109693
 20
-124.58595909724249
 30
0.0
 11
117.1555465109693
 21
-124.08595909724281
 31
0.0
  0
LINE
  5
18C3D
  8
KI
  6
CONTINUOUS
 62
     7
 10
117.1555465109693
 20
-127.58595909724249
 30
0.0
 11
119.1555465109694
 21
-127.58595909724249
 31
0.0
  0
LINE
  5
18C3E
  8
KI
  6
CONTINUOUS
 62
     7
 10
117.1555465109693
 20
-128.08595909724281
 30
0.0
 11
119.1555465109694
 21
-128.08595909724281
 31
0.0
  0
LINE
  5
18C3F
  8
KI
  6
CONTINUOUS
 62
     7
 10
119.1555465109694
 20
-127.58595909724249
 30
0.0
 11
119.1555465109694
 21
-128.08595909724281
 31
0.0
  0
ARC
  5
18C40
  8
KI
  6
CONTINUOUS
 62
     7
 10
117.1555465109693
 20
-127.83595909724249
 30
0.0
 40
0.25
 50
90.0
 51
270.0000050089568
  0
LINE
  5
18C41
  8
KI
  6
CONTINUOUS
 62
     7
 10
117.1555465109693
 20
-128.58595909724281
 30
0.0
 11
119.1555465109694
 21
-128.58595909724281
 31
0.0
  0
LINE
  5
18C42
  8
KI
  6
CONTINUOUS
 62
     7
 10
117.1555465109693
 20
-129.08595909724281
 30
0.0
 11
119.1555465109694
 21
-129.08595909724281
 31
0.0
  0
LINE
  5
18C43
  8
KI
  6
CONTINUOUS
 62
     7
 10
119.1555465109694
 20
-128.58595909724281
 30
0.0
 11
119.1555465109694
 21
-129.08595909724281
 31
0.0
  0
ARC
  5
18C44
  8
KI
  6
CONTINUOUS
 62
     7
 10
117.1555465109693
 20
-128.83595909724281
 30
0.0
 40
0.25
 50
90.0
 51
270.0000050089568
  0
LINE
  5
18C45
  8
KI
  6
CONTINUOUS
 62
     7
 10
117.1555465109693
 20
-128.08595909724281
 30
0.0
 11
117.1555465109693
 21
-128.58595909724281
 31
0.0
  0
ARC
  5
18C46
  8
KI
  6
CONTINUOUS
 62
     7
 10
123.6555465109693
 20
-128.73595871577271
 30
0.0
 40
2.099999904632599
 50
180.00000250447511
 51
0.0000006832429909
  0
LINE
  5
18C47
  8
KI
  6
CONTINUOUS
 62
     7
 10
127.6555465109693
 20
-128.73595871577271
 30
0.0
 11
127.6555465109693
 21
-122.9359594787114
 31
0.0
  0
LINE
  5
18C48
  8
KI
  6
CONTINUOUS
 62
     7
 10
119.6555465109694
 20
-128.73595871577271
 30
0.0
 11
119.6555465109694
 21
-122.9359594787114
 31
0.0
  0
LINE
  5
18C49
  8
KI
  6
CONTINUOUS
 62
     7
 10
125.7555468924391
 20
-128.73595871577271
 30
0.0
 11
125.7555468924391
 21
-122.9359594787114
 31
0.0
  0
LINE
  5
18C4A
  8
KI
  6
CONTINUOUS
 62
     7
 10
121.55554803684841
 20
-128.73595871577271
 30
0.0
 11
121.55554803684841
 21
-122.9359594787114
 31
0.0
  0
LINE
  5
18C4B
  8
KI
  6
CONTINUOUS
 62
     7
 10
117.1555465109693
 20
-127.08595909724249
 30
0.0
 11
117.1555465109693
 21
-127.58595909724249
 31
0.0
  0
ARC
  5
18C4C
  8
KI
  6
CONTINUOUS
 62
     7
 10
123.6555465109693
 20
-128.73595871577271
 30
0.0
 40
4.0
 50
180.00000250447511
 51
0.0000006832429909
  0
ARC
  5
18C4D
  8
KI
  6
CONTINUOUS
 62
     7
 10
123.6555465109693
 20
-122.9359594787114
 30
0.0
 40
2.099999904632599
 50
359.99999749551819
 51
180.00000250447511
  0
ARC
  5
18C4E
  8
KI
  6
CONTINUOUS
 62
     7
 10
119.1555465109694
 20
-118.08595909724249
 30
0.0
 40
2.0
 50
90.0
 51
180.00000250447511
  0
LINE
  5
18C4F
  8
KI
  6
DASHED2
 62
     7
 10
128.15554651096971
 20
-116.08595909724249
 30
0.0
 11
161.155546510969
 21
-116.08595909724249
 31
0.0
  0
LINE
  5
18C50
  8
KI
  6
DASHED2
 62
     7
 10
128.15554651096971
 20
-135.58595909724281
 30
0.0
 11
161.155546510969
 21
-135.58595909724281
 31
0.0
  0
LINE
  5
18C51
  8
KI
  6
CONTINUOUS
 62
     7
 10
128.1555465109698
 20
52.164040902757201
 30
0.0
 11
128.1555465109698
 21
-99.835959097242934
 31
0.0
  0
LINE
  5
18C52
  8
KI
  6
CONTINUOUS
 62
     7
 10
152.1555465109698
 20
-97.335959097243844
 30
0.0
 11
152.1555465109698
 21
49.664040902756277
 31
0.0
  0
LINE
  5
18C53
  8
KI
  6
CONTINUOUS
 62
     7
 10
128.1555465109698
 20
-99.835959097242934
 30
0.0
 11
149.65554651096971
 21
-99.835959097243844
 31
0.0
  0
LINE
  5
18C54
  8
KI
  6
CONTINUOUS
 62
     7
 10
152.1555465109698
 20
-97.335959097243844
 30
0.0
 11
149.65554651096971
 21
-99.835959097243844
 31
0.0
  0
LINE
  5
18C55
  8
KI
  6
CONTINUOUS
 62
     7
 10
149.65554651096971
 20
52.164040902756277
 30
0.0
 11
128.1555465109698
 21
52.164040902757201
 31
0.0
  0
LINE
  5
18C56
  8
KI
  6
CONTINUOUS
 62
     7
 10
149.65554651096971
 20
52.164040902756277
 30
0.0
 11
152.1555465109698
 21
49.664040902756277
 31
0.0
  0
LINE
  5
18C57
  8
KI
  6
CONTINUOUS
 62
     7
 10
-189.5000000018336
 20
60.29711276461807
 30
0.0
 11
-189.5000000018336
 21
52.297112764618078
 31
0.0
  0
LINE
  5
18C58
  8
KI
  6
CONTINUOUS
 62
     7
 10
-192.1000000018341
 20
78.297112764618433
 30
0.0
 11
-192.10000000183359
 21
62.297112764618078
 31
0.0
  0
LINE
  5
18C59
  8
KI
  6
CONTINUOUS
 62
     7
 10
-198.10000000183359
 20
78.297112764618063
 30
0.0
 11
-198.10000000183359
 21
62.297112764618078
 31
0.0
  0
ARC
  5
18C5A
  8
KI
  6
CONTINUOUS
 62
     7
 10
-195.10000000183359
 20
66.297112764618078
 30
0.0
 40
5.0
 50
233.1301023541624
 51
306.86989764583723
  0
ARC
  5
18C5B
  8
KI
  6
CONTINUOUS
 62
     7
 10
-190.5000000018338
 20
61.297112764618078
 30
0.0
 40
1.0
 50
180.0
 51
270.0
  0
ARC
  5
18C5C
  8
KI
  6
CONTINUOUS
 62
     7
 10
-193.5000000018338
 20
61.297112764618078
 30
0.0
 40
2.0
 50
0.0
 51
45.572995999200003
  0
LINE
  5
18C5D
  8
KI
  6
CONTINUOUS
 62
     7
 10
-190.5000000018338
 20
60.29711276461807
 30
0.0
 11
-182.5000000018338
 21
60.29711276461807
 31
0.0
  0
ARC
  5
18C5E
  8
KI
  6
CONTINUOUS
 62
     7
 10
-177.90000000183369
 20
66.297112764618078
 30
0.0
 40
5.0
 50
233.1301023541624
 51
306.86989764583723
  0
ARC
  5
18C5F
  8
KI
  6
CONTINUOUS
 62
     7
 10
-177.90000000183369
 20
66.297112764618078
 30
0.0
 40
5.0
 50
233.1301023541624
 51
306.86989764583723
  0
LINE
  5
18C60
  8
KI
  6
CONTINUOUS
 62
     7
 10
-180.9000000018336
 20
78.297112764618063
 30
0.0
 11
-180.9000000018336
 21
62.297112764618078
 31
0.0
  0
LINE
  5
18C61
  8
KI
  6
CONTINUOUS
 62
     7
 10
-180.9000000018336
 20
78.297112764618063
 30
0.0
 11
-180.9000000018336
 21
62.297112764618078
 31
0.0
  0
LINE
  5
18C62
  8
KI
  6
CONTINUOUS
 62
     7
 10
-183.5000000018338
 20
60.29711276461807
 30
0.0
 11
-183.5000000018338
 21
52.297112764618078
 31
0.0
  0
LINE
  5
18C63
  8
KI
  6
CONTINUOUS
 62
     7
 10
-174.9000000018336
 20
78.297112764618063
 30
0.0
 11
-174.9000000018336
 21
62.297112764618078
 31
0.0
  0
LINE
  5
18C64
  8
KI
  6
CONTINUOUS
 62
     7
 10
-174.9000000018336
 20
78.297112764618063
 30
0.0
 11
-174.9000000018336
 21
62.297112764618078
 31
0.0
  0
LINE
  5
18C65
  8
KI
  6
CONTINUOUS
 62
     7
 10
-180.9000000018336
 20
75.797112764618063
 30
0.0
 11
-192.10000000183359
 21
75.797112764618063
 31
0.0
  0
ARC
  5
18C66
  8
KI
  6
CONTINUOUS
 62
     7
 10
-195.10000000183359
 20
74.297112764618078
 30
0.0
 40
5.0
 50
53.13010235416251
 51
126.8698976458374
  0
ARC
  5
18C67
  8
KI
  6
CONTINUOUS
 62
     7
 10
-177.90000000183369
 20
74.297112764618078
 30
0.0
 40
5.0
 50
53.13010235416251
 51
126.8698976458374
  0
ARC
  5
18C68
  8
KI
  6
CONTINUOUS
 62
     7
 10
-179.50000000183371
 20
61.297112764618078
 30
0.0
 40
2.0
 50
134.4270040008
 51
180.0
  0
ARC
  5
18C69
  8
KI
  6
CONTINUOUS
 62
     7
 10
-182.5000000018338
 20
61.297112764618078
 30
0.0
 40
1.0
 50
270.0
 51
0.0
  0
ARC
  5
18C6A
  8
KI
  6
CONTINUOUS
 62
     7
 10
-181.00000000183351
 20
85.597112765331985
 30
0.0
 40
0.5
 50
0.0
 51
90.0
  0
ARC
  5
18C6B
  8
KI
  6
CONTINUOUS
 62
     7
 10
-192.00000000183391
 20
85.597112765331872
 30
0.0
 40
0.5
 50
90.0
 51
179.99999999999341
  0
ARC
  5
18C6C
  8
KI
  6
CONTINUOUS
 62
     7
 10
-190.1000000018345
 20
86.597112765331872
 30
0.0
 40
0.5
 50
270.0
 51
22.619864948046061
1001
GENIUS_GENODEF_13
1002
{
1000
HIER
1070
     0
1002
}
1002
{
1000
MANEDIT
1070
     0
1002
}
1002
{
1000
NOSEL
1070
     0
1002
}
1002
{
1000
BEHIND
1070
     0
1002
}
1002
{
1000
OTHER
1070
     0
1002
}
1002
{
1000
REACTOR
1002
}
1001
GENIUS_GENOBJ-N-FIL_13
1002
{
1000
OWNER
1000
GEN
1002
}
  0
ARC
  5
18C6D
  8
KI
  6
CONTINUOUS
 62
     7
 10
-182.90000000183289
 20
86.597112765331872
 30
0.0
 40
0.5
 50
157.38013505195391
 51
270.0
1001
GENIUS_GENODEF_13
1002
{
1000
HIER
1070
     0
1002
}
1002
{
1000
MANEDIT
1070
     0
1002
}
1002
{
1000
NOSEL
1070
     0
1002
}
1002
{
1000
BEHIND
1070
     0
1002
}
1002
{
1000
OTHER
1070
     0
1002
}
1002
{
1000
REACTOR
1002
}
1001
GENIUS_GENOBJ-N-FIL_13
1002
{
1000
OWNER
1000
GEN
1002
}
  0
LINE
  5
18C6E
  8
KI
  6
CONTINUOUS
 62
     7
 10
-199.00000000183411
 20
82.297112764597145
 30
0.0
 11
-199.00000000183471
 21
94.997112764617555
 31
0.0
  0
LINE
  5
18C6F
  8
KI
  6
CONTINUOUS
 62
     7
 10
-200.5000000018338
 20
73.897112764608551
 30
0.0
 11
-200.5000000018338
 21
89.563036591928139
 31
0.0
  0
ARC
  5
18C70
  8
KI
  6
CONTINUOUS
 62
     7
 10
-195.10000000183391
 20
74.297112764618078
 30
0.0
 40
5.5
 50
54.903198772419252
 51
133.81306146041959
  0
LINE
  5
18C71
  8
KI
  6
CONTINUOUS
 62
     7
 10
-198.0000000018342
 20
81.297112764597145
 30
0.0
 11
-192.50000000183479
 21
81.297112764597145
 31
0.0
  0
LINE
  5
18C72
  8
KI
  6
CONTINUOUS
 62
     7
 10
-193.00000000183391
 20
59.79711276461795
 30
0.0
 11
-199.500000001834
 21
59.797112764618078
 31
0.0
  0
ARC
  5
18C73
  8
KI
  6
CONTINUOUS
 62
     7
 10
-195.10000000183391
 20
66.297112764618078
 30
0.0
 40
4.9999999999999538
 50
220.00775391346781
 51
301.89079180186178
  0
LINE
  5
18C74
  8
KI
  6
CONTINUOUS
 62
     7
 10
-207.98033008772319
 20
55.938103022287677
 30
0.0
 11
-201.76776705480009
 21
62.150666055211317
 31
0.0
  0
LINE
  5
18C75
  8
KI
  6
CONTINUOUS
 62
     7
 10
-206.91966991594359
 20
54.877442850508032
 30
0.0
 11
-204.2385031308215
 21
57.558609635629857
 31
0.0
  0
ARC
  5
18C76
  8
KI
  6
CONTINUOUS
 62
     7
 10
-207.45000000183359
 20
55.407772936397897
 30
0.0
 40
0.7499999999999957
 50
134.99999999999071
 51
314.99999999999062
  0
ARC
  5
18C77
  8
KI
  6
CONTINUOUS
 62
     7
 10
-203.7730447396639
 20
57.741225314313162
 30
0.0
 40
0.5
 50
68.578178478202474
 51
201.42182152181161
  0
ARC
  5
18C78
  8
KI
  6
CONTINUOUS
 62
     7
 10
-202.5000000018342
 20
70.297112764607618
 30
0.0
 40
3.400000000000015
 50
67.380135051954255
 51
131.31358776307459
  0
LINE
  5
18C79
  8
KI
  6
CONTINUOUS
 62
     7
 10
-199.000000001834
 20
63.275523778672103
 30
0.0
 11
-199.00000000183411
 21
78.049445372476484
 31
0.0
  0
ARC
  5
18C7A
  8
KI
  6
CONTINUOUS
 62
     7
 10
-202.5000000018342
 20
70.297112764607618
 30
0.0
 40
3.399999999999987
 50
228.68641223692521
 51
292.61986494803
  0
ARC
  5
18C7B
  8
KI
  6
CONTINUOUS
 62
     7
 10
-201.0000000018342
 20
66.6971127646068
 30
0.0
 40
0.5
 50
0.0
 51
112.61986494803
1001
GENIUS_GENODEF_13
1002
{
1000
HIER
1070
     0
1002
}
1002
{
1000
MANEDIT
1070
     0
1002
}
1002
{
1000
NOSEL
1070
     0
1002
}
1002
{
1000
BEHIND
1070
     0
1002
}
1002
{
1000
OTHER
1070
     0
1002
}
1002
{
1000
REACTOR
1002
}
1001
GENIUS_GENOBJ-N-FIL_13
1002
{
1000
OWNER
1000
GEN
1002
}
  0
LINE
  5
18C7C
  8
KI
  6
CONTINUOUS
 62
     7
 10
-200.50000000183391
 20
62.297112664618112
 30
0.0
 11
-200.50000000183391
 21
66.6971127646068
 31
0.0
  0
ARC
  5
18C7D
  8
KI
  6
CONTINUOUS
 62
     7
 10
-198.7000000018339
 20
63.275523778672103
 30
0.0
 40
0.300000000001154
 50
180.0
 51
220.0077539134503
  0
ARC
  5
18C7E
  8
KI
  6
CONTINUOUS
 62
     7
 10
-204.1999630192619
 20
72.231214814494933
 30
0.0
 40
0.8250000000000046
 50
131.31358776308491
 51
311.31358776307462
  0
ARC
  5
18C7F
  8
KI
  6
CONTINUOUS
 62
     7
 10
-202.50000000183391
 20
71.797112764607618
 30
0.0
 40
0.5000000000000153
 50
22.024312837049319
 51
157.97568716295041
  0
ARC
  5
18C80
  8
KI
  6
CONTINUOUS
 62
     7
 10
-202.5000000018342
 20
70.297112764607618
 30
0.0
 40
1.7500000000000071
 50
105.3588855808181
 51
131.31358776308491
  0
ARC
  5
18C81
  8
KI
  6
CONTINUOUS
 62
     7
 10
-201.2009618961572
 20
71.04711276460759
 30
0.0
 40
0.4999999999999046
 50
322.02431283702271
 51
97.975687162964107
  0
ARC
  5
18C82
  8
KI
  6
CONTINUOUS
 62
     7
 10
-202.5000000018342
 20
70.297112764607618
 30
0.0
 40
1.750000000000014
 50
45.358885580830631
 51
74.64111441918179
  0
ARC
  5
18C83
  8
KI
  6
CONTINUOUS
 62
     7
 10
-204.1999630192615
 20
68.363010714720303
 30
0.0
 40
0.8250000000000017
 50
48.686412236925356
 51
228.68641223692521
  0
ARC
  5
18C84
  8
KI
  6
CONTINUOUS
 62
     7
 10
-202.50000000183391
 20
68.797112764607618
 30
0.0
 40
0.5000000000000285
 50
202.02431283704911
 51
337.97568716295052
  0
ARC
  5
18C85
  8
KI
  6
CONTINUOUS
 62
     7
 10
-202.5000000018342
 20
70.297112764607618
 30
0.0
 40
1.749999999999984
 50
228.68641223692521
 51
254.6411144191818
  0
ARC
  5
18C86
  8
KI
  6
CONTINUOUS
 62
     7
 10
-201.2009618961572
 20
69.547112764607618
 30
0.0
 40
0.5000000000000086
 50
262.02431283703589
 51
37.9756871629519
  0
ARC
  5
18C87
  8
KI
  6
CONTINUOUS
 62
     7
 10
-202.5000000018342
 20
70.297112764607618
 30
0.0
 40
1.750000000000004
 50
285.35888558081808
 51
314.64111441916913
  0
ARC
  5
18C88
  8
KI
  6
CONTINUOUS
 62
     7
 10
-202.5000000018342
 20
70.297112764607618
 30
0.0
 40
1.750000000000014
 50
345.35888558080381
 51
14.641114419196111
  0
ARC
  5
18C89
  8
KI
  6
CONTINUOUS
 62
     7
 10
-201.0000000018342
 20
73.897112764608437
 30
0.0
 40
0.5
 50
247.3801350519542
 51
0.0
1001
GENIUS_GENODEF_13
1002
{
1000
HIER
1070
     0
1002
}
1002
{
1000
MANEDIT
1070
     0
1002
}
1002
{
1000
NOSEL
1070
     0
1002
}
1002
{
1000
BEHIND
1070
     0
1002
}
1002
{
1000
OTHER
1070
     0
1002
}
1002
{
1000
REACTOR
1002
}
1001
GENIUS_GENOBJ-N-FIL_13
1002
{
1000
OWNER
1000
GEN
1002
}
  0
ARC
  5
18C8A
  8
KI
  6
CONTINUOUS
 62
     7
 10
-198.7000000018339
 20
78.049445372476484
 30
0.0
 40
0.3
 50
133.81306146041959
 51
180.0
  0
ARC
  5
18C8B
  8
KI
  6
CONTINUOUS
 62
     7
 10
-198.0000000018342
 20
82.297112764597045
 30
0.0
 40
1.0
 50
180.0
 51
270.0
  0
LINE
  5
18C8C
  8
KI
  6
CONTINUOUS
 62
     7
 10
-181.00000000183351
 20
61.797112764618873
 30
0.0
 11
-181.0000000018332
 21
60.79711276461807
 31
0.0
  0
ARC
  5
18C8D
  8
KI
  6
CONTINUOUS
 62
     7
 10
-177.9000000018336
 20
66.297112764618078
 30
0.0
 40
4.9999999999999538
 50
238.10920819813811
 51
319.99224608653191
  0
LINE
  5
18C8E
  8
KI
  6
CONTINUOUS
 62
     7
 10
-192.00000000183391
 20
61.797112764618973
 30
0.0
 11
-192.00000000183391
 21
60.797112764617971
 31
0.0
  0
LINE
  5
18C8F
  8
KI
  6
CONTINUOUS
 62
     7
 10
-172.5000000018338
 20
60.29711276461807
 30
0.0
 11
-172.50000000183351
 21
67.097112764607687
 31
0.0
  0
LINE
  5
18C90
  8
KI
  6
CONTINUOUS
 62
     7
 10
-166.2000000018339
 20
48.447112764617941
 30
0.0
 11
-166.2000000018335
 21
67.097112764607459
 31
0.0
  0
ARC
  5
18C91
  8
KI
  6
CONTINUOUS
 62
     7
 10
-193.00000000183391
 20
60.797112764617971
 30
0.0
 40
1.0
 50
270.0
 51
0.0
  0
LINE
  5
18C92
  8
KI
  6
CONTINUOUS
 62
     7
 10
-180.00000000183331
 20
59.797112764618078
 30
0.0
 11
-173.00000000183371
 21
59.797112764618078
 31
0.0
  0
ARC
  5
18C93
  8
KI
  6
CONTINUOUS
 62
     7
 10
-180.00000000183351
 20
60.797112764617971
 30
0.0
 40
1.0
 50
180.0
 51
270.0
  0
ARC
  5
18C94
  8
KI
  6
CONTINUOUS
 62
     7
 10
-173.00000000183371
 20
60.29711276461807
 30
0.0
 40
0.5
 50
270.0
 51
0.0
  0
LINE
  5
18C95
  8
KI
  6
CONTINUOUS
 62
     7
 10
-166.2000000018335
 20
67.097112764607459
 30
0.0
 11
-172.50000000183351
 21
67.097112764607687
 31
0.0
  0
LINE
  5
18C96
  8
KI
  6
CONTINUOUS
 62
     7
 10
-171.28410205172099
 20
72.822075782035412
 30
0.0
 11
-172.50000000183331
 21
72.822075782035412
 31
0.0
  0
LINE
  5
18C97
  8
KI
  6
CONTINUOUS
 62
     7
 10
-174.00000000183351
 20
63.275523778671982
 30
0.0
 11
-174.00000000183351
 21
78.049445369917521
 31
0.0
  0
LINE
  5
18C98
  8
KI
  6
CONTINUOUS
 62
     7
 10
-172.50000000183331
 20
72.822075782035412
 30
0.0
 11
-172.50000000183331
 21
79.297112764597173
 31
0.0
  0
ARC
  5
18C99
  8
KI
  6
CONTINUOUS
 62
     7
 10
-192.30000000183381
 20
61.797112764618973
 30
0.0
 40
0.2999999999993582
 50
0.0
 51
121.89079180184051
  0
ARC
  5
18C9A
  8
KI
  6
CONTINUOUS
 62
     7
 10
-180.70000000183359
 20
61.797112764618873
 30
0.0
 40
0.2999999999993582
 50
58.109208198159401
 51
180.0
  0
ARC
  5
18C9B
  8
KI
  6
CONTINUOUS
 62
     7
 10
-174.30000000183341
 20
63.275523778671982
 30
0.0
 40
0.300000000001154
 50
319.9922460865493
 51
0.0
  0
LINE
  5
18C9C
  8
KI
  6
CONTINUOUS
 62
     7
 10
-186.04174243233791
 20
83.597112765331985
 30
0.0
 11
-182.0000000018336
 21
83.597112765331985
 31
0.0
  0
ARC
  5
18C9D
  8
KI
  6
CONTINUOUS
 62
     7
 10
-191.50000000183411
 20
79.297112764618305
 30
0.0
 40
0.5
 50
270.0
 51
359.99999999999329
  0
LINE
  5
18C9E
  8
KI
  6
CONTINUOUS
 62
     7
 10
-191.50000000183411
 20
78.797112764618305
 30
0.0
 11
-191.93772234166559
 21
78.797112764618191
 31
0.0
  0
LINE
  5
18C9F
  8
KI
  6
CONTINUOUS
 62
     7
 10
-191.00000000183351
 20
83.597112765331985
 30
0.0
 11
-186.95825757132911
 21
83.597112765332085
 31
0.0
  0
LINE
  5
18CA0
  8
KI
  6
CONTINUOUS
 62
     7
 10
-192.00000000183351
 20
86.097112765332
 30
0.0
 11
-190.1000000018345
 21
86.097112765332
 31
0.0
  0
LINE
  5
18CA1
  8
KI
  6
CONTINUOUS
 62
     7
 10
-192.5000000018338
 20
85.597112765331985
 30
0.0
 11
-192.50000000183479
 21
81.297112764597145
 31
0.0
  0
LINE
  5
18CA2
  8
KI
  6
CONTINUOUS
 62
     7
 10
-191.00000000183411
 20
83.597112765332085
 30
0.0
 11
-191.00000000183439
 21
79.297112764618191
 31
0.0
  0
ARC
  5
18CA3
  8
KI
  6
CONTINUOUS
 62
     7
 10
-186.50000000183351
 20
83.397112765332125
 30
0.0
 40
0.5
 50
23.5781784782078
 51
156.4218215217922
  0
ARC
  5
18CA4
  8
KI
  6
CONTINUOUS
 62
     7
 10
-181.50000000183351
 20
79.297112764618305
 30
0.0
 40
0.5
 50
180.0
 51
270.0
  0
ARC
  5
18CA5
  8
KI
  6
CONTINUOUS
 62
     7
 10
-177.9000000018336
 20
74.297112764618078
 30
0.0
 40
5.5
 50
46.186938539580368
 51
125.0968012275807
  0
LINE
  5
18CA6
  8
KI
  6
CONTINUOUS
 62
     7
 10
-181.50000000183351
 20
78.797112764618191
 30
0.0
 11
-181.062277664623
 21
78.797112764618305
 31
0.0
  0
ARC
  5
18CA7
  8
KI
  6
CONTINUOUS
 62
     7
 10
-174.3000000018333
 20
78.049445372476484
 30
0.0
 40
0.3
 50
0.0
 51
46.186938539580368
  0
LINE
  5
18CA8
  8
KI
  6
CONTINUOUS
 62
     7
 10
-174.50000000183331
 20
81.297112764597145
 30
0.0
 11
-180.50000000183351
 21
81.297112764597145
 31
0.0
  0
LINE
  5
18CA9
  8
KI
  6
CONTINUOUS
 62
     7
 10
-182.90000000183289
 20
86.097112765332
 30
0.0
 11
-181.0000000018338
 21
86.097112765331886
 31
0.0
  0
LINE
  5
18CAA
  8
KI
  6
CONTINUOUS
 62
     7
 10
-182.0000000018336
 20
79.297112764618191
 30
0.0
 11
-182.0000000018336
 21
83.597112765331985
 31
0.0
  0
LINE
  5
18CAB
  8
KI
  6
CONTINUOUS
 62
     7
 10
-180.50000000183351
 20
81.297112764597145
 30
0.0
 11
-180.50000000183351
 21
85.597112765331872
 31
0.0
  0
LINE
  5
18CAC
  8
KI
  6
CONTINUOUS
 62
     7
 10
-166.2000000018331
 20
72.822075782035213
 30
0.0
 11
-167.41589795194639
 21
72.822075782035412
 31
0.0
  0
ARC
  5
18CAD
  8
KI
  6
CONTINUOUS
 62
     7
 10
-171.28410205172071
 20
71.997075782035381
 30
0.0
 40
0.8250000000000017
 50
318.686412236938
 51
90.0
  0
ARC
  5
18CAE
  8
KI
  6
CONTINUOUS
 62
     7
 10
-169.35000000183371
 20
70.297112764607618
 30
0.0
 40
1.749999999999984
 50
138.686412236938
 51
164.64111441918641
  0
ARC
  5
18CAF
  8
KI
  6
CONTINUOUS
 62
     7
 10
-169.35000000183371
 20
70.297112764607618
 30
0.0
 40
1.7500000000000071
 50
15.35888558081326
 51
41.313587763087362
  0
ARC
  5
18CB0
  8
KI
  6
CONTINUOUS
 62
     7
 10
-167.41589795194639
 20
71.997075782035381
 30
0.0
 40
0.8250000000000046
 50
90.0
 51
221.31358776306189
  0
ARC
  5
18CB1
  8
KI
  6
CONTINUOUS
 62
     7
 10
-170.10000000183371
 20
68.998074658930719
 30
0.0
 40
0.5000000000000086
 50
172.0243128370293
 51
307.97568716295171
  0
ARC
  5
18CB2
  8
KI
  6
CONTINUOUS
 62
     7
 10
-169.35000000183371
 20
70.297112764607618
 30
0.0
 40
1.750000000000004
 50
195.35888558081311
 51
224.64111441918311
  0
ARC
  5
18CB3
  8
KI
  6
CONTINUOUS
 62
     7
 10
-168.60000000183331
 20
68.998074658930818
 30
0.0
 40
0.4999999999999046
 50
232.02431283702771
 51
7.9756871629706412
  0
ARC
  5
18CB4
  8
KI
  6
CONTINUOUS
 62
     7
 10
-169.35000000183371
 20
70.297112764607618
 30
0.0
 40
1.750000000000014
 50
255.3588855808193
 51
284.64111441918078
  0
ARC
  5
18CB5
  8
KI
  6
CONTINUOUS
 62
     7
 10
-169.35000000183371
 20
70.297112764607618
 30
0.0
 40
1.750000000000014
 50
315.35888558081791
 51
344.64111441918641
  0
ARC
  5
18CB6
  8
KI
  6
CONTINUOUS
 62
     7
 10
-167.85000000183351
 20
70.297112764607505
 30
0.0
 40
0.5000000000000153
 50
292.02431283704419
 51
67.975687162954316
  0
ARC
  5
18CB7
  8
KI
  6
CONTINUOUS
 62
     7
 10
-170.85000000183371
 20
70.297112764607505
 30
0.0
 40
0.5000000000000285
 50
112.0243128370455
 51
247.9756871629543
  0
LINE
  5
18CB8
  8
KI
  6
CONTINUOUS
 62
     7
 10
-167.90000000183301
 20
97.79711276461785
 30
0.0
 11
-221.7000000018343
 21
97.79711276461785
 31
0.0
  0
LINE
  5
18CB9
  8
KI
  6
CONTINUOUS
 62
     7
 10
-215.8000000018049
 20
96.497112764618223
 30
0.0
 11
-221.7000000018343
 21
96.49711276461781
 31
0.0
  0
LINE
  5
18CBA
  8
KI
  6
CONTINUOUS
 62
     7
 10
-222.00000000183411
 20
96.797112764617708
 30
0.0
 11
-222.00000000183411
 21
97.497112764617881
 31
0.0
  0
ARC
  5
18CBB
  8
KI
  6
CONTINUOUS
 62
     7
 10
-221.7000000018343
 20
96.797112764617708
 30
0.0
 40
0.3
 50
179.99999999999341
 51
270.0
  0
ARC
  5
18CBC
  8
KI
  6
CONTINUOUS
 62
     7
 10
-221.70000000183401
 20
97.497112764617881
 30
0.0
 40
0.3
 50
90.0
 51
179.99999999999341
  0
LINE
  5
18CBD
  8
KI
  6
CONTINUOUS
 62
     7
 10
-202.000000001833
 20
96.497112764617881
 30
0.0
 11
-211.20000000180431
 21
96.497112764617881
 31
0.0
  0
LINE
  5
18CBE
  8
KI
  6
CONTINUOUS
 62
     7
 10
-200.50000000183309
 20
90.797112764617836
 30
0.0
 11
-200.50000000183309
 21
94.997112764617881
 31
0.0
  0
ARC
  5
18CBF
  8
KI
  6
CONTINUOUS
 62
     7
 10
-186.50000000183351
 20
88.097112765331872
 30
0.0
 40
3.399999999999987
 50
337.3801350519538
 51
41.313587763061932
  0
ARC
  5
18CC0
  8
KI
  6
CONTINUOUS
 62
     7
 10
-188.43410205172111
 20
89.797075782759634
 30
0.0
 40
0.8250000000000017
 50
318.686412236938
 51
138.686412236938
  0
ARC
  5
18CC1
  8
KI
  6
CONTINUOUS
 62
     7
 10
-186.50000000183351
 20
88.097112765331872
 30
0.0
 40
3.399999999999987
 50
138.686412236938
 51
202.619864948046
  0
ARC
  5
18CC2
  8
KI
  6
CONTINUOUS
 62
     7
 10
-187.2500000018338
 20
86.798074659655185
 30
0.0
 40
0.5000000000000086
 50
172.0243128370293
 51
307.97568716295171
  0
ARC
  5
18CC3
  8
KI
  6
CONTINUOUS
 62
     7
 10
-186.50000000183351
 20
88.097112765331872
 30
0.0
 40
1.750000000000004
 50
195.35888558081311
 51
224.64111441918311
  0
ARC
  5
18CC4
  8
KI
  6
CONTINUOUS
 62
     7
 10
-186.50000000183351
 20
88.097112765331872
 30
0.0
 40
1.749999999999984
 50
138.686412236938
 51
164.64111441918641
  0
ARC
  5
18CC5
  8
KI
  6
CONTINUOUS
 62
     7
 10
-188.0000000018338
 20
88.097112765331985
 30
0.0
 40
0.5000000000000285
 50
112.0243128370455
 51
247.9756871629543
  0
ARC
  5
18CC6
  8
KI
  6
CONTINUOUS
 62
     7
 10
-185.75000000183351
 20
86.798074659655185
 30
0.0
 40
0.4999999999999046
 50
232.02431283702771
 51
7.9756871629706412
  0
ARC
  5
18CC7
  8
KI
  6
CONTINUOUS
 62
     7
 10
-186.50000000183351
 20
88.097112765331872
 30
0.0
 40
1.750000000000014
 50
315.35888558081791
 51
344.64111441918641
  0
ARC
  5
18CC8
  8
KI
  6
CONTINUOUS
 62
     7
 10
-186.50000000183351
 20
88.097112765331872
 30
0.0
 40
1.750000000000014
 50
255.3588855808193
 51
284.64111441918078
  0
ARC
  5
18CC9
  8
KI
  6
CONTINUOUS
 62
     7
 10
-186.50000000183351
 20
88.097112765331872
 30
0.0
 40
1.7500000000000071
 50
15.35888558081326
 51
41.313587763087362
  0
ARC
  5
18CCA
  8
KI
  6
CONTINUOUS
 62
     7
 10
-185.0000000018338
 20
88.097112765331985
 30
0.0
 40
0.5000000000000153
 50
292.02431283704419
 51
67.975687162954316
  0
ARC
  5
18CCB
  8
KI
  6
CONTINUOUS
 62
     7
 10
-184.5658979519464
 20
89.797075782759634
 30
0.0
 40
0.8250000000000046
 50
41.313587763061932
 51
221.31358776306189
  0
LINE
  5
18CCC
  8
KI
  6
CONTINUOUS
 62
     7
 10
-200.50000000183309
 20
90.797112764617836
 30
0.0
 11
-205.50000000183351
 21
91.997112764617782
 31
0.0
  0
LINE
  5
18CCD
  8
KI
  6
CONTINUOUS
 62
     7
 10
-200.5000000018338
 20
89.563036591928139
 30
0.0
 11
-205.50000000183351
 21
90.763036591928312
 31
0.0
  0
LINE
  5
18CCE
  8
KI
  6
CONTINUOUS
 62
     7
 10
-208.2400237733184
 20
91.339507059461326
 30
0.0
 11
-205.50000000183351
 21
91.997112764617782
 31
0.0
  0
LINE
  5
18CCF
  8
KI
  6
CONTINUOUS
 62
     7
 10
-207.9599762303483
 20
90.172642297084693
 30
0.0
 11
-205.50000000183351
 21
90.763036591928312
 31
0.0
  0
ARC
  5
18CD0
  8
KI
  6
CONTINUOUS
 62
     7
 10
-208.10000000183351
 20
90.756074678273094
 30
0.0
 40
0.6000000000000015
 50
103.49573328079219
 51
283.49573328079202
  0
ARC
  5
18CD1
  8
KI
  6
CONTINUOUS
 62
     7
 10
-202.000000001833
 20
94.997112764617881
 30
0.0
 40
1.5
 50
0.0
 51
90.0
  0
ARC
  5
18CD2
  8
KI
  6
CONTINUOUS
 62
     7
 10
-199.500000001834
 20
60.797112764618298
 30
0.0
 40
1.0
 50
180.00000000001299
 51
270.0
  0
LINE
  5
18CD3
  8
KI
  6
CONTINUOUS
 62
     7
 10
-200.50000000183391
 20
60.797112664618112
 30
0.0
 11
-201.00000010183359
 21
60.797112664618112
 31
0.0
  0
LINE
  5
18CD4
  8
KI
  6
CONTINUOUS
 62
     7
 10
-203.59042906098091
 20
58.20668370547093
 30
0.0
 11
-201.00000010183359
 21
60.797112664618112
 31
0.0
  0
LINE
  5
18CD5
  8
KI
  6
CONTINUOUS
 62
     7
 10
-200.50000000183391
 20
62.297112664618112
 30
0.0
 11
-201.4142136642069
 21
62.297112664618112
 31
0.0
  0
ARC
  5
18CD6
  8
KI
  6
CONTINUOUS
 62
     7
 10
-201.4142136642069
 20
61.797112664618112
 30
0.0
 40
0.5
 50
90.0
 51
135.00000000000921
  0
LINE
  5
18CD7
  8
KI
  6
CONTINUOUS
 62
     7
 10
-164.9000000018336
 20
48.447112764617941
 30
0.0
 11
-164.90000000183301
 21
94.79711276461785
 31
0.0
  0
ARC
  5
18CD8
  8
KI
  6
CONTINUOUS
 62
     7
 10
-165.55000000183369
 20
48.447112764617941
 30
0.0
 40
0.6500000000002065
 50
180.0
 51
0.0
  0
ARC
  5
18CD9
  8
KI
  6
CONTINUOUS
 62
     7
 10
-167.90000000183301
 20
94.79711276461785
 30
0.0
 40
3.0
 50
0.0
 51
90.0
  0
ARC
  5
18CDA
  8
KI
  6
CONTINUOUS
 62
     7
 10
-174.50000000183331
 20
79.297112764597173
 30
0.0
 40
2.0
 50
0.0
 51
90.0
  0
LINE
  5
18CDB
  8
KI
  6
CONTINUOUS
 62
     7
 10
-167.90000000183301
 20
96.497112764617654
 30
0.0
 11
-197.50000000183471
 21
96.497112764617555
 31
0.0
  0
ARC
  5
18CDC
  8
KI
  6
CONTINUOUS
 62
     7
 10
-167.90000000183301
 20
94.797112764617694
 30
0.0
 40
1.7
 50
0.0
 51
90.0
  0
LINE
  5
18CDD
  8
KI
  6
CONTINUOUS
 62
     7
 10
-166.2000000018335
 20
72.822075782035313
 30
0.0
 11
-166.2000000018331
 21
94.797112764617694
 31
0.0
  0
ARC
  5
18CDE
  8
KI
  6
CONTINUOUS
 62
     7
 10
-197.50000000183471
 20
94.997112764617555
 30
0.0
 40
1.5
 50
90.0
 51
180.0
  0
ARC
  5
18CDF
  8
KI
  6
CONTINUOUS
 62
     7
 10
-211.30000000180439
 20
95.097112764617805
 30
0.0
 40
0.3
 50
249.06874963233841
 51
8.2560670415521216
  0
LINE
  5
18CE0
  8
KI
  6
CONTINUOUS
 62
     7
 10
-211.20000000180431
 20
96.497112764617881
 30
0.0
 11
-211.00310914574709
 21
95.140191989185041
 31
0.0
  0
LINE
  5
18CE1
  8
KI
  6
CONTINUOUS
 62
     7
 10
-215.8000000018049
 20
96.497112764618223
 30
0.0
 11
-211.40717424632231
 21
94.816909835810719
 31
0.0
  0
ARC
  5
18CE2
  8
KI
  6
CONTINUOUS
 62
     7
 10
-220.7999999999993
 20
85.797112766452287
 30
0.0
 40
0.5
 50
113.57817847819319
 51
246.42182152179251
  0
LINE
  5
18CE3
  8
KI
  6
CONTINUOUS
 62
     7
 10
-222.99999999999989
 20
83.297112766452415
 30
0.0
 11
-222.9999999999994
 21
88.297112766452287
 31
0.0
  0
LINE
  5
18CE4
  8
KI
  6
CONTINUOUS
 62
     7
 10
-206.49999999999989
 20
52.997112766452581
 30
0.0
 11
-206.49999999999989
 21
52.297112766452742
 31
0.0
  0
LINE
  5
18CE5
  8
KI
  6
CONTINUOUS
 62
     7
 10
-223.0000000000006
 20
52.297112766452642
 30
0.0
 11
-223.00000000000031
 21
68.297112766452415
 31
0.0
  0
LINE
  5
18CE6
  8
KI
  6
CONTINUOUS
 62
     7
 10
-223.0000000000006
 20
51.297112766452628
 30
0.0
 11
-207.5
 21
51.297112766452742
 31
0.0
  0
ARC
  5
18CE7
  8
KI
  6
CONTINUOUS
 62
     7
 10
-222.99999999999909
 20
51.797112766452642
 30
0.0
 40
0.5
 50
90.000000000013017
 51
269.99999999997391
  0
ARC
  5
18CE8
  8
KI
  6
CONTINUOUS
 62
     7
 10
-207.5
 20
52.297112766452742
 30
0.0
 40
1.0
 50
270.0
 51
0.0
  0
LINE
  5
18CE9
  8
KI
  6
CONTINUOUS
 62
     7
 10
-202.12842712474611
 20
64.59711276645271
 30
0.0
 11
-200.99999999999969
 21
64.59711276645271
 31
0.0
  0
LINE
  5
18CEA
  8
KI
  6
CONTINUOUS
 62
     7
 10
-204.640429060972
 20
59.256683705480569
 30
0.0
 11
-201.30000000000001
 21
62.59711276645271
 31
0.0
  0
ARC
  5
18CEB
  8
KI
  6
CONTINUOUS
 62
     7
 10
-222.9999999999994
 20
68.797112766452415
 30
0.0
 40
0.5
 50
90.000000000013017
 51
269.99999999997391
  0
LINE
  5
18CEC
  8
KI
  6
CONTINUOUS
 62
     7
 10
-221.0000000000006
 20
53.797112766452628
 30
0.0
 11
-220.99999999999989
 21
71.338855196956956
 31
0.0
  0
LINE
  5
18CED
  8
KI
  6
CONTINUOUS
 62
     7
 10
-220.5000000000004
 20
53.297112766452628
 30
0.0
 11
-210.49999999999989
 21
53.297112766452628
 31
0.0
  0
ARC
  5
18CEE
  8
KI
  6
CONTINUOUS
 62
     7
 10
-220.5000000000004
 20
53.797112766452628
 30
0.0
 40
0.5
 50
179.99999999999341
 51
270.0
  0
LINE
  5
18CEF
  8
KI
  6
CONTINUOUS
 62
     7
 10
-209.20710678301171
 20
58.932646670560182
 30
0.0
 11
-204.96446609589239
 21
63.175287357679501
 31
0.0
  0
LINE
  5
18CF0
  8
KI
  6
CONTINUOUS
 62
     7
 10
-208.4999999999998
 20
53.297112766452628
 30
0.0
 11
-206.79999999999981
 21
53.297112766452628
 31
0.0
  0
LINE
  5
18CF1
  8
KI
  6
CONTINUOUS
 62
     7
 10
-208.49999999999989
 20
55.397112766452672
 30
0.0
 11
-205.28850313081239
 21
58.60860963564005
 31
0.0
  0
LINE
  5
18CF2
  8
KI
  6
CONTINUOUS
 62
     7
 10
-210.49999999999989
 20
56.225539891198892
 30
0.0
 11
-209.20710678301171
 21
57.518433108187061
 31
0.0
  0
LINE
  5
18CF3
  8
KI
  6
CONTINUOUS
 62
     7
 10
-210.49999999999989
 20
56.225539891198892
 30
0.0
 11
-210.49999999999989
 21
53.297112766452628
 31
0.0
  0
LINE
  5
18CF4
  8
KI
  6
CONTINUOUS
 62
     7
 10
-208.4999999999998
 20
53.297112766452628
 30
0.0
 11
-208.49999999999989
 21
55.397112766452672
 31
0.0
  0
LINE
  5
18CF5
  8
KI
  6
CONTINUOUS
 62
     7
 10
-209.20710678301171
 20
58.932646670560182
 30
0.0
 11
-209.20710678301171
 21
57.518433108187061
 31
0.0
  0
ARC
  5
18CF6
  8
KI
  6
CONTINUOUS
 62
     7
 10
-206.79999999999981
 20
52.997112766452581
 30
0.0
 40
0.3
 50
0.0
 51
90.0
  0
ARC
  5
18CF7
  8
KI
  6
CONTINUOUS
 62
     7
 10
-204.82304473965479
 20
58.791225314322787
 30
0.0
 40
0.5
 50
68.578178478202616
 51
201.42182152181161
  0
LINE
  5
18CF8
  8
KI
  6
CONTINUOUS
 62
     7
 10
-204.96446609589239
 20
63.175287357679501
 30
0.0
 11
-203.55025253351911
 21
63.175287357679501
 31
0.0
  0
LINE
  5
18CF9
  8
KI
  6
CONTINUOUS
 62
     7
 10
-203.55025253351911
 20
63.175287357679501
 30
0.0
 11
-202.12842712474611
 21
64.59711276645271
 31
0.0
  0
LINE
  5
18CFA
  8
KI
  6
CONTINUOUS
 62
     7
 10
-221.0
 20
72.255370335947546
 30
0.0
 11
-220.9999999999994
 21
85.338855196956942
 31
0.0
  0
LINE
  5
18CFB
  8
KI
  6
CONTINUOUS
 62
     7
 10
-223.0
 20
75.297112766452415
 30
0.0
 11
-222.99999999999989
 21
82.297112766452415
 31
0.0
  0
LINE
  5
18CFC
  8
KI
  6
CONTINUOUS
 62
     7
 10
-223.00000000000031
 20
69.297112766452415
 30
0.0
 11
-223.0
 21
74.297112766452415
 31
0.0
  0
ARC
  5
18CFD
  8
KI
  6
CONTINUOUS
 62
     7
 10
-220.7999999999993
 20
71.797112766452287
 30
0.0
 40
0.5
 50
113.57817847819319
 51
246.42182152179251
  0
ARC
  5
18CFE
  8
KI
  6
CONTINUOUS
 62
     7
 10
-222.9999999999994
 20
74.797112766452415
 30
0.0
 40
0.5
 50
90.0
 51
270.0
  0
ARC
  5
18CFF
  8
KI
  6
CONTINUOUS
 62
     7
 10
-222.9999999999994
 20
82.797112766452415
 30
0.0
 40
0.5
 50
90.000000000013017
 51
269.99999999997391
  0
ARC
  5
18D00
  8
KI
  6
CONTINUOUS
 62
     7
 10
-200.99999999999969
 20
64.297112766452756
 30
0.0
 40
0.3
 50
0.0
 51
90.0
  0
LINE
  5
18D01
  8
KI
  6
CONTINUOUS
 62
     7
 10
-201.30000000000001
 20
62.59711276645271
 30
0.0
 11
-200.9999999999998
 21
62.59711276645271
 31
0.0
  0
ARC
  5
18D02
  8
KI
  6
CONTINUOUS
 62
     7
 10
-200.9999999999998
 20
62.897112766452672
 30
0.0
 40
0.3
 50
270.0
 51
0.0
  0
LINE
  5
18D03
  8
KI
  6
CONTINUOUS
 62
     7
 10
-200.6999999999999
 20
62.897112766452672
 30
0.0
 11
-200.6999999999997
 21
64.297112766452756
 31
0.0
  0
LINE
  5
18D04
  8
KI
  6
CONTINUOUS
 62
     7
 10
-216.0000000000004
 20
96.497112766463047
 30
0.0
 11
-211.0000000000006
 21
94.497112766463019
 31
0.0
  0
LINE
  5
18D05
  8
KI
  6
CONTINUOUS
 62
     7
 10
-216.23109888425441
 20
95.297112766452287
 30
0.0
 11
-211.17139067635449
 21
93.273229483292425
 31
0.0
  0
LINE
  5
18D06
  8
KI
  6
CONTINUOUS
 62
     7
 10
-222.9999999999994
 20
89.297112766452287
 30
0.0
 11
-222.9999999999998
 21
95.497112766452346
 31
0.0
  0
LINE
  5
18D07
  8
KI
  6
CONTINUOUS
 62
     7
 10
-220.99999999999909
 20
86.255370335948086
 30
0.0
 11
-220.9999999999994
 21
94.297112766452258
 31
0.0
  0
ARC
  5
18D08
  8
KI
  6
CONTINUOUS
 62
     7
 10
-222.9999999999994
 20
88.797112766452287
 30
0.0
 40
0.5
 50
90.0
 51
270.0
  0
LINE
  5
18D09
  8
KI
  6
CONTINUOUS
 62
     7
 10
-222.99999999999989
 20
96.497112766452346
 30
0.0
 11
-215.99999999997999
 21
96.497112766452346
 31
0.0
1001
GENIUS_GENOBJ-N-CEN_13
1002
{
1000
OWNER
1000
GEN
1002
}
1001
GENIUS_GENODEF_13
1002
{
1000
HIER
1070
     0
1002
}
1002
{
1000
MANEDIT
1070
     0
1002
}
1002
{
1000
NOSEL
1070
     0
1002
}
1002
{
1000
BEHIND
1070
     0
1002
}
1002
{
1000
OTHER
1070
     0
1002
}
1002
{
1000
REACTOR
1002
}
  0
LINE
  5
18D0A
  8
KI
  6
CONTINUOUS
 62
     7
 10
-219.99999999999969
 20
95.297112766452287
 30
0.0
 11
-216.23109888425441
 21
95.297112766452287
 31
0.0
1001
GENIUS_GENOBJ-N-CEN_13
1002
{
1000
OWNER
1000
GEN
1002
}
1001
GENIUS_GENODEF_13
1002
{
1000
HIER
1070
     0
1002
}
1002
{
1000
MANEDIT
1070
     0
1002
}
1002
{
1000
NOSEL
1070
     0
1002
}
1002
{
1000
BEHIND
1070
     0
1002
}
1002
{
1000
OTHER
1070
     0
1002
}
1002
{
1000
REACTOR
1002
}
  0
ARC
  5
18D0B
  8
KI
  6
CONTINUOUS
 62
     7
 10
-222.9999999999998
 20
95.997112766452346
 30
0.0
 40
0.5
 50
90.0
 51
270.0
  0
ARC
  5
18D0C
  8
KI
  6
CONTINUOUS
 62
     7
 10
-219.99999999999969
 20
94.297112766452258
 30
0.0
 40
1.0
 50
90.0
 51
180.0
  0
ARC
  5
18D0D
  8
KI
  6
CONTINUOUS
 62
     7
 10
-210.80000000000041
 20
94.201706174177573
 30
0.0
 40
1.0
 50
248.19859051364219
 51
0.0
  0
LINE
  5
18D0E
  8
KI
  6
CONTINUOUS
 62
     7
 10
-209.80000000000041
 20
94.512728103896507
 30
0.0
 11
-204.7257174532389
 21
93.425381843876266
 31
0.0
  0
ARC
  5
18D0F
  8
KI
  6
CONTINUOUS
 62
     7
 10
-204.60000000000039
 20
94.012063292322637
 30
0.0
 40
0.5999999999999535
 50
257.90524292298278
 51
77.90524292298781
  0
LINE
  5
18D10
  8
KI
  6
CONTINUOUS
 62
     7
 10
-211.0000000000006
 20
95.997112766463047
 30
0.0
 11
-204.4742825467618
 21
94.598744740769121
 31
0.0
  0
LINE
  5
18D11
  8
KI
  6
CONTINUOUS
 62
     7
 10
-211.0000000000006
 20
95.997112766463047
 30
0.0
 11
-211.0000000000006
 21
94.497112766463019
 31
0.0
  0
LINE
  5
18D12
  8
KI
  6
CONTINUOUS
 62
     7
 10
-209.80000000000041
 20
94.201706174177573
 30
0.0
 11
-209.80000000000041
 21
94.512728103896507
 31
0.0
  0
LINE
  5
18D13
  8
KI
  6
CONTINUOUS
 62
     7
 10
-217.9999999999992
 20
27.297112766452749
 30
0.0
 11
-358.99999999999898
 21
27.297112766452749
 31
0.0
  0
LINE
  5
18D14
  8
KI
  6
CONTINUOUS
 62
     7
 10
-361.5
 20
51.297112766452742
 30
0.0
 11
-215.5000000000002
 21
51.297112766452742
 31
0.0
  0
LINE
  5
18D15
  8
KI
  6
CONTINUOUS
 62
     7
 10
-361.49999999999909
 20
29.797112766452749
 30
0.0
 11
-361.5
 21
51.297112766452742
 31
0.0
  0
LINE
  5
18D16
  8
KI
  6
CONTINUOUS
 62
     7
 10
-361.49999999999909
 20
29.797112766452749
 30
0.0
 11
-358.99999999999898
 21
27.297112766452749
 31
0.0
  0
LINE
  5
18D17
  8
KI
  6
CONTINUOUS
 62
     7
 10
-215.5000000000002
 20
51.297112766452742
 30
0.0
 11
-215.4999999999992
 21
29.797112766452749
 31
0.0
  0
LINE
  5
18D18
  8
KI
  6
CONTINUOUS
 62
     7
 10
-217.9999999999992
 20
27.297112766452749
 30
0.0
 11
-215.4999999999992
 21
29.797112766452749
 31
0.0
  0
ARC
  5
18D19
  8
KI
  6
CONTINUOUS
 62
     7
 10
-184.5000000018336
 20
-137.70288723538201
 30
0.0
 40
2.0
 50
0.0
 51
90.0
  0
ARC
  5
18D1A
  8
KI
  6
CONTINUOUS
 62
     7
 10
-188.5000000018338
 20
-137.70288723538201
 30
0.0
 40
2.0
 50
90.0
 51
180.0
  0
LINE
  5
18D1B
  8
KI
  6
CONTINUOUS
 62
     7
 10
-189.7500000018338
 20
-149.20288723538221
 30
0.0
 11
-194.2500000018338
 21
-149.20288723538221
 31
0.0
  0
LINE
  5
18D1C
  8
KI
  6
CONTINUOUS
 62
     7
 10
-176.7500000018338
 20
-152.20288723538201
 30
0.0
 11
-196.2500000018336
 21
-152.20288723538201
 31
0.0
  0
ARC
  5
18D1D
  8
KI
  6
CONTINUOUS
 62
     7
 10
-194.2500000018338
 20
-151.20288723538201
 30
0.0
 40
2.0
 50
90.000002504475205
 51
180.0000050089568
  0
LINE
  5
18D1E
  8
KI
  6
CONTINUOUS
 62
     7
 10
-196.2500000018336
 20
-151.20288723538201
 30
0.0
 11
-196.2500000018336
 21
-152.20288723538201
 31
0.0
  0
LINE
  5
18D1F
  8
KI
  6
CONTINUOUS
 62
     7
 10
-178.7500000018338
 20
-149.20288723538221
 30
0.0
 11
-183.2500000018336
 21
-149.20288723538221
 31
0.0
  0
ARC
  5
18D20
  8
KI
  6
CONTINUOUS
 62
     7
 10
-182.0000000018336
 20
-146.99578045419551
 30
0.0
 40
0.5
 50
180.0
 51
225.0
1001
GENIUS_GENFIL_13
1070
     0
1040
2.0
1040
2.0
1040
20.0
1040
0.0
1002
{
1002
}
1001
GENIUS_GENOBJ-N-CHA_13
1002
{
1000
OWNER
1000
GEN
1002
}
1001
GENIUS_GENODEF_13
1002
{
1000
HIER
1070
     0
1002
}
1002
{
1000
MANEDIT
1070
     0
1002
}
1002
{
1000
NOSEL
1070
     0
1002
}
1002
{
1000
BEHIND
1070
     0
1002
}
1002
{
1000
OTHER
1070
     0
1002
}
1002
{
1000
REACTOR
1002
}
1001
GENIUS_GENOBJ-N-FIL_13
1002
{
1000
OWNER
1000
GEN
1002
}
  0
LINE
  5
18D21
  8
KI
  6
CONTINUOUS
 62
     7
 10
-183.2500000018336
 20
-149.20288723538221
 30
0.0
 11
-183.2500000018336
 21
-152.20288723538201
 31
0.0
  0
LINE
  5
18D22
  8
KI
  6
CONTINUOUS
 62
     7
 10
-183.75000000183351
 20
-149.20288723538221
 30
0.0
 11
-183.75000000183351
 21
-152.20288723538201
 31
0.0
  0
LINE
  5
18D23
  8
KI
  6
CONTINUOUS
 62
     7
 10
-184.75000000183351
 20
-149.20288723538221
 30
0.0
 11
-184.75000000183351
 21
-152.20288723538201
 31
0.0
  0
LINE
  5
18D24
  8
KI
  6
CONTINUOUS
 62
     7
 10
-184.2500000018338
 20
-149.20288723538221
 30
0.0
 11
-184.2500000018338
 21
-152.20288723538201
 31
0.0
  0
ARC
  5
18D25
  8
KI
  6
CONTINUOUS
 62
     7
 10
-183.5000000018338
 20
-149.20288723538221
 30
0.0
 40
0.25
 50
0.0
 51
180.0000050089568
  0
ARC
  5
18D26
  8
KI
  6
CONTINUOUS
 62
     7
 10
-184.5000000018336
 20
-149.20288723538221
 30
0.0
 40
0.25
 50
0.0
 51
180.0000050089568
  0
LINE
  5
18D27
  8
KI
  6
CONTINUOUS
 62
     7
 10
-183.75000000183351
 20
-149.20288723538221
 30
0.0
 11
-184.2500000018338
 21
-149.20288723538221
 31
0.0
  0
LINE
  5
18D28
  8
KI
  6
CONTINUOUS
 62
     7
 10
-187.75000000183351
 20
-149.20288723538221
 30
0.0
 11
-187.75000000183351
 21
-152.20288723538201
 31
0.0
  0
LINE
  5
18D29
  8
KI
  6
CONTINUOUS
 62
     7
 10
-187.2500000018338
 20
-149.20288723538221
 30
0.0
 11
-187.2500000018338
 21
-152.20288723538201
 31
0.0
  0
LINE
  5
18D2A
  8
KI
  6
CONTINUOUS
 62
     7
 10
-185.75000000183351
 20
-149.20288723538221
 30
0.0
 11
-185.75000000183351
 21
-152.20288723538201
 31
0.0
  0
LINE
  5
18D2B
  8
KI
  6
CONTINUOUS
 62
     7
 10
-185.2500000018338
 20
-149.20288723538221
 30
0.0
 11
-185.2500000018338
 21
-152.20288723538201
 31
0.0
  0
LINE
  5
18D2C
  8
KI
  6
CONTINUOUS
 62
     7
 10
-186.2500000018338
 20
-149.20288723538221
 30
0.0
 11
-186.2500000018338
 21
-152.20288723538201
 31
0.0
  0
LINE
  5
18D2D
  8
KI
  6
CONTINUOUS
 62
     7
 10
-186.75000000183351
 20
-149.20288723538221
 30
0.0
 11
-186.75000000183351
 21
-152.20288723538201
 31
0.0
  0
ARC
  5
18D2E
  8
KI
  6
CONTINUOUS
 62
     7
 10
-187.5000000018338
 20
-149.20288723538221
 30
0.0
 40
0.25
 50
0.0
 51
180.0000050089568
  0
ARC
  5
18D2F
  8
KI
  6
CONTINUOUS
 62
     7
 10
-185.50000000183351
 20
-149.20288723538221
 30
0.0
 40
0.25
 50
0.0
 51
180.0000050089568
  0
ARC
  5
18D30
  8
KI
  6
CONTINUOUS
 62
     7
 10
-186.50000000183351
 20
-149.20288723538221
 30
0.0
 40
0.25
 50
0.0
 51
180.0000050089568
  0
LINE
  5
18D31
  8
KI
  6
CONTINUOUS
 62
     7
 10
-185.75000000183351
 20
-149.20288723538221
 30
0.0
 11
-186.2500000018338
 21
-149.20288723538221
 31
0.0
  0
LINE
  5
18D32
  8
KI
  6
CONTINUOUS
 62
     7
 10
-186.75000000183351
 20
-149.20288723538221
 30
0.0
 11
-187.2500000018338
 21
-149.20288723538221
 31
0.0
  0
LINE
  5
18D33
  8
KI
  6
CONTINUOUS
 62
     7
 10
-184.75000000183351
 20
-149.20288723538221
 30
0.0
 11
-185.2500000018338
 21
-149.20288723538221
 31
0.0
  0
LINE
  5
18D34
  8
KI
  6
CONTINUOUS
 62
     7
 10
-182.5000000018338
 20
-137.70288723538201
 30
0.0
 11
-182.5000000018338
 21
-146.99578045419551
 31
0.0
  0
ARC
  5
18D35
  8
KI
  6
CONTINUOUS
 62
     7
 10
-191.00000000183351
 20
-146.99578045419551
 30
0.0
 40
0.5
 50
315.0
 51
0.0
1001
GENIUS_GENODEF_13
1002
{
1000
HIER
1070
     0
1002
}
1002
{
1000
MANEDIT
1070
     0
1002
}
1002
{
1000
NOSEL
1070
     0
1002
}
1002
{
1000
BEHIND
1070
     0
1002
}
1002
{
1000
OTHER
1070
     0
1002
}
1002
{
1000
REACTOR
1002
}
1001
GENIUS_GENOBJ-N-FIL_13
1002
{
1000
OWNER
1000
GEN
1002
}
  0
LINE
  5
18D36
  8
KI
  6
CONTINUOUS
 62
     7
 10
-188.7500000018338
 20
-149.20288723538221
 30
0.0
 11
-188.7500000018338
 21
-152.20288723538201
 31
0.0
  0
LINE
  5
18D37
  8
KI
  6
CONTINUOUS
 62
     7
 10
-188.2500000018336
 20
-149.20288723538221
 30
0.0
 11
-188.2500000018336
 21
-152.20288723538201
 31
0.0
  0
LINE
  5
18D38
  8
KI
  6
CONTINUOUS
 62
     7
 10
-189.2500000018338
 20
-149.20288723538221
 30
0.0
 11
-189.2500000018338
 21
-152.20288723538201
 31
0.0
  0
LINE
  5
18D39
  8
KI
  6
CONTINUOUS
 62
     7
 10
-189.7500000018338
 20
-149.20288723538221
 30
0.0
 11
-189.7500000018338
 21
-152.20288723538201
 31
0.0
  0
ARC
  5
18D3A
  8
KI
  6
CONTINUOUS
 62
     7
 10
-188.5000000018338
 20
-149.20288723538221
 30
0.0
 40
0.25
 50
0.0
 51
180.0000050089568
  0
ARC
  5
18D3B
  8
KI
  6
CONTINUOUS
 62
     7
 10
-188.5000000018338
 20
-149.20288723538221
 30
0.0
 40
0.25
 50
0.0
 51
180.0000050089568
  0
ARC
  5
18D3C
  8
KI
  6
CONTINUOUS
 62
     7
 10
-189.5000000018336
 20
-149.20288723538221
 30
0.0
 40
0.25
 50
0.0
 51
180.0000050089568
  0
ARC
  5
18D3D
  8
KI
  6
CONTINUOUS
 62
     7
 10
-189.5000000018336
 20
-149.20288723538221
 30
0.0
 40
0.25
 50
0.0
 51
180.0000050089568
  0
LINE
  5
18D3E
  8
KI
  6
CONTINUOUS
 62
     7
 10
-188.7500000018338
 20
-149.20288723538221
 30
0.0
 11
-189.2500000018338
 21
-149.20288723538221
 31
0.0
  0
LINE
  5
18D3F
  8
KI
  6
CONTINUOUS
 62
     7
 10
-192.5000000018338
 20
-149.20288723538221
 30
0.0
 11
-190.64644661124041
 21
-147.34933384478879
 31
0.0
1001
GENIUS_GENFIL_13
1070
     0
1040
2.0
1040
2.0
1040
20.0
1040
0.0
1002
{
1002
}
1001
GENIUS_GENOBJ-N-CHA_13
1002
{
1000
OWNER
1000
GEN
1002
}
1001
GENIUS_GENODEF_13
1002
{
1000
HIER
1070
     0
1002
}
1002
{
1000
MANEDIT
1070
     0
1002
}
1002
{
1000
NOSEL
1070
     0
1002
}
1002
{
1000
BEHIND
1070
     0
1002
}
1002
{
1000
OTHER
1070
     0
1002
}
1002
{
1000
REACTOR
1002
}
  0
LINE
  5
18D40
  8
KI
  6
CONTINUOUS
 62
     7
 10
-190.5000000018338
 20
-137.70288723538201
 30
0.0
 11
-190.5000000018338
 21
-146.99578045419551
 31
0.0
  0
LINE
  5
18D41
  8
KI
  6
CONTINUOUS
 62
     7
 10
-190.5000000018338
 20
-147.20288723538221
 30
0.0
 11
-182.5000000018338
 21
-147.20288723538221
 31
0.0
  0
LINE
  5
18D42
  8
KI
  6
CONTINUOUS
 62
     7
 10
-187.75000000183351
 20
-149.20288723538221
 30
0.0
 11
-188.2500000018336
 21
-149.20288723538221
 31
0.0
  0
LINE
  5
18D43
  8
KI
  6
CONTINUOUS
 62
     7
 10
-182.3535533924269
 20
-147.34933384478879
 30
0.0
 11
-180.50000000183351
 21
-149.20288723538221
 31
0.0
1001
GENIUS_GENFIL_13
1070
     0
1040
2.0
1040
2.0
1040
20.0
1040
0.0
1002
{
1002
}
1001
GENIUS_GENOBJ-N-CHA_13
1002
{
1000
OWNER
1000
GEN
1002
}
1001
GENIUS_GENODEF_13
1002
{
1000
HIER
1070
     0
1002
}
1002
{
1000
MANEDIT
1070
     0
1002
}
1002
{
1000
NOSEL
1070
     0
1002
}
1002
{
1000
BEHIND
1070
     0
1002
}
1002
{
1000
OTHER
1070
     0
1002
}
1002
{
1000
REACTOR
1002
}
  0
LINE
  5
18D44
  8
KI
  6
CONTINUOUS
 62
     7
 10
-176.7500000018338
 20
-152.20288723538201
 30
0.0
 11
-176.7500000018338
 21
-151.20288723538201
 31
0.0
  0
ARC
  5
18D45
  8
KI
  6
CONTINUOUS
 62
     7
 10
-178.7500000018338
 20
-151.20288723538201
 30
0.0
 40
2.0
 50
0.0
 51
90.000002504475205
  0
LINE
  5
18D46
  8
KI
  6
CONTINUOUS
 62
     7
 10
-184.5000000018336
 20
-135.70288723538221
 30
0.0
 11
-188.5000000018338
 21
-135.70288723538221
 31
0.0
  0
LINE
  5
18D47
  8
SU
  6
CONTINUOUS
 62
     3
 10
-105.89999417934411
 20
-142.2028830544086
 30
0.0
 11
-93.899997979344221
 21
-142.2028830544086
 31
0.0
  0
LINE
  5
18D48
  8
SU
  6
CONTINUOUS
 62
     3
 10
-105.779994279344
 20
-142.4028828544086
 30
0.0
 11
-94.019997879344274
 21
-142.4028828544086
 31
0.0
  0
LINE
  5
18D49
  8
SU
  6
CONTINUOUS
 62
     3
 10
-105.6599943793441
 20
-142.6028826544084
 30
0.0
 11
-94.139997779344185
 21
-142.6028826544084
 31
0.0
  0
LINE
  5
18D4A
  8
SU
  6
CONTINUOUS
 62
     3
 10
-105.5399944793442
 20
-142.80288245440829
 30
0.0
 11
-94.259997679344195
 21
-142.80288245440829
 31
0.0
  0
LINE
  5
18D4B
  8
SU
  6
CONTINUOUS
 62
     3
 10
-105.41999457934411
 20
-143.00288225440841
 30
0.0
 11
-94.379997479344183
 21
-143.00288225440841
 31
0.0
  0
LINE
  5
18D4C
  8
SU
  6
CONTINUOUS
 62
     3
 10
-105.2999947793441
 20
-143.20288205440841
 30
0.0
 11
-94.499997379344222
 21
-143.20288205440841
 31
0.0
  0
LINE
  5
18D4D
  8
SU
  6
CONTINUOUS
 62
     3
 10
-105.17999487934399
 20
-143.4028819544086
 30
0.0
 11
-94.619997279344275
 21
-143.4028819544086
 31
0.0
  0
LINE
  5
18D4E
  8
SU
  6
CONTINUOUS
 62
     3
 10
-105.0599958793442
 20
-143.6028817544086
 30
0.0
 11
-94.739997179344201
 21
-143.6028817544086
 31
0.0
  0
LINE
  5
18D4F
  8
SU
  6
CONTINUOUS
 62
     3
 10
-104.9399960793441
 20
-143.8028815544086
 30
0.0
 11
-94.859997079344197
 21
-143.8028815544086
 31
0.0
  0
LINE
  5
18D50
  8
SU
  6
CONTINUOUS
 62
     3
 10
-104.8199961793442
 20
-144.0028813544086
 30
0.0
 11
-94.979996979344278
 21
-144.0028813544086
 31
0.0
  0
LINE
  5
18D51
  8
SU
  6
CONTINUOUS
 62
     3
 10
-104.69999627934411
 20
-144.2028811544084
 30
0.0
 11
-95.099996879344189
 21
-144.2028811544084
 31
0.0
  0
LINE
  5
18D52
  8
SU
  6
CONTINUOUS
 62
     3
 10
-104.579996379344
 20
-144.40288095440869
 30
0.0
 11
-95.219996679344277
 21
-144.40288095440869
 31
0.0
  0
LINE
  5
18D53
  8
SU
  6
CONTINUOUS
 62
     3
 10
-104.4599964793442
 20
-144.6028807544086
 30
0.0
 11
-95.339996579344216
 21
-144.6028807544086
 31
0.0
  0
LINE
  5
18D54
  8
SU
  6
CONTINUOUS
 62
     3
 10
-104.339996579344
 20
-144.80288055440829
 30
0.0
 11
-95.459996479344198
 21
-144.80288055440829
 31
0.0
  0
LINE
  5
18D55
  8
SU
  6
CONTINUOUS
 62
     3
 10
-104.0999968793441
 20
-145.2028801544084
 30
0.0
 11
-95.699996279344205
 21
-145.2028801544084
 31
0.0
  0
LINE
  5
18D56
  8
SU
  6
CONTINUOUS
 62
     3
 10
-104.21999667934411
 20
-145.0028803544084
 30
0.0
 11
-95.579996379344266
 21
-145.0028803544084
 31
0.0
  0
LINE
  5
18D57
  8
SU
  6
CONTINUOUS
 62
     3
 10
-103.379997479344
 20
-146.4028790544086
 30
0.0
 11
-96.419995579344246
 21
-146.4028790544086
 31
0.0
  0
LINE
  5
18D58
  8
SU
  6
CONTINUOUS
 62
     3
 10
-103.2599985793442
 20
-146.6028788544086
 30
0.0
 11
-96.53999547934427
 21
-146.6028788544086
 31
0.0
  0
LINE
  5
18D59
  8
SU
  6
CONTINUOUS
 62
     3
 10
-103.1399986793442
 20
-146.8028786544086
 30
0.0
 11
-96.659995379344195
 21
-146.8028786544086
 31
0.0
  0
LINE
  5
18D5A
  8
SU
  6
CONTINUOUS
 62
     3
 10
-103.01999877934411
 20
-147.0028784544084
 30
0.0
 11
-96.779995279344234
 21
-147.0028784544084
 31
0.0
  0
LINE
  5
18D5B
  8
SU
  6
CONTINUOUS
 62
     3
 10
-102.89999897934401
 20
-147.20287825440869
 30
0.0
 11
-96.899995079344194
 21
-147.20287825440869
 31
0.0
  0
LINE
  5
18D5C
  8
SU
  6
CONTINUOUS
 62
     3
 10
-102.77999907934399
 20
-147.4028780544084
 30
0.0
 11
-97.019994979344233
 21
-147.4028780544084
 31
0.0
  0
LINE
  5
18D5D
  8
SU
  6
CONTINUOUS
 62
     3
 10
-102.6599991793442
 20
-147.6028779544086
 30
0.0
 11
-97.139994879344286
 21
-147.6028779544086
 31
0.0
  0
LINE
  5
18D5E
  8
SU
  6
CONTINUOUS
 62
     3
 10
-102.5399992793442
 20
-147.80287775440851
 30
0.0
 11
-97.259994779344197
 21
-147.80287775440851
 31
0.0
  0
LINE
  5
18D5F
  8
SU
  6
CONTINUOUS
 62
     3
 10
-102.41999937934411
 20
-148.00287755440851
 30
0.0
 11
-97.379994679344236
 21
-148.00287755440851
 31
0.0
  0
LINE
  5
18D60
  8
SU
  6
CONTINUOUS
 62
     3
 10
-102.29999947934419
 20
-148.2028773544086
 30
0.0
 11
-97.499994579344275
 21
-148.2028773544086
 31
0.0
  0
LINE
  5
18D61
  8
SU
  6
CONTINUOUS
 62
     3
 10
-102.1799995793442
 20
-148.4028771544086
 30
0.0
 11
-97.619994479344214
 21
-148.4028771544086
 31
0.0
  0
LINE
  5
18D62
  8
SU
  6
CONTINUOUS
 62
     3
 10
-102.0600006793441
 20
-148.6028769544086
 30
0.0
 11
-97.739994279344273
 21
-148.6028769544086
 31
0.0
  0
LINE
  5
18D63
  8
SU
  6
CONTINUOUS
 62
     3
 10
-101.9400007793441
 20
-148.8028767544084
 30
0.0
 11
-97.859994179344184
 21
-148.8028767544084
 31
0.0
  0
LINE
  5
18D64
  8
SU
  6
CONTINUOUS
 62
     3
 10
-101.82000087934399
 20
-149.0028765544086
 30
0.0
 11
-97.979994079344237
 21
-149.0028765544086
 31
0.0
  0
LINE
  5
18D65
  8
SU
  6
CONTINUOUS
 62
     3
 10
-101.7000010793441
 20
-149.2028763544086
 30
0.0
 11
-98.099993979344276
 21
-149.2028763544086
 31
0.0
  0
LINE
  5
18D66
  8
SU
  6
CONTINUOUS
 62
     3
 10
-101.58000117934419
 20
-149.4028761544086
 30
0.0
 11
-98.219993879344202
 21
-149.4028761544086
 31
0.0
  0
LINE
  5
18D67
  8
SU
  6
CONTINUOUS
 62
     3
 10
-101.460001279344
 20
-149.60287595440829
 30
0.0
 11
-98.339993779344255
 21
-149.60287595440829
 31
0.0
  0
LINE
  5
18D68
  8
SU
  6
CONTINUOUS
 62
     3
 10
-101.3400013793442
 20
-149.80287585440851
 30
0.0
 11
-98.459993679344166
 21
-149.80287585440851
 31
0.0
  0
LINE
  5
18D69
  8
SU
  6
CONTINUOUS
 62
     3
 10
-101.100001579344
 20
-150.2028754544086
 30
0.0
 11
-98.699993379344164
 21
-150.2028754544086
 31
0.0
  0
LINE
  5
18D6A
  8
SU
  6
CONTINUOUS
 62
     3
 10
-101.22000147934421
 20
-150.00287565440851
 30
0.0
 11
-98.579993479344225
 21
-150.00287565440851
 31
0.0
  0
LINE
  5
18D6B
  8
SU
  6
CONTINUOUS
 62
     3
 10
-100.9800016793442
 20
-150.4028752544086
 30
0.0
 11
-98.819993279344203
 21
-150.4028752544086
 31
0.0
  0
LINE
  5
18D6C
  8
SU
  6
CONTINUOUS
 62
     3
 10
-100.8600018293442
 20
-150.6028750544086
 30
0.0
 11
-98.939993169344234
 21
-150.6028750544086
 31
0.0
  0
LINE
  5
18D6D
  8
SU
  6
CONTINUOUS
 62
     3
 10
-100.74000194934411
 20
-150.80287485440829
 30
0.0
 11
-99.059993059344293
 21
-150.80287485440829
 31
0.0
  0
LINE
  5
18D6E
  8
SU
  6
CONTINUOUS
 62
     3
 10
-100.6200030193441
 20
-151.0028746544086
 30
0.0
 11
-99.17999293934416
 21
-151.0028746544086
 31
0.0
  0
LINE
  5
18D6F
  8
SU
  6
CONTINUOUS
 62
     3
 10
-100.50000312934399
 20
-151.2028744544086
 30
0.0
 11
-99.299992829344191
 21
-151.2028744544086
 31
0.0
  0
LINE
  5
18D70
  8
SU
  6
CONTINUOUS
 62
     3
 10
-100.260000499344
 20
-151.60287409440841
 30
0.0
 11
-99.539992599344274
 21
-151.60287409440841
 31
0.0
  0
LINE
  5
18D71
  8
SU
  6
CONTINUOUS
 62
     3
 10
-100.38000323934411
 20
-151.40287428440851
 30
0.0
 11
-99.419992719344236
 21
-151.40287428440851
 31
0.0
  0
LINE
  5
18D72
  8
SU
  6
CONTINUOUS
 62
     3
 10
-100.1400006093442
 20
-151.80287389440841
 30
0.0
 11
-99.659992489344162
 21
-151.80287389440841
 31
0.0
  0
LINE
  5
18D73
  8
SU
  6
CONTINUOUS
 62
     3
 10
-99.900000001833547
 20
-152.20288723538201
 30
0.0
 11
-93.899998079344215
 21
-142.20288345440869
 31
0.0
  0
LINE
  5
18D74
  8
SU
  6
CONTINUOUS
 62
     3
 10
-100.0200054893441
 20
-152.00287084440851
 30
0.0
 11
-99.779990469344156
 21
-152.00287084440851
 31
0.0
  0
LINE
  5
18D75
  8
SU
  6
CONTINUOUS
 62
     3
 10
-99.899997917536197
 20
-152.20288323455941
 30
0.0
 11
-105.89999367934411
 21
-142.20288315440851
 31
0.0
  0
LINE
  5
18D76
  8
SU
  6
CONTINUOUS
 62
     3
 10
-103.49999837934411
 20
-146.2028792544086
 30
0.0
 11
-96.299995679344192
 21
-146.2028792544086
 31
0.0
  0
LINE
  5
18D77
  8
SU
  6
CONTINUOUS
 62
     3
 10
-103.6199982793442
 20
-146.0028794544084
 30
0.0
 11
-96.179995779344239
 21
-146.0028794544084
 31
0.0
  0
LINE
  5
18D78
  8
SU
  6
CONTINUOUS
 62
     3
 10
-103.7399971793441
 20
-145.8028796544086
 30
0.0
 11
-96.059995879344186
 21
-145.8028796544086
 31
0.0
  0
LINE
  5
18D79
  8
SU
  6
CONTINUOUS
 62
     3
 10
-103.8599970793441
 20
-145.6028798544086
 30
0.0
 11
-95.93999607934424
 21
-145.6028798544086
 31
0.0
  0
LINE
  5
18D7A
  8
SU
  6
CONTINUOUS
 62
     3
 10
-103.97999697934399
 20
-145.40287995440841
 30
0.0
 11
-95.81999617934423
 21
-145.40287995440841
 31
0.0
  0
LINE
  5
18D7B
  8
SU
  6
CONTINUOUS
 62
     3
 10
-93.900001779344166
 20
87.797116945591384
 30
0.0
 11
-105.89999797934411
 21
87.797116945591384
 31
0.0
  0
LINE
  5
18D7C
  8
SU
  6
CONTINUOUS
 62
     3
 10
-94.02000167934419
 20
87.99711674559137
 30
0.0
 11
-105.7799980793441
 21
87.99711674559137
 31
0.0
  0
LINE
  5
18D7D
  8
SU
  6
CONTINUOUS
 62
     3
 10
-94.140001579344201
 20
88.197116545591371
 30
0.0
 11
-105.6599981793441
 21
88.197116545591371
 31
0.0
  0
LINE
  5
18D7E
  8
SU
  6
CONTINUOUS
 62
     3
 10
-94.260001479344155
 20
88.397116345591371
 30
0.0
 11
-105.5399982793441
 21
88.397116345591371
 31
0.0
  0
LINE
  5
18D7F
  8
SU
  6
CONTINUOUS
 62
     3
 10
-94.380001379344193
 20
88.597116145591329
 30
0.0
 11
-105.4199984793442
 21
88.597116145591329
 31
0.0
  0
LINE
  5
18D80
  8
SU
  6
CONTINUOUS
 62
     3
 10
-94.500001179344153
 20
88.797115945591386
 30
0.0
 11
-105.29999857934421
 21
88.797115945591386
 31
0.0
  0
LINE
  5
18D81
  8
SU
  6
CONTINUOUS
 62
     3
 10
-94.620001079344206
 20
88.997115845591324
 30
0.0
 11
-105.179998679344
 21
88.997115845591324
 31
0.0
  0
LINE
  5
18D82
  8
SU
  6
CONTINUOUS
 62
     3
 10
-94.740000079344185
 20
89.197115645591339
 30
0.0
 11
-105.0599987793441
 21
89.197115645591339
 31
0.0
  0
LINE
  5
18D83
  8
SU
  6
CONTINUOUS
 62
     3
 10
-94.859999879344201
 20
89.397115445591339
 30
0.0
 11
-104.9399988793441
 21
89.397115445591339
 31
0.0
  0
LINE
  5
18D84
  8
SU
  6
CONTINUOUS
 62
     3
 10
-94.979999779344183
 20
89.59711524559134
 30
0.0
 11
-104.81999897934411
 21
89.59711524559134
 31
0.0
  0
LINE
  5
18D85
  8
SU
  6
CONTINUOUS
 62
     3
 10
-95.099999679344236
 20
89.797115045591369
 30
0.0
 11
-104.6999990793441
 21
89.797115045591369
 31
0.0
  0
LINE
  5
18D86
  8
SU
  6
CONTINUOUS
 62
     3
 10
-95.219999579344176
 20
89.997114845591369
 30
0.0
 11
-104.57999927934399
 21
89.997114845591369
 31
0.0
  0
LINE
  5
18D87
  8
SU
  6
CONTINUOUS
 62
     3
 10
-95.3399994793442
 20
90.197114645591355
 30
0.0
 11
-104.4599993793442
 21
90.197114645591355
 31
0.0
  0
LINE
  5
18D88
  8
SU
  6
CONTINUOUS
 62
     3
 10
-95.459999379344197
 20
90.397114445591356
 30
0.0
 11
-104.3399994793442
 21
90.397114445591356
 31
0.0
  0
LINE
  5
18D89
  8
SU
  6
CONTINUOUS
 62
     3
 10
-95.699999079344224
 20
90.797114045591357
 30
0.0
 11
-104.09999967934419
 21
90.797114045591357
 31
0.0
  0
LINE
  5
18D8A
  8
SU
  6
CONTINUOUS
 62
     3
 10
-95.579999279344165
 20
90.597114245591385
 30
0.0
 11
-104.2199995793441
 21
90.597114245591385
 31
0.0
  0
LINE
  5
18D8B
  8
SU
  6
CONTINUOUS
 62
     3
 10
-96.419998479344287
 20
91.997112945591354
 30
0.0
 11
-103.3800003793442
 21
91.997112945591354
 31
0.0
  0
LINE
  5
18D8C
  8
SU
  6
CONTINUOUS
 62
     3
 10
-96.5399973793442
 20
92.197112745591355
 30
0.0
 11
-103.260000479344
 21
92.197112745591355
 31
0.0
  0
LINE
  5
18D8D
  8
SU
  6
CONTINUOUS
 62
     3
 10
-96.659997279344196
 20
92.397112545591369
 30
0.0
 11
-103.1400005793442
 21
92.397112545591369
 31
0.0
  0
LINE
  5
18D8E
  8
SU
  6
CONTINUOUS
 62
     3
 10
-96.779997179344278
 20
92.597112345591356
 30
0.0
 11
-103.02000067934419
 21
92.597112345591356
 31
0.0
  0
LINE
  5
18D8F
  8
SU
  6
CONTINUOUS
 62
     3
 10
-96.899996979344195
 20
92.797112145591356
 30
0.0
 11
-102.90000087934411
 21
92.797112145591356
 31
0.0
  0
LINE
  5
18D90
  8
SU
  6
CONTINUOUS
 62
     3
 10
-97.019996879344276
 20
92.997111945591357
 30
0.0
 11
-102.780000979344
 21
92.997111945591357
 31
0.0
  0
LINE
  5
18D91
  8
SU
  6
CONTINUOUS
 62
     3
 10
-97.139996779344202
 20
93.197111845591351
 30
0.0
 11
-102.660001079344
 21
93.197111845591351
 31
0.0
  0
LINE
  5
18D92
  8
SU
  6
CONTINUOUS
 62
     3
 10
-97.259996679344241
 20
93.397111645591352
 30
0.0
 11
-102.5400011793442
 21
93.397111645591352
 31
0.0
  0
LINE
  5
18D93
  8
SU
  6
CONTINUOUS
 62
     3
 10
-97.379996579344294
 20
93.597111445591352
 30
0.0
 11
-102.42000127934411
 21
93.597111445591352
 31
0.0
  0
LINE
  5
18D94
  8
SU
  6
CONTINUOUS
 62
     3
 10
-97.49999647934419
 20
93.797111245591339
 30
0.0
 11
-102.300001379344
 21
93.797111245591339
 31
0.0
  0
LINE
  5
18D95
  8
SU
  6
CONTINUOUS
 62
     3
 10
-97.619996379344215
 20
93.997111045591353
 30
0.0
 11
-102.1800014793442
 21
93.997111045591353
 31
0.0
  0
LINE
  5
18D96
  8
SU
  6
CONTINUOUS
 62
     3
 10
-97.739995279344285
 20
94.197110845591354
 30
0.0
 11
-102.0600016793441
 21
94.197110845591354
 31
0.0
  0
LINE
  5
18D97
  8
SU
  6
CONTINUOUS
 62
     3
 10
-97.85999517934421
 20
94.397110645591354
 30
0.0
 11
-101.9400017793441
 21
94.397110645591354
 31
0.0
  0
LINE
  5
18D98
  8
SU
  6
CONTINUOUS
 62
     3
 10
-97.979995079344235
 20
94.597110445591369
 30
0.0
 11
-101.8200018793441
 21
94.597110445591369
 31
0.0
  0
LINE
  5
18D99
  8
SU
  6
CONTINUOUS
 62
     3
 10
-98.099994879344194
 20
94.797110245591355
 30
0.0
 11
-101.70000197934399
 21
94.797110245591355
 31
0.0
  0
LINE
  5
18D9A
  8
SU
  6
CONTINUOUS
 62
     3
 10
-98.219994779344233
 20
94.997110045591356
 30
0.0
 11
-101.5800020793441
 21
94.997110045591356
 31
0.0
  0
LINE
  5
18D9B
  8
SU
  6
CONTINUOUS
 62
     3
 10
-98.339994679344272
 20
95.197109845591385
 30
0.0
 11
-101.4600021793442
 21
95.197109845591385
 31
0.0
  0
LINE
  5
18D9C
  8
SU
  6
CONTINUOUS
 62
     3
 10
-98.459994579344198
 20
95.397109745591351
 30
0.0
 11
-101.34000227934411
 21
95.397109745591351
 31
0.0
  0
LINE
  5
18D9D
  8
SU
  6
CONTINUOUS
 62
     3
 10
-98.699994379344275
 20
95.797109345591366
 30
0.0
 11
-101.10000257934411
 21
95.797109345591366
 31
0.0
  0
LINE
  5
18D9E
  8
SU
  6
CONTINUOUS
 62
     3
 10
-98.579994479344251
 20
95.597109545591323
 30
0.0
 11
-101.2200024793441
 21
95.597109545591323
 31
0.0
  0
LINE
  5
18D9F
  8
SU
  6
CONTINUOUS
 62
     3
 10
-98.819994279344201
 20
95.997109145591352
 30
0.0
 11
-100.9800026793441
 21
95.997109145591352
 31
0.0
  0
LINE
  5
18DA0
  8
SU
  6
CONTINUOUS
 62
     3
 10
-98.939994129344186
 20
96.197108945591353
 30
0.0
 11
-100.86000278934399
 21
96.197108945591353
 31
0.0
  0
LINE
  5
18DA1
  8
SU
  6
CONTINUOUS
 62
     3
 10
-99.059994009344194
 20
96.397108745591353
 30
0.0
 11
-100.74000289934411
 21
96.397108745591353
 31
0.0
  0
LINE
  5
18DA2
  8
SU
  6
CONTINUOUS
 62
     3
 10
-99.17999293934416
 20
96.597108545591354
 30
0.0
 11
-100.6200030193441
 21
96.597108545591354
 31
0.0
  0
LINE
  5
18DA3
  8
SU
  6
CONTINUOUS
 62
     3
 10
-99.299992829344191
 20
96.797108345591383
 30
0.0
 11
-100.50000312934399
 21
96.797108345591383
 31
0.0
  0
LINE
  5
18DA4
  8
SU
  6
CONTINUOUS
 62
     3
 10
-99.53999545934424
 20
97.197107985591359
 30
0.0
 11
-100.2600033593441
 21
97.197107985591359
 31
0.0
  0
LINE
  5
18DA5
  8
SU
  6
CONTINUOUS
 62
     3
 10
-99.419992719344236
 20
96.997108175591364
 30
0.0
 11
-100.38000323934411
 21
96.997108175591364
 31
0.0
  0
LINE
  5
18DA6
  8
SU
  6
CONTINUOUS
 62
     3
 10
-99.6599953493442
 20
97.397107785591345
 30
0.0
 11
-100.14000346934399
 21
97.397107785591345
 31
0.0
  0
LINE
  5
18DA7
  8
SU
  6
CONTINUOUS
 62
     3
 10
-99.899995956854909
 20
97.797121126564861
 30
0.0
 11
-105.8999978793442
 21
87.797117345591374
 31
0.0
  0
LINE
  5
18DA8
  8
SU
  6
CONTINUOUS
 62
     3
 10
-99.779990469344156
 20
97.597104735591358
 30
0.0
 11
-100.0200054893441
 21
97.597104735591387
 31
0.0
  0
LINE
  5
18DA9
  8
SU
  6
CONTINUOUS
 62
     3
 10
-99.89999804115223
 20
97.797117125742204
 30
0.0
 11
-93.900002279344221
 21
87.797117045591349
 31
0.0
  0
LINE
  5
18DAA
  8
SU
  6
CONTINUOUS
 62
     3
 10
-96.299997579344222
 20
91.797113145591354
 30
0.0
 11
-103.50000027934411
 21
91.797113145591354
 31
0.0
  0
LINE
  5
18DAB
  8
SU
  6
CONTINUOUS
 62
     3
 10
-96.179997679344211
 20
91.597113345591353
 30
0.0
 11
-103.620000179344
 21
91.597113345591353
 31
0.0
  0
LINE
  5
18DAC
  8
SU
  6
CONTINUOUS
 62
     3
 10
-96.059998779344241
 20
91.397113545591353
 30
0.0
 11
-103.7400000793442
 21
91.397113545591353
 31
0.0
  0
LINE
  5
18DAD
  8
SU
  6
CONTINUOUS
 62
     3
 10
-95.939998879344216
 20
91.197113745591366
 30
0.0
 11
-103.8599998793441
 21
91.197113745591366
 31
0.0
  0
LINE
  5
18DAE
  8
SU
  6
CONTINUOUS
 62
     3
 10
-95.819998979344163
 20
90.997113845591329
 30
0.0
 11
-103.9799997793442
 21
90.997113845591329
 31
0.0
  0
LINE
  5
18DAF
  8
SU
  6
CONTINUOUS
 62
     3
 10
323.80435980978632
 20
-218.9359550771488
 30
0.0
 11
323.80435980978632
 21
-206.9359591771489
 31
0.0
  0
LINE
  5
18DB0
  8
SU
  6
CONTINUOUS
 62
     3
 10
324.00435960978632
 20
-218.8159556171488
 30
0.0
 11
324.00435960978632
 21
-207.055959217149
 31
0.0
  0
LINE
  5
18DB1
  8
SU
  6
CONTINUOUS
 62
     3
 10
324.20435940978638
 20
-218.69595571714879
 30
0.0
 11
324.20435940978638
 21
-207.17595911714901
 31
0.0
  0
LINE
  5
18DB2
  8
SU
  6
CONTINUOUS
 62
     3
 10
324.40435920978632
 20
-218.57595581714881
 30
0.0
 11
324.40435920978632
 21
-207.2959590171489
 31
0.0
  0
LINE
  5
18DB3
  8
SU
  6
CONTINUOUS
 62
     3
 10
324.60435900978632
 20
-218.455955917149
 30
0.0
 11
324.60435900978632
 21
-207.415958817149
 31
0.0
  0
LINE
  5
18DB4
  8
SU
  6
CONTINUOUS
 62
     3
 10
324.80435880978632
 20
-218.3359561171489
 30
0.0
 11
324.80435880978632
 21
-207.53595871714879
 31
0.0
  0
LINE
  5
18DB5
  8
SU
  6
CONTINUOUS
 62
     3
 10
325.00435870978629
 20
-218.215956217149
 30
0.0
 11
325.00435870978629
 21
-207.655958617149
 31
0.0
  0
LINE
  5
18DB6
  8
SU
  6
CONTINUOUS
 62
     3
 10
325.20435850978629
 20
-218.09595721714879
 30
0.0
 11
325.20435850978629
 21
-207.77595851714901
 31
0.0
  0
LINE
  5
18DB7
  8
SU
  6
CONTINUOUS
 62
     3
 10
325.40435830978629
 20
-217.975957417149
 30
0.0
 11
325.40435830978629
 21
-207.8959584171489
 31
0.0
  0
LINE
  5
18DB8
  8
SU
  6
CONTINUOUS
 62
     3
 10
325.60435810978629
 20
-217.85595751714879
 30
0.0
 11
325.60435810978629
 21
-208.0159583171488
 31
0.0
  0
LINE
  5
18DB9
  8
SU
  6
CONTINUOUS
 62
     3
 10
325.80435790978601
 20
-217.73595761714901
 30
0.0
 11
325.80435790978601
 21
-208.13595821714901
 31
0.0
  0
LINE
  5
18DBA
  8
SU
  6
CONTINUOUS
 62
     3
 10
326.00435770978601
 20
-217.6159577171488
 30
0.0
 11
326.00435770978601
 21
-208.255958017149
 31
0.0
  0
LINE
  5
18DBB
  8
SU
  6
CONTINUOUS
 62
     3
 10
326.20435750978618
 20
-217.49595781714879
 30
0.0
 11
326.20435750978618
 21
-208.37595791714901
 31
0.0
  0
LINE
  5
18DBC
  8
SU
  6
CONTINUOUS
 62
     3
 10
326.40435730978601
 20
-217.37595791714901
 30
0.0
 11
326.40435730978601
 21
-208.49595781714879
 31
0.0
  0
LINE
  5
18DBD
  8
SU
  6
CONTINUOUS
 62
     3
 10
326.80435690978601
 20
-217.1359582171489
 30
0.0
 11
326.80435690978601
 21
-208.73595761714901
 31
0.0
  0
LINE
  5
18DBE
  8
SU
  6
CONTINUOUS
 62
     3
 10
326.60435710978601
 20
-217.255958017149
 30
0.0
 11
326.60435710978601
 21
-208.615957717149
 31
0.0
  0
LINE
  5
18DBF
  8
SU
  6
CONTINUOUS
 62
     3
 10
328.00435580978632
 20
-216.41595881714881
 30
0.0
 11
328.00435580978632
 21
-209.455956917149
 31
0.0
  0
LINE
  5
18DC0
  8
SU
  6
CONTINUOUS
 62
     3
 10
328.20435560978638
 20
-216.29595991714879
 30
0.0
 11
328.20435560978638
 21
-209.57595681714901
 31
0.0
  0
LINE
  5
18DC1
  8
SU
  6
CONTINUOUS
 62
     3
 10
328.40435540978632
 20
-216.17596001714901
 30
0.0
 11
328.40435540978632
 21
-209.69595671714879
 31
0.0
  0
LINE
  5
18DC2
  8
SU
  6
CONTINUOUS
 62
     3
 10
328.60435520978632
 20
-216.055960117149
 30
0.0
 11
328.60435520978632
 21
-209.815956617149
 31
0.0
  0
LINE
  5
18DC3
  8
SU
  6
CONTINUOUS
 62
     3
 10
328.80435500978632
 20
-215.93596031714901
 30
0.0
 11
328.80435500978632
 21
-209.93595641714879
 31
0.0
  0
LINE
  5
18DC4
  8
SU
  6
CONTINUOUS
 62
     3
 10
329.00435480978632
 20
-215.815960417149
 30
0.0
 11
329.00435480978632
 21
-210.0559563171488
 31
0.0
  0
LINE
  5
18DC5
  8
SU
  6
CONTINUOUS
 62
     3
 10
329.20435470978629
 20
-215.69596051714879
 30
0.0
 11
329.20435470978629
 21
-210.17595621714901
 31
0.0
  0
LINE
  5
18DC6
  8
SU
  6
CONTINUOUS
 62
     3
 10
329.4043545097864
 20
-215.57596061714901
 30
0.0
 11
329.4043545097864
 21
-210.2959561171489
 31
0.0
  0
LINE
  5
18DC7
  8
SU
  6
CONTINUOUS
 62
     3
 10
329.6043543097864
 20
-215.4559607171488
 30
0.0
 11
329.6043543097864
 21
-210.415956017149
 31
0.0
  0
LINE
  5
18DC8
  8
SU
  6
CONTINUOUS
 62
     3
 10
329.8043541097864
 20
-215.3359608171489
 30
0.0
 11
329.8043541097864
 21
-210.5359559171489
 31
0.0
  0
LINE
  5
18DC9
  8
SU
  6
CONTINUOUS
 62
     3
 10
330.0043539097864
 20
-215.215960917149
 30
0.0
 11
330.0043539097864
 21
-210.65595581714879
 31
0.0
  0
LINE
  5
18DCA
  8
SU
  6
CONTINUOUS
 62
     3
 10
330.2043537097864
 20
-215.09596201714879
 30
0.0
 11
330.2043537097864
 21
-210.7759556171489
 31
0.0
  0
LINE
  5
18DCB
  8
SU
  6
CONTINUOUS
 62
     3
 10
330.4043535097864
 20
-214.97596211714901
 30
0.0
 11
330.4043535097864
 21
-210.89595551714879
 31
0.0
  0
LINE
  5
18DCC
  8
SU
  6
CONTINUOUS
 62
     3
 10
330.60435330978629
 20
-214.8559622171488
 30
0.0
 11
330.60435330978629
 21
-211.0159554171488
 31
0.0
  0
LINE
  5
18DCD
  8
SU
  6
CONTINUOUS
 62
     3
 10
330.80435310978601
 20
-214.73596241714901
 30
0.0
 11
330.80435310978601
 21
-211.13595531714901
 31
0.0
  0
LINE
  5
18DCE
  8
SU
  6
CONTINUOUS
 62
     3
 10
331.00435290978641
 20
-214.615962517149
 30
0.0
 11
331.00435290978641
 21
-211.2559552171488
 31
0.0
  0
LINE
  5
18DCF
  8
SU
  6
CONTINUOUS
 62
     3
 10
331.20435270978612
 20
-214.49596261714879
 30
0.0
 11
331.20435270978612
 21
-211.375955117149
 31
0.0
  0
LINE
  5
18DD0
  8
SU
  6
CONTINUOUS
 62
     3
 10
331.40435260978632
 20
-214.37596271714901
 30
0.0
 11
331.40435260978632
 21
-211.4959550171489
 31
0.0
  0
LINE
  5
18DD1
  8
SU
  6
CONTINUOUS
 62
     3
 10
331.80435220978632
 20
-214.1359629171489
 30
0.0
 11
331.80435220978632
 21
-211.73595471714901
 31
0.0
  0
LINE
  5
18DD2
  8
SU
  6
CONTINUOUS
 62
     3
 10
331.60435240978632
 20
-214.2559628171488
 30
0.0
 11
331.60435240978632
 21
-211.615954817149
 31
0.0
  0
LINE
  5
18DD3
  8
SU
  6
CONTINUOUS
 62
     3
 10
332.00435200978632
 20
-214.01596301714901
 30
0.0
 11
332.00435200978632
 21
-211.855954617149
 31
0.0
  0
LINE
  5
18DD4
  8
SU
  6
CONTINUOUS
 62
     3
 10
332.20435180978637
 20
-213.89596316714901
 30
0.0
 11
332.20435180978637
 21
-211.9759545071488
 31
0.0
  0
LINE
  5
18DD5
  8
SU
  6
CONTINUOUS
 62
     3
 10
332.40435160978632
 20
-213.77596328714901
 30
0.0
 11
332.40435160978632
 21
-212.095954397149
 31
0.0
  0
LINE
  5
18DD6
  8
SU
  6
CONTINUOUS
 62
     3
 10
332.60435140978632
 20
-213.6559643571488
 30
0.0
 11
332.60435140978632
 21
-212.215954277149
 31
0.0
  0
LINE
  5
18DD7
  8
SU
  6
CONTINUOUS
 62
     3
 10
332.80435120978632
 20
-213.535964467149
 30
0.0
 11
332.80435120978632
 21
-212.335954167149
 31
0.0
  0
LINE
  5
18DD8
  8
SU
  6
CONTINUOUS
 62
     3
 10
333.20435084978612
 20
-213.29596183714901
 30
0.0
 11
333.20435084978612
 21
-212.575953937149
 31
0.0
  0
LINE
  5
18DD9
  8
SU
  6
CONTINUOUS
 62
     3
 10
333.0043510397864
 20
-213.4159645771488
 30
0.0
 11
333.0043510397864
 21
-212.4559540571488
 31
0.0
  0
LINE
  5
18DDA
  8
SU
  6
CONTINUOUS
 62
     3
 10
333.40435064978601
 20
-213.17596194714901
 30
0.0
 11
333.40435064978601
 21
-212.6959538271488
 31
0.0
  0
LINE
  5
18DDB
  8
SU
  6
CONTINUOUS
 62
     3
 10
333.80436025343403
 20
-212.9359590972426
 30
0.0
 11
323.80435980978632
 21
-206.9359591771489
 31
0.0
  0
LINE
  5
18DDC
  8
SU
  6
CONTINUOUS
 62
     3
 10
333.60434759978619
 20
-213.05596682714901
 30
0.0
 11
333.60434759978619
 21
-212.81595180714879
 31
0.0
  0
LINE
  5
18DDD
  8
SU
  6
CONTINUOUS
 62
     3
 10
333.80436025343403
 20
-212.9359590972426
 30
0.0
 11
323.80435980978632
 21
-218.9359550771488
 31
0.0
  0
LINE
  5
18DDE
  8
SU
  6
CONTINUOUS
 62
     3
 10
327.80435600978632
 20
-216.53595971714901
 30
0.0
 11
327.80435600978632
 21
-209.3359570171489
 31
0.0
  0
LINE
  5
18DDF
  8
SU
  6
CONTINUOUS
 62
     3
 10
327.60435620978632
 20
-216.6559596171488
 30
0.0
 11
327.60435620978632
 21
-209.215957117149
 31
0.0
  0
LINE
  5
18DE0
  8
SU
  6
CONTINUOUS
 62
     3
 10
327.40435640978632
 20
-216.77595851714901
 30
0.0
 11
327.40435640978632
 21
-209.09595721714879
 31
0.0
  0
LINE
  5
18DE1
  8
SU
  6
CONTINUOUS
 62
     3
 10
327.20435660978632
 20
-216.8959584171489
 30
0.0
 11
327.20435660978632
 21
-208.975957417149
 31
0.0
  0
LINE
  5
18DE2
  8
SU
  6
CONTINUOUS
 62
     3
 10
327.00435670978601
 20
-217.015958317149
 30
0.0
 11
327.00435670978601
 21
-208.85595751714879
 31
0.0
  0
LINE
  5
18DE3
  8
SU
  6
CONTINUOUS
 62
     3
 10
-6.195639302918261
 20
-206.93596311733691
 30
0.0
 11
-6.195639302918277
 21
-218.93595901733681
 31
0.0
  0
LINE
  5
18DE4
  8
SU
  6
CONTINUOUS
 62
     3
 10
-6.3956391029182651
 20
-207.0559625773368
 30
0.0
 11
-6.3956391029182651
 21
-218.81595897733681
 31
0.0
  0
LINE
  5
18DE5
  8
SU
  6
CONTINUOUS
 62
     3
 10
-6.595638902918262
 20
-207.17596247733681
 30
0.0
 11
-6.595638902918262
 21
-218.69595907733671
 31
0.0
  0
LINE
  5
18DE6
  8
SU
  6
CONTINUOUS
 62
     3
 10
-6.7956387029182652
 20
-207.29596237733679
 30
0.0
 11
-6.7956387029182652
 21
-218.57595917733681
 31
0.0
  0
LINE
  5
18DE7
  8
SU
  6
CONTINUOUS
 62
     3
 10
-6.9956385029182631
 20
-207.41596227733649
 30
0.0
 11
-6.9956385029182631
 21
-218.45595937733671
 31
0.0
  0
LINE
  5
18DE8
  8
SU
  6
CONTINUOUS
 62
     3
 10
-7.1956383029182671
 20
-207.53596207733679
 30
0.0
 11
-7.1956383029182671
 21
-218.33595947733679
 31
0.0
  0
LINE
  5
18DE9
  8
SU
  6
CONTINUOUS
 62
     3
 10
-7.3956382029182333
 20
-207.65596197733689
 30
0.0
 11
-7.3956382029182333
 21
-218.21595957733669
 31
0.0
  0
LINE
  5
18DEA
  8
SU
  6
CONTINUOUS
 62
     3
 10
-7.5956380029182329
 20
-207.77596097733681
 30
0.0
 11
-7.5956380029182329
 21
-218.09595967733691
 31
0.0
  0
LINE
  5
18DEB
  8
SU
  6
CONTINUOUS
 62
     3
 10
-7.7956378029182334
 20
-207.89596077733671
 30
0.0
 11
-7.7956378029182334
 21
-217.97595977733681
 31
0.0
  0
LINE
  5
18DEC
  8
SU
  6
CONTINUOUS
 62
     3
 10
-7.9956376029182339
 20
-208.01596067733681
 30
0.0
 11
-7.9956376029182339
 21
-217.85595987733689
 31
0.0
  0
LINE
  5
18DED
  8
SU
  6
CONTINUOUS
 62
     3
 10
-8.1956374029182353
 20
-208.13596057733679
 30
0.0
 11
-8.1956374029182353
 21
-217.73595997733679
 31
0.0
  0
LINE
  5
18DEE
  8
SU
  6
CONTINUOUS
 62
     3
 10
-8.3956372029182376
 20
-208.2559604773368
 30
0.0
 11
-8.3956372029182376
 21
-217.6159601773368
 31
0.0
  0
LINE
  5
18DEF
  8
SU
  6
CONTINUOUS
 62
     3
 10
-8.5956370029182381
 20
-208.37596037733681
 30
0.0
 11
-8.5956370029182381
 21
-217.49596027733679
 31
0.0
  0
LINE
  5
18DF0
  8
SU
  6
CONTINUOUS
 62
     3
 10
-8.7956368029182386
 20
-208.49596027733691
 30
0.0
 11
-8.7956368029182386
 21
-217.37596037733681
 31
0.0
  0
LINE
  5
18DF1
  8
SU
  6
CONTINUOUS
 62
     3
 10
-9.1956364029182396
 20
-208.73595997733679
 30
0.0
 11
-9.1956364029182396
 21
-217.13596057733679
 31
0.0
  0
LINE
  5
18DF2
  8
SU
  6
CONTINUOUS
 62
     3
 10
-8.9956366029182391
 20
-208.61596017733669
 30
0.0
 11
-8.9956366029182391
 21
-217.25596047733671
 31
0.0
  0
LINE
  5
18DF3
  8
SU
  6
CONTINUOUS
 62
     3
 10
-10.39563530291832
 20
-209.4559593773368
 30
0.0
 11
-10.39563530291832
 21
-216.41596127733681
 31
0.0
  0
LINE
  5
18DF4
  8
SU
  6
CONTINUOUS
 62
     3
 10
-10.595635102918321
 20
-209.5759582773367
 30
0.0
 11
-10.595635102918321
 21
-216.29596137733671
 31
0.0
  0
LINE
  5
18DF5
  8
SU
  6
CONTINUOUS
 62
     3
 10
-10.79563490291817
 20
-209.69595817733679
 30
0.0
 11
-10.79563490291817
 21
-216.17596147733681
 31
0.0
  0
LINE
  5
18DF6
  8
SU
  6
CONTINUOUS
 62
     3
 10
-10.9956347029183
 20
-209.81595807733669
 30
0.0
 11
-10.9956347029183
 21
-216.05596157733669
 31
0.0
  0
LINE
  5
18DF7
  8
SU
  6
CONTINUOUS
 62
     3
 10
-11.19563450291821
 20
-209.93595787733679
 30
0.0
 11
-11.19563450291821
 21
-215.93596177733679
 31
0.0
  0
LINE
  5
18DF8
  8
SU
  6
CONTINUOUS
 62
     3
 10
-11.395634302918211
 20
-210.05595777733649
 30
0.0
 11
-11.395634302918211
 21
-215.8159618773368
 31
0.0
  0
LINE
  5
18DF9
  8
SU
  6
CONTINUOUS
 62
     3
 10
-11.595634202918291
 20
-210.17595767733681
 30
0.0
 11
-11.595634202918291
 21
-215.69596197733671
 31
0.0
  0
LINE
  5
18DFA
  8
SU
  6
CONTINUOUS
 62
     3
 10
-11.795634002918259
 20
-210.29595757733671
 30
0.0
 11
-11.795634002918259
 21
-215.57596207733681
 31
0.0
  0
LINE
  5
18DFB
  8
SU
  6
CONTINUOUS
 62
     3
 10
-11.99563380291827
 20
-210.4159574773368
 30
0.0
 11
-11.99563380291827
 21
-215.45596217733689
 31
0.0
  0
LINE
  5
18DFC
  8
SU
  6
CONTINUOUS
 62
     3
 10
-12.19563360291828
 20
-210.53595737733681
 30
0.0
 11
-12.19563360291828
 21
-215.33596227733679
 31
0.0
  0
LINE
  5
18DFD
  8
SU
  6
CONTINUOUS
 62
     3
 10
-12.395633402918291
 20
-210.65595727733691
 30
0.0
 11
-12.395633402918291
 21
-215.21596237733681
 31
0.0
  0
LINE
  5
18DFE
  8
SU
  6
CONTINUOUS
 62
     3
 10
-12.59563320291829
 20
-210.7759561773367
 30
0.0
 11
-12.59563320291829
 21
-215.09596257733679
 31
0.0
  0
LINE
  5
18DFF
  8
SU
  6
CONTINUOUS
 62
     3
 10
-12.795633002918279
 20
-210.89595607733679
 30
0.0
 11
-12.795633002918279
 21
-214.97596267733681
 31
0.0
  0
LINE
  5
18E00
  8
SU
  6
CONTINUOUS
 62
     3
 10
-12.995632802918291
 20
-211.01595597733669
 30
0.0
 11
-12.995632802918291
 21
-214.8559627773368
 31
0.0
  0
LINE
  5
18E01
  8
SU
  6
CONTINUOUS
 62
     3
 10
-13.19563260291827
 20
-211.13595577733679
 30
0.0
 11
-13.19563260291827
 21
-214.73596287733679
 31
0.0
  0
LINE
  5
18E02
  8
SU
  6
CONTINUOUS
 62
     3
 10
-13.395632402918279
 20
-211.25595567733669
 30
0.0
 11
-13.395632402918279
 21
-214.61596297733681
 31
0.0
  0
LINE
  5
18E03
  8
SU
  6
CONTINUOUS
 62
     3
 10
-13.595632202918271
 20
-211.37595557733681
 30
0.0
 11
-13.595632202918271
 21
-214.49596307733671
 31
0.0
  0
LINE
  5
18E04
  8
SU
  6
CONTINUOUS
 62
     3
 10
-13.79563210291826
 20
-211.49595547733679
 30
0.0
 11
-13.79563210291826
 21
-214.37596317733681
 31
0.0
  0
LINE
  5
18E05
  8
SU
  6
CONTINUOUS
 62
     3
 10
-14.195631702918259
 20
-211.7359552773367
 30
0.0
 11
-14.195631702918259
 21
-214.13596347733679
 31
0.0
  0
LINE
  5
18E06
  8
SU
  6
CONTINUOUS
 62
     3
 10
-13.995631902918261
 20
-211.6159553773368
 30
0.0
 11
-13.995631902918261
 21
-214.25596337733671
 31
0.0
  0
LINE
  5
18E07
  8
SU
  6
CONTINUOUS
 62
     3
 10
-14.395631502918251
 20
-211.8559551773368
 30
0.0
 11
-14.395631502918251
 21
-214.01596357733681
 31
0.0
  0
LINE
  5
18E08
  8
SU
  6
CONTINUOUS
 62
     3
 10
-14.59563130291826
 20
-211.97595502733671
 30
0.0
 11
-14.59563130291826
 21
-213.8959636873368
 31
0.0
  0
LINE
  5
18E09
  8
SU
  6
CONTINUOUS
 62
     3
 10
-14.795631102918261
 20
-212.09595490733679
 30
0.0
 11
-14.795631102918261
 21
-213.77596379733649
 31
0.0
  0
LINE
  5
18E0A
  8
SU
  6
CONTINUOUS
 62
     3
 10
-14.995630902918251
 20
-212.2159538373368
 30
0.0
 11
-14.995630902918251
 21
-213.65596391733681
 31
0.0
  0
LINE
  5
18E0B
  8
SU
  6
CONTINUOUS
 62
     3
 10
-15.19563070291826
 20
-212.3359537273368
 30
0.0
 11
-15.19563070291826
 21
-213.53596402733649
 31
0.0
  0
LINE
  5
18E0C
  8
SU
  6
CONTINUOUS
 62
     3
 10
-15.595630342918261
 20
-212.57595635733679
 30
0.0
 11
-15.595630342918261
 21
-213.29596425733669
 31
0.0
  0
LINE
  5
18E0D
  8
SU
  6
CONTINUOUS
 62
     3
 10
-15.395630532918281
 20
-212.4559536173368
 30
0.0
 11
-15.395630532918281
 21
-213.4159641373368
 31
0.0
  0
LINE
  5
18E0E
  8
SU
  6
CONTINUOUS
 62
     3
 10
-15.79563014291827
 20
-212.69595624733691
 30
0.0
 11
-15.79563014291827
 21
-213.1759643673368
 31
0.0
  0
LINE
  5
18E0F
  8
SU
  6
CONTINUOUS
 62
     3
 10
-16.19563974656597
 20
-212.9359590972426
 30
0.0
 11
-6.195639302918277
 21
-218.93595901733681
 31
0.0
  0
LINE
  5
18E10
  8
SU
  6
CONTINUOUS
 62
     3
 10
-15.99562709291831
 20
-212.81595136733671
 30
0.0
 11
-15.99562709291831
 21
-213.05596638733681
 31
0.0
  0
LINE
  5
18E11
  8
SU
  6
CONTINUOUS
 62
     3
 10
-16.19563974656597
 20
-212.9359590972426
 30
0.0
 11
-6.195639302918261
 21
-206.93596311733691
 31
0.0
  0
LINE
  5
18E12
  8
SU
  6
CONTINUOUS
 62
     3
 10
-10.19563550291832
 20
-209.33595847733679
 30
0.0
 11
-10.19563550291832
 21
-216.5359611773367
 31
0.0
  0
LINE
  5
18E13
  8
SU
  6
CONTINUOUS
 62
     3
 10
-9.9956357029183192
 20
-209.21595857733681
 30
0.0
 11
-9.9956357029183192
 21
-216.6559610773368
 31
0.0
  0
LINE
  5
18E14
  8
SU
  6
CONTINUOUS
 62
     3
 10
-9.7956359029183204
 20
-209.09595967733671
 30
0.0
 11
-9.7956359029183204
 21
-216.77596097733681
 31
0.0
  0
LINE
  5
18E15
  8
SU
  6
CONTINUOUS
 62
     3
 10
-9.5956361029183181
 20
-208.97595977733681
 30
0.0
 11
-9.5956361029183181
 21
-216.89596077733691
 31
0.0
  0
LINE
  5
18E16
  8
SU
  6
CONTINUOUS
 62
     3
 10
-9.3956362029182401
 20
-208.85595987733649
 30
0.0
 11
-9.3956362029182401
 21
-217.01596067733669
 31
0.0
  0
LINE
  5
18E17
  8
OS
  6
CONTINUOUS
 62
     2
 10
-361.5
 20
48.64424079402454
 30
0.0
 11
-358.84712802757173
 21
51.297112766452742
 31
0.0
  0
LINE
  5
18E18
  8
OS
  6
CONTINUOUS
 62
     2
 10
-361.4999999999996
 20
38.744745857413349
 30
0.0
 11
-348.9476330909601
 21
51.297112766452699
 31
0.0
  0
LINE
  5
18E19
  8
OS
  6
CONTINUOUS
 62
     2
 10
-361.02406907717392
 20
29.321181843627411
 30
0.0
 11
-339.04813815434829
 21
51.297112766452699
 31
0.0
  0
LINE
  5
18E1A
  8
OS
  6
CONTINUOUS
 62
     2
 10
-353.14864321773678
 20
27.297112766452798
 30
0.0
 11
-329.14864321773678
 21
51.297112766452699
 31
0.0
  0
LINE
  5
18E1B
  8
OS
  6
CONTINUOUS
 62
     2
 10
-343.24914828112509
 20
27.297112766452798
 30
0.0
 11
-319.2491482811252
 21
51.297112766452699
 31
0.0
  0
LINE
  5
18E1C
  8
OS
  6
CONTINUOUS
 62
     2
 10
-333.34965334451351
 20
27.297112766452798
 30
0.0
 11
-309.34965334451363
 21
51.297112766452699
 31
0.0
  0
LINE
  5
18E1D
  8
OS
  6
CONTINUOUS
 62
     2
 10
-323.45015840790182
 20
27.297112766452869
 30
0.0
 11
-299.45015840790188
 21
51.297112766452699
 31
0.0
  0
LINE
  5
18E1E
  8
OS
  6
CONTINUOUS
 62
     2
 10
-313.55066347129002
 20
27.297112766452798
 30
0.0
 11
-289.55066347129008
 21
51.297112766452742
 31
0.0
  0
LINE
  5
18E1F
  8
OS
  6
CONTINUOUS
 62
     2
 10
-303.6511685346785
 20
27.297112766452798
 30
0.0
 11
-279.65116853467862
 21
51.297112766452699
 31
0.0
  0
LINE
  5
18E20
  8
OS
  6
CONTINUOUS
 62
     2
 10
-293.75167359806682
 20
27.297112766452869
 30
0.0
 11
-269.75167359806682
 21
51.297112766452699
 31
0.0
  0
LINE
  5
18E21
  8
OS
  6
CONTINUOUS
 62
     2
 10
-283.85217866145513
 20
27.297112766452798
 30
0.0
 11
-259.85217866145518
 21
51.297112766452742
 31
0.0
  0
LINE
  5
18E22
  8
OS
  6
CONTINUOUS
 62
     2
 10
-273.9526837248435
 20
27.297112766452798
 30
0.0
 11
-249.95268372484361
 21
51.297112766452813
 31
0.0
  0
LINE
  5
18E23
  8
OS
  6
CONTINUOUS
 62
     2
 10
-264.05318878823181
 20
27.297112766452798
 30
0.0
 11
-240.05318878823181
 21
51.297112766452742
 31
0.0
  0
LINE
  5
18E24
  8
OS
  6
CONTINUOUS
 62
     2
 10
-254.15369385161981
 20
27.297112766452798
 30
0.0
 11
-230.15369385161981
 21
51.297112766452742
 31
0.0
  0
LINE
  5
18E25
  8
OS
  6
CONTINUOUS
 62
     2
 10
-244.25419891500829
 20
27.297112766452798
 30
0.0
 11
-220.2541989150084
 21
51.297112766452813
 31
0.0
  0
LINE
  5
18E26
  8
OS
  6
CONTINUOUS
 62
     2
 10
-234.35470397839691
 20
27.297112766452798
 30
0.0
 11
-215.5
 21
46.151816744849711
 31
0.0
  0
LINE
  5
18E27
  8
OS
  6
CONTINUOUS
 62
     2
 10
-224.45520904178511
 20
27.297112766452798
 30
0.0
 11
-215.4999999999994
 21
36.252321808238491
 31
0.0
  0
LINE
  5
18E28
  8
OS
  6
CONTINUOUS
 62
     2
 10
128.15554651096991
 20
50.574809099620317
 30
0.0
 11
129.74477831410641
 21
52.164040902756938
 31
0.0
  0
LINE
  5
18E29
  8
OS
  6
CONTINUOUS
 62
     2
 10
128.1555465109698
 20
40.675314163008693
 30
0.0
 11
139.6442732507177
 21
52.164040902756561
 31
0.0
  0
LINE
  5
18E2A
  8
OS
  6
CONTINUOUS
 62
     2
 10
128.1555465109698
 20
30.775819226397051
 30
0.0
 11
149.54376818732911
 21
52.164040902756248
 31
0.0
  0
LINE
  5
18E2B
  8
OS
  6
CONTINUOUS
 62
     2
 10
128.1555465109698
 20
20.876324289785309
 30
0.0
 11
152.1555465109698
 21
44.876324289785309
 31
0.0
  0
LINE
  5
18E2C
  8
OS
  6
CONTINUOUS
 62
     2
 10
128.1555465109698
 20
10.976829353173679
 30
0.0
 11
152.1555465109698
 21
34.976829353173798
 31
0.0
  0
LINE
  5
18E2D
  8
OS
  6
CONTINUOUS
 62
     2
 10
128.1555465109698
 20
1.0773344165620511
 30
0.0
 11
152.15554651096991
 21
25.077334416562049
 31
0.0
  0
LINE
  5
18E2E
  8
OS
  6
CONTINUOUS
 62
     2
 10
128.1555465109698
 20
-8.8221605200496924
 30
0.0
 11
152.1555465109698
 21
15.1778394799503
 31
0.0
  0
LINE
  5
18E2F
  8
OS
  6
CONTINUOUS
 62
     2
 10
128.1555465109698
 20
-18.72165545666132
 30
0.0
 11
152.1555465109698
 21
5.2783445433387861
 31
0.0
  0
LINE
  5
18E30
  8
OS
  6
CONTINUOUS
 62
     2
 10
128.15554651096991
 20
-28.621150393272941
 30
0.0
 11
152.15554651096991
 21
-4.6211503932729521
 31
0.0
  0
LINE
  5
18E31
  8
OS
  6
CONTINUOUS
 62
     2
 10
128.1555465109698
 20
-38.520645329884587
 30
0.0
 11
152.1555465109698
 21
-14.520645329884561
 31
0.0
  0
LINE
  5
18E32
  8
OS
  6
CONTINUOUS
 62
     2
 10
128.1555465109698
 20
-48.420140266496318
 30
0.0
 11
152.15554651097
 21
-24.420140266496212
 31
0.0
  0
LINE
  5
18E33
  8
OS
  6
CONTINUOUS
 62
     2
 10
128.15554651096991
 20
-58.319635203107971
 30
0.0
 11
152.15554651096991
 21
-34.319635203107957
 31
0.0
  0
LINE
  5
18E34
  8
OS
  6
CONTINUOUS
 62
     2
 10
128.1555465109698
 20
-68.219130139719596
 30
0.0
 11
152.1555465109698
 21
-44.219130139719582
 31
0.0
  0
LINE
  5
18E35
  8
OS
  6
CONTINUOUS
 62
     2
 10
128.1555465109698
 20
-78.118625076331213
 30
0.0
 11
152.15554651097
 21
-54.118625076331213
 31
0.0
  0
LINE
  5
18E36
  8
OS
  6
CONTINUOUS
 62
     2
 10
128.1555465109698
 20
-88.018120012942845
 30
0.0
 11
152.1555465109698
 21
-64.018120012942859
 31
0.0
  0
LINE
  5
18E37
  8
OS
  6
CONTINUOUS
 62
     2
 10
128.15554651096971
 20
-97.917614949554576
 30
0.0
 11
152.1555465109698
 21
-73.917614949554505
 31
0.0
  0
LINE
  5
18E38
  8
OS
  6
CONTINUOUS
 62
     2
 10
136.13669729989249
 20
-99.835959097243403
 30
0.0
 11
152.15554651097
 21
-83.817109886166236
 31
0.0
  0
LINE
  5
18E39
  8
OS
  6
CONTINUOUS
 62
     2
 10
146.03619223650401
 20
-99.835959097243716
 30
0.0
 11
152.1555465109698
 21
-93.716604822777867
 31
0.0
  0
LINE
  5
18E3A
  8
OS
  6
CONTINUOUS
 62
     2
 10
293.42371452789962
 20
-99.835959097243716
 30
0.0
 11
287.30436025343391
 21
-93.716604822777768
 31
0.0
  0
LINE
  5
18E3B
  8
OS
  6
CONTINUOUS
 62
     2
 10
303.32320946451119
 20
-99.835959097243403
 30
0.0
 11
287.30436025343391
 21
-83.817109886166094
 31
0.0
  0
LINE
  5
18E3C
  8
OS
  6
CONTINUOUS
 62
     2
 10
311.30436025343403
 20
-97.917614949554576
 30
0.0
 11
287.30436025343391
 21
-73.91761494955459
 31
0.0
  0
LINE
  5
18E3D
  8
OS
  6
CONTINUOUS
 62
     2
 10
311.30436025343403
 20
-88.018120012942845
 30
0.0
 11
287.30436025343391
 21
-64.018120012942745
 31
0.0
  0
LINE
  5
18E3E
  8
OS
  6
CONTINUOUS
 62
     2
 10
311.30436025343391
 20
-78.118625076331213
 30
0.0
 11
287.30436025343369
 21
-54.118625076331092
 31
0.0
  0
LINE
  5
18E3F
  8
OS
  6
CONTINUOUS
 62
     2
 10
311.30436025343403
 20
-68.219130139719596
 30
0.0
 11
287.30436025343391
 21
-44.219130139719482
 31
0.0
  0
LINE
  5
18E40
  8
OS
  6
CONTINUOUS
 62
     2
 10
311.30436025343391
 20
-58.31963520310785
 30
0.0
 11
287.30436025343391
 21
-34.31963520310785
 31
0.0
  0
LINE
  5
18E41
  8
OS
  6
CONTINUOUS
 62
     2
 10
311.30436025343403
 20
-48.420140266496212
 30
0.0
 11
287.30436025343391
 21
-24.420140266496102
 31
0.0
  0
LINE
  5
18E42
  8
OS
  6
CONTINUOUS
 62
     2
 10
311.30436025343391
 20
-38.520645329884474
 30
0.0
 11
287.30436025343391
 21
-14.52064532988447
 31
0.0
  0
LINE
  5
18E43
  8
OS
  6
CONTINUOUS
 62
     2
 10
311.30436025343391
 20
-28.621150393272821
 30
0.0
 11
287.30436025343369
 21
-4.6211503932727283
 31
0.0
  0
LINE
  5
18E44
  8
OS
  6
CONTINUOUS
 62
     2
 10
311.30436025343403
 20
-18.72165545666121
 30
0.0
 11
287.30436025343391
 21
5.2783445433389033
 31
0.0
  0
LINE
  5
18E45
  8
OS
  6
CONTINUOUS
 62
     2
 10
311.30436025343391
 20
-8.8221605200495752
 30
0.0
 11
287.30436025343369
 21
15.17783947995051
 31
0.0
  0
LINE
  5
18E46
  8
OS
  6
CONTINUOUS
 62
     2
 10
311.30436025343391
 20
1.0773344165621661
 30
0.0
 11
287.30436025343369
 21
25.07733441656228
 31
0.0
  0
LINE
  5
18E47
  8
OS
  6
CONTINUOUS
 62
     2
 10
311.30436025343391
 20
10.97682935317391
 30
0.0
 11
287.30436025343391
 21
34.976829353173798
 31
0.0
  0
LINE
  5
18E48
  8
OS
  6
CONTINUOUS
 62
     2
 10
311.30436025343391
 20
20.87632428978543
 30
0.0
 11
287.30436025343369
 21
44.876324289785522
 31
0.0
  0
LINE
  5
18E49
  8
OS
  6
CONTINUOUS
 62
     2
 10
311.30436025343391
 20
30.775819226397171
 30
0.0
 11
289.91613857707478
 21
52.164040902756248
 31
0.0
  0
LINE
  5
18E4A
  8
OS
  6
CONTINUOUS
 62
     2
 10
311.30436025343391
 20
40.67531416300892
 30
0.0
 11
299.81563351368618
 21
52.16404090275671
 31
0.0
  0
LINE
  5
18E4B
  8
OS
  6
CONTINUOUS
 62
     2
 10
311.30436025343391
 20
50.574809099620438
 30
0.0
 11
309.71512845029719
 21
52.164040902757037
 31
0.0
  0
LINE
  5
18E4C
  8
OS
  6
CONTINUOUS
 62
     2
 10
-247.5
 20
108.785252334582
 30
0.0
 11
-244.98813956812941
 21
111.2971127664527
 31
0.0
1001
GENIUS_GENODEF_13
1002
{
1000
HIER
1070
     0
1002
}
1002
{
1000
MANEDIT
1070
     0
1002
}
1002
{
1000
NOSEL
1070
     0
1002
}
1002
{
1000
BEHIND
1070
     0
1002
}
1002
{
1000
OTHER
1070
     0
1002
}
1002
{
1000
REACTOR
1002
}
1001
GENIUS_GENOBJ-N-HTC_13
1002
{
1000
OWNER
1000
GEN
1002
}
1001
GENIUS_GENHATCH_13
1002
{
1000
DATA
1040
45.0
1042
2.5
1000
_U
1070
     0
1011
-235.2475641025267
1021
0.0
1031
0.0
1021
76.424339524876345
1031
0.0
1002
}
1002
{
1000
UCS
1010
0.0
1020
0.0
1030
0.0
1010
1.0
1020
0.0
1030
0.0
1010
0.0
1020
1.0
1030
0.0
1002
}
  0
LINE
  5
18E4D
  8
OS
  6
CONTINUOUS
 62
     2
 10
-247.5
 20
101.71418452271639
 30
0.0
 11
-237.91707175626391
 21
111.2971127664527
 31
0.0
1001
GENIUS_GENODEF_13
1002
{
1000
HIER
1070
     0
1002
}
1002
{
1000
MANEDIT
1070
     0
1002
}
1002
{
1000
NOSEL
1070
     0
1002
}
1002
{
1000
BEHIND
1070
     0
1002
}
1002
{
1000
OTHER
1070
     0
1002
}
1002
{
1000
REACTOR
1002
}
1001
GENIUS_GENOBJ-N-HTC_13
1002
{
1000
OWNER
1000
GEN
1002
}
1001
GENIUS_GENHATCH_13
1002
{
1000
DATA
1040
45.0
1042
2.5
1000
_U
1070
     0
1011
-235.2475641025267
1021
0.0
1031
0.0
1021
76.424339524876345
1031
0.0
1002
}
1002
{
1000
UCS
1010
0.0
1020
0.0
1030
0.0
1010
1.0
1020
0.0
1030
0.0
1010
0.0
1020
1.0
1030
0.0
1002
}
  0
LINE
  5
18E4E
  8
OS
  6
CONTINUOUS
 62
     2
 10
-247.4999999999996
 20
94.643116710851103
 30
0.0
 11
-230.8460039443984
 21
111.2971127664525
 31
0.0
1001
GENIUS_GENODEF_13
1002
{
1000
HIER
1070
     0
1002
}
1002
{
1000
MANEDIT
1070
     0
1002
}
1002
{
1000
NOSEL
1070
     0
1002
}
1002
{
1000
BEHIND
1070
     0
1002
}
1002
{
1000
OTHER
1070
     0
1002
}
1002
{
1000
REACTOR
1002
}
1001
GENIUS_GENOBJ-N-HTC_13
1002
{
1000
OWNER
1000
GEN
1002
}
1001
GENIUS_GENHATCH_13
1002
{
1000
DATA
1040
45.0
1042
2.5
1000
_U
1070
     0
1011
-235.2475641025267
1021
0.0
1031
0.0
1021
76.424339524876345
1031
0.0
1002
}
1002
{
1000
UCS
1010
0.0
1020
0.0
1030
0.0
1010
1.0
1020
0.0
1030
0.0
1010
0.0
1020
1.0
1030
0.0
1002
}
  0
LINE
  5
18E4F
  8
OS
  6
CONTINUOUS
 62
     2
 10
-247.5
 20
87.572048898985585
 30
0.0
 11
-223.77493613253301
 21
111.2971127664525
 31
0.0
1001
GENIUS_GENODEF_13
1002
{
1000
HIER
1070
     0
1002
}
1002
{
1000
MANEDIT
1070
     0
1002
}
1002
{
1000
NOSEL
1070
     0
1002
}
1002
{
1000
BEHIND
1070
     0
1002
}
1002
{
1000
OTHER
1070
     0
1002
}
1002
{
1000
REACTOR
1002
}
1001
GENIUS_GENOBJ-N-HTC_13
1002
{
1000
OWNER
1000
GEN
1002
}
1001
GENIUS_GENHATCH_13
1002
{
1000
DATA
1040
45.0
1042
2.5
1000
_U
1070
     0
1011
-235.2475641025267
1021
0.0
1031
0.0
1021
76.424339524876345
1031
0.0
1002
}
1002
{
1000
UCS
1010
0.0
1020
0.0
1030
0.0
1010
1.0
1020
0.0
1030
0.0
1010
0.0
1020
1.0
1030
0.0
1002
}
  0
LINE
  5
18E50
  8
OS
  6
CONTINUOUS
 62
     2
 10
-247.5
 20
80.500981087120124
 30
0.0
 11
-223.4999999999998
 21
104.50098108712
 31
0.0
1001
GENIUS_GENODEF_13
1002
{
1000
HIER
1070
     0
1002
}
1002
{
1000
MANEDIT
1070
     0
1002
}
1002
{
1000
NOSEL
1070
     0
1002
}
1002
{
1000
BEHIND
1070
     0
1002
}
1002
{
1000
OTHER
1070
     0
1002
}
1002
{
1000
REACTOR
1002
}
1001
GENIUS_GENOBJ-N-HTC_13
1002
{
1000
OWNER
1000
GEN
1002
}
1001
GENIUS_GENHATCH_13
1002
{
1000
DATA
1040
45.0
1042
2.5
1000
_U
1070
     0
1011
-235.2475641025267
1021
0.0
1031
0.0
1021
76.424339524876345
1031
0.0
1002
}
1002
{
1000
UCS
1010
0.0
1020
0.0
1030
0.0
1010
1.0
1020
0.0
1030
0.0
1010
0.0
1020
1.0
1030
0.0
1002
}
  0
LINE
  5
18E51
  8
OS
  6
CONTINUOUS
 62
     2
 10
-247.5
 20
73.429913275254705
 30
0.0
 11
-223.4999999999998
 21
97.429913275254705
 31
0.0
1001
GENIUS_GENODEF_13
1002
{
1000
HIER
1070
     0
1002
}
1002
{
1000
MANEDIT
1070
     0
1002
}
1002
{
1000
NOSEL
1070
     0
1002
}
1002
{
1000
BEHIND
1070
     0
1002
}
1002
{
1000
OTHER
1070
     0
1002
}
1002
{
1000
REACTOR
1002
}
1001
GENIUS_GENOBJ-N-HTC_13
1002
{
1000
OWNER
1000
GEN
1002
}
1001
GENIUS_GENHATCH_13
1002
{
1000
DATA
1040
45.0
1042
2.5
1000
_U
1070
     0
1011
-235.2475641025267
1021
0.0
1031
0.0
1021
76.424339524876345
1031
0.0
1002
}
1002
{
1000
UCS
1010
0.0
1020
0.0
1030
0.0
1010
1.0
1020
0.0
1030
0.0
1010
0.0
1020
1.0
1030
0.0
1002
}
  0
LINE
  5
18E52
  8
OS
  6
CONTINUOUS
 62
     2
 10
-247.4999999999996
 20
66.35884546338923
 30
0.0
 11
-223.4999999999998
 21
90.35884546338923
 31
0.0
1001
GENIUS_GENODEF_13
1002
{
1000
HIER
1070
     0
1002
}
1002
{
1000
MANEDIT
1070
     0
1002
}
1002
{
1000
NOSEL
1070
     0
1002
}
1002
{
1000
BEHIND
1070
     0
1002
}
1002
{
1000
OTHER
1070
     0
1002
}
1002
{
1000
REACTOR
1002
}
1001
GENIUS_GENOBJ-N-HTC_13
1002
{
1000
OWNER
1000
GEN
1002
}
1001
GENIUS_GENHATCH_13
1002
{
1000
DATA
1040
45.0
1042
2.5
1000
_U
1070
     0
1011
-235.2475641025267
1021
0.0
1031
0.0
1021
76.424339524876345
1031
0.0
1002
}
1002
{
1000
UCS
1010
0.0
1020
0.0
1030
0.0
1010
1.0
1020
0.0
1030
0.0
1010
0.0
1020
1.0
1030
0.0
1002
}
  0
LINE
  5
18E53
  8
OS
  6
CONTINUOUS
 62
     2
 10
-247.5
 20
59.287777651523697
 30
0.0
 11
-223.4999999999998
 21
83.287777651523726
 31
0.0
1001
GENIUS_GENODEF_13
1002
{
1000
HIER
1070
     0
1002
}
1002
{
1000
MANEDIT
1070
     0
1002
}
1002
{
1000
NOSEL
1070
     0
1002
}
1002
{
1000
BEHIND
1070
     0
1002
}
1002
{
1000
OTHER
1070
     0
1002
}
1002
{
1000
REACTOR
1002
}
1001
GENIUS_GENOBJ-N-HTC_13
1002
{
1000
OWNER
1000
GEN
1002
}
1001
GENIUS_GENHATCH_13
1002
{
1000
DATA
1040
45.0
1042
2.5
1000
_U
1070
     0
1011
-235.2475641025267
1021
0.0
1031
0.0
1021
76.424339524876345
1031
0.0
1002
}
1002
{
1000
UCS
1010
0.0
1020
0.0
1030
0.0
1010
1.0
1020
0.0
1030
0.0
1010
0.0
1020
1.0
1030
0.0
1002
}
  0
LINE
  5
18E54
  8
OS
  6
CONTINUOUS
 62
     2
 10
-247.5
 20
52.216709839658307
 30
0.0
 11
-223.4999999999998
 21
76.216709839658336
 31
0.0
1001
GENIUS_GENODEF_13
1002
{
1000
HIER
1070
     0
1002
}
1002
{
1000
MANEDIT
1070
     0
1002
}
1002
{
1000
NOSEL
1070
     0
1002
}
1002
{
1000
BEHIND
1070
     0
1002
}
1002
{
1000
OTHER
1070
     0
1002
}
1002
{
1000
REACTOR
1002
}
1001
GENIUS_GENOBJ-N-HTC_13
1002
{
1000
OWNER
1000
GEN
1002
}
1001
GENIUS_GENHATCH_13
1002
{
1000
DATA
1040
45.0
1042
2.5
1000
_U
1070
     0
1011
-235.2475641025267
1021
0.0
1031
0.0
1021
76.424339524876345
1031
0.0
1002
}
1002
{
1000
UCS
1010
0.0
1020
0.0
1030
0.0
1010
1.0
1020
0.0
1030
0.0
1010
0.0
1020
1.0
1030
0.0
1002
}
  0
LINE
  5
18E55
  8
OS
  6
CONTINUOUS
 62
     2
 10
-241.3485292613401
 20
51.297112766452742
 30
0.0
 11
-223.4999999999998
 21
69.145642027792803
 31
0.0
1001
GENIUS_GENODEF_13
1002
{
1000
HIER
1070
     0
1002
}
1002
{
1000
MANEDIT
1070
     0
1002
}
1002
{
1000
NOSEL
1070
     0
1002
}
1002
{
1000
BEHIND
1070
     0
1002
}
1002
{
1000
OTHER
1070
     0
1002
}
1002
{
1000
REACTOR
1002
}
1001
GENIUS_GENOBJ-N-HTC_13
1002
{
1000
OWNER
1000
GEN
1002
}
1001
GENIUS_GENHATCH_13
1002
{
1000
DATA
1040
45.0
1042
2.5
1000
_U
1070
     0
1011
-235.2475641025267
1021
0.0
1031
0.0
1021
76.424339524876345
1031
0.0
1002
}
1002
{
1000
UCS
1010
0.0
1020
0.0
1030
0.0
1010
1.0
1020
0.0
1030
0.0
1010
0.0
1020
1.0
1030
0.0
1002
}
  0
LINE
  5
18E56
  8
OS
  6
CONTINUOUS
 62
     2
 10
-234.2774614494746
 20
51.297112766452628
 30
0.0
 11
-223.4999999999998
 21
62.074574215927321
 31
0.0
1001
GENIUS_GENODEF_13
1002
{
1000
HIER
1070
     0
1002
}
1002
{
1000
MANEDIT
1070
     0
1002
}
1002
{
1000
NOSEL
1070
     0
1002
}
1002
{
1000
BEHIND
1070
     0
1002
}
1002
{
1000
OTHER
1070
     0
1002
}
1002
{
1000
REACTOR
1002
}
1001
GENIUS_GENOBJ-N-HTC_13
1002
{
1000
OWNER
1000
GEN
1002
}
1001
GENIUS_GENHATCH_13
1002
{
1000
DATA
1040
45.0
1042
2.5
1000
_U
1070
     0
1011
-235.2475641025267
1021
0.0
1031
0.0
1021
76.424339524876345
1031
0.0
1002
}
1002
{
1000
UCS
1010
0.0
1020
0.0
1030
0.0
1010
1.0
1020
0.0
1030
0.0
1010
0.0
1020
1.0
1030
0.0
1002
}
  0
LINE
  5
18E57
  8
OS
  6
CONTINUOUS
 62
     2
 10
-227.2063936376091
 20
51.297112766452592
 30
0.0
 11
-223.4999999999998
 21
55.003506404061852
 31
0.0
1001
GENIUS_GENODEF_13
1002
{
1000
HIER
1070
     0
1002
}
1002
{
1000
MANEDIT
1070
     0
1002
}
1002
{
1000
NOSEL
1070
     0
1002
}
1002
{
1000
BEHIND
1070
     0
1002
}
1002
{
1000
OTHER
1070
     0
1002
}
1002
{
1000
REACTOR
1002
}
1001
GENIUS_GENOBJ-N-HTC_13
1002
{
1000
OWNER
1000
GEN
1002
}
1001
GENIUS_GENHATCH_13
1002
{
1000
DATA
1040
45.0
1042
2.5
1000
_U
1070
     0
1011
-235.2475641025267
1021
0.0
1031
0.0
1021
76.424339524876345
1031
0.0
1002
}
1002
{
1000
UCS
1010
0.0
1020
0.0
1030
0.0
1010
1.0
1020
0.0
1030
0.0
1010
0.0
1020
1.0
1030
0.0
1002
}
  0
TEXT
  5
18E58
  8
SU
  6
CONTINUOUS
 62
     3
 10
-146.2000000018333
 20
36.6666365741414
 30
0.0
 40
4.0
  1
4.5
 50
90.0
 41
0.8299999999999999
  0
TEXT
  5
18E59
  8
SU
  6
CONTINUOUS
 62
     3
 10
-146.2000000018333
 20
66.628265890694422
 30
0.0
 40
4.0
  1
7.5
 50
90.0
 41
0.8299999999999999
  0
TEXT
  5
18E5A
  8
SU
  6
CONTINUOUS
 62
     3
 10
-131.20000000183319
 20
75.635208002713185
 30
0.0
 40
4.0
  1
38
 50
90.0
 41
0.8299999999999999
  0
TEXT
  5
18E5B
  8
SU
  6
CONTINUOUS
 62
     3
 10
-116.2000000018334
 20
69.635208002712972
 30
0.0
 40
4.0
  1
50
 50
90.0
 41
0.8299999999999999
  0
TEXT
  5
18E5C
  8
SU
  6
CONTINUOUS
 62
     3
 10
-101.2000000018334
 20
-28.94193485442981
 30
0.0
 40
4.0
  1
H
 50
90.0
 41
0.8299999999999999
  0
TEXT
  5
18E5D
  8
SU
  6
CONTINUOUS
 62
     3
 10
-131.20000000183319
 20
-150.60193485444091
 30
0.0
 40
4.0
  1
10
 50
90.0
 41
0.8299999999999999
  0
TEXT
  5
18E5E
  8
SU
  6
CONTINUOUS
 62
     3
 10
-131.20000000183319
 20
-69.062411044928353
 30
0.0
 40
4.0
  1
障子H（SH）＝H-55.5
 50
90.0
 41
0.8299999999999999
  0
TEXT
  5
18E5F
  8
SU
  6
CONTINUOUS
 62
     3
 10
-161.8323809542145
 20
8.59711276645276
 30
0.0
 40
4.0
  1
6.6
 41
0.8299999999999999
  0
TEXT
  5
18E60
  8
SU
  6
CONTINUOUS
 62
     3
 10
-189.66190476373831
 20
8.59711276645276
 30
0.0
 40
4.0
  1
30
 41
0.8299999999999999
  0
TEXT
  5
18E61
  8
SU
  6
CONTINUOUS
 62
     3
 10
-238.07439243689871
 20
8.59711276645276
 30
0.0
 40
4.0
  1
D=11
 41
0.8299999999999999
  0
TEXT
  5
18E62
  8
SU
  6
CONTINUOUS
 62
     3
 10
-353.02047619047602
 20
175.09711276645251
 30
0.0
 40
4.0
  1
12.5
 41
0.8299999999999999
  0
TEXT
  5
18E63
  8
SU
  6
CONTINUOUS
 62
     3
 10
-293.48000000000002
 20
175.09711276645251
 30
0.0
 40
4.0
  1
105
 41
0.8299999999999999
  0
TEXT
  5
18E64
  8
SU
  6
CONTINUOUS
 62
     3
 10
-235.5204761904761
 20
175.09711276645251
 30
0.0
 40
4.0
  1
12.5
 41
0.8299999999999999
  0
TEXT
  5
18E65
  8
SU
  6
CONTINUOUS
 62
     3
 10
-208.16190476282151
 20
175.09711276645251
 30
0.0
 40
4.0
  1
37
 41
0.8299999999999999
  0
TEXT
  5
18E66
  8
SU
  6
CONTINUOUS
 62
     3
 10
-293.48000000000002
 20
190.0971127664524
 30
0.0
 40
4.0
  1
130
 41
0.8299999999999999
  0
TEXT
  5
18E67
  8
SU
  6
CONTINUOUS
 62
     3
 10
-199.73333333424981
 20
190.0971127664524
 30
0.0
 40
4.0
  1
58.6
 41
0.8299999999999999
  0
TEXT
  5
18E68
  8
SU
  6
CONTINUOUS
 62
     3
 10
-385.80000000000001
 20
-67.147744377321899
 30
0.0
 40
4.0
  1
開口H≦H-46.5
 50
90.0
 41
0.8299999999999999
  0
TEXT
  5
18E69
  8
SU
  6
CONTINUOUS
 62
     3
 10
133.34164174906491
 20
88.464040902754476
 30
0.0
 40
4.0
  1
24≦B
 41
0.8299999999999999
  0
TEXT
  5
18E6A
  8
SU
  6
CONTINUOUS
 62
     3
 10
164.0475465109698
 20
88.464040902754476
 30
0.0
 40
4.0
  1
引残し＝77-B
 41
0.8299999999999999
  0
TEXT
  5
18E6B
  8
SU
  6
CONTINUOUS
 62
     3
 10
292.34816977724341
 20
88.46404090276026
 30
0.0
 40
4.0
  1
C=24
 41
0.8299999999999999
  0
TEXT
  5
18E6C
  8
SU
  6
CONTINUOUS
 62
     3
 10
194.07109623934471
 20
104.79737423608979
 30
0.0
 40
4.0
  1
開口W≦（W+80）/2-B
 41
0.8299999999999999
  0
TEXT
  5
18E6D
  8
SU
  6
CONTINUOUS
 62
     3
 10
213.66233433458279
 20
88.46404090276026
 30
0.0
 40
4.0
  1
有効開口＝開口W-24-引残し-B
 41
0.8299999999999999
  0
TEXT
  5
18E6E
  8
SU
  6
CONTINUOUS
 62
     3
 10
272.06340787248121
 20
73.464040902756736
 30
0.0
 40
4.0
  1
24
 41
0.8299999999999999
  0
TEXT
  5
18E6F
  8
SU
  6
CONTINUOUS
 62
     3
 10
305.72340787248152
 20
-166.6359590972429
 30
0.0
 40
4.0
  1
8
 41
0.8299999999999999
  0
TEXT
  5
18E70
  8
SU
  6
CONTINUOUS
 62
     3
 10
317.02102692010061
 20
-196.6359590972429
 30
0.0
 40
4.0
  1
22.5
 41
0.8299999999999999
  0
TEXT
  5
18E71
  8
SU
  6
CONTINUOUS
 62
     3
 10
136.87221317763621
 20
-166.6359590972429
 30
0.0
 40
4.0
  1
28.5
 41
0.8299999999999999
  0
TEXT
  5
18E72
  8
SU
  6
CONTINUOUS
 62
     3
 10
163.49364174906469
 20
-181.63595909724279
 30
0.0
 40
4.0
  1
77
 41
0.8299999999999999
  0
TEXT
  5
18E73
  8
SU
  6
CONTINUOUS
 62
     3
 10
190.2135724298208
 20
-195.30262576390959
 30
0.0
 40
4.0
  1
障子W（SW）＝（W+32）/2
 41
0.8299999999999999
  0
TEXT
  5
18E74
  8
SU
  6
CONTINUOUS
 62
     3
 10
52.46385814410668
 20
-195.30262576390959
 30
0.0
 40
4.0
  1
（W-122）/2
 41
0.8299999999999999
  0
TEXT
  5
18E75
  8
SU
  6
CONTINUOUS
 62
     3
 10
-10.478973079899291
 20
-196.6359590972429
 30
0.0
 40
4.0
  1
22.5
 41
0.8299999999999999
  0
TEXT
  5
18E76
  8
SU
  6
CONTINUOUS
 62
     3
 10
156.907217396291
 20
-211.63595909724279
 30
0.0
 40
4.0
  1
W
 41
0.8299999999999999
  0
TEXT
  5
18E77
  8
SU
  6
CONTINUOUS
 62
     3
 10
185.8555465109697
 20
-28.815959097243731
 30
0.0
 40
4.0
  1
152
 50
90.0
 41
0.8299999999999999
  0
TEXT
  5
18E78
  8
SU
  6
CONTINUOUS
 62
     3
 10
170.8555465109697
 20
-87.138897034305444
 30
0.0
 40
4.0
  1
D=11
 50
90.0
 41
0.8299999999999999
  0
TEXT
  5
18E79
  8
SU
  6
CONTINUOUS
 62
     3
 10
185.8555465109697
 20
-124.4042347724308
 30
0.0
 40
4.0
  1
30
 50
90.0
 41
0.8299999999999999
  0
TEXT
  5
18E7A
  8
SU
  6
CONTINUOUS
 62
     3
 10
185.8555465109697
 20
-158.5664352877188
 30
0.0
 40
4.0
  1
6.6
 50
90.0
 41
0.8299999999999999
  0
TEXT
  5
18E7B
  8
SU
  6
CONTINUOUS
 62
     3
 10
-208.16190476282171
 20
-197.9028872353822
 30
0.0
 40
4.0
  1
37
 41
0.8299999999999999
  0
TEXT
  5
18E7C
  8
SU
  6
CONTINUOUS
 62
     3
 10
-192.2704761923099
 20
-182.902887235382
 30
0.0
 40
4.0
  1
19.5
 41
0.8299999999999999
  0
TEXT
  5
18E7D
  8
SU
  6
CONTINUOUS
 62
     3
 10
-75.995639746567875
 20
-110.4978638611743
 30
0.0
 40
4.0
  1
37
 50
90.0
 41
0.8299999999999999
  0
TEXT
  5
18E7E
  8
SU
  6
CONTINUOUS
 62
     3
 10
-75.995639746567903
 20
-28.81595909724275
 30
0.0
 40
4.0
  1
130
 50
90.0
 41
0.8299999999999999
  0
TEXT
  5
18E7F
  8
SU
  6
CONTINUOUS
 62
     3
 10
-60.99563974656791
 20
-28.8159590972428
 30
0.0
 40
4.0
  1
105
 50
90.0
 41
0.8299999999999999
  0
TEXT
  5
18E80
  8
SU
  6
CONTINUOUS
 62
     3
 10
-60.995639746567882
 20
-88.35643528771898
 30
0.0
 40
4.0
  1
12.5
 50
90.0
 41
0.8299999999999999
  0
TEXT
  5
18E81
  8
SU
  6
CONTINUOUS
 62
     3
 10
-60.99563974656791
 20
29.14356471228098
 30
0.0
 40
4.0
  1
12.5
 50
90.0
 41
0.8299999999999999
  0
TEXT
  5
18E82
  8
SU
  6
CONTINUOUS
 62
     3
 10
280.14245549152912
 20
-166.6359590972429
 30
0.0
 40
4.0
  1
40
 41
0.8299999999999999
  0
TEXT
  5
18E83
  8
SU
  6
CONTINUOUS
 62
     3
 10
352.50436025343402
 20
-128.997863860894
 30
0.0
 40
4.0
  1
40
 50
90.0
 41
0.8299999999999999
  0
TEXT
  5
18E84
  8
SU
  6
CONTINUOUS
 62
     3
 10
352.50436025343402
 20
-100.7350067171635
 30
0.0
 40
4.0
  1
17
 50
90.0
 41
0.8299999999999999
  0
ARC
  5
18E85
  8
SU
  6
CONTINUOUS
 62
     3
 10
353.80436025343403
 20
-105.83595909898931
 30
0.0
 40
0.2999999999999971
 50
90.0
 51
270.0
  0
ARC
  5
18E86
  8
SU
  6
CONTINUOUS
 62
     3
 10
353.80436025343403
 20
-105.83595909898931
 30
0.0
 40
0.2999999999999971
 50
270.0
 51
90.0
  0
ARC
  5
18E87
  8
SU
  6
CONTINUOUS
 62
     3
 10
353.80436025343403
 20
-88.835959097242835
 30
0.0
 40
0.2999999999999971
 50
270.0
 51
90.0
  0
ARC
  5
18E88
  8
SU
  6
CONTINUOUS
 62
     3
 10
353.80436025343403
 20
-88.835959097242835
 30
0.0
 40
0.2999999999999971
 50
90.0
 51
270.0
  0
ARC
  5
18E89
  8
SU
  6
CONTINUOUS
 62
     3
 10
353.80436025343391
 20
-145.83595909898901
 30
0.0
 40
0.3000000000000114
 50
90.0
 51
270.0
  0
ARC
  5
18E8A
  8
SU
  6
CONTINUOUS
 62
     3
 10
353.80436025343391
 20
-145.83595909898901
 30
0.0
 40
0.3000000000000114
 50
270.0
 51
90.0
  0
ARC
  5
18E8B
  8
SU
  6
CONTINUOUS
 62
     3
 10
353.80436025343403
 20
-105.83595909898931
 30
0.0
 40
0.2999999999999971
 50
270.0
 51
90.0
  0
ARC
  5
18E8C
  8
SU
  6
CONTINUOUS
 62
     3
 10
353.80436025343403
 20
-105.83595909898931
 30
0.0
 40
0.2999999999999971
 50
90.0
 51
270.0
  0
ARC
  5
18E8D
  8
SU
  6
CONTINUOUS
 62
     3
 10
303.30436025343391
 20
-167.9359590972428
 30
0.0
 40
0.3000000000000114
 50
180.0
 51
0.0
  0
ARC
  5
18E8E
  8
SU
  6
CONTINUOUS
 62
     3
 10
303.30436025343391
 20
-167.9359590972428
 30
0.0
 40
0.3000000000000114
 50
0.0
 51
180.0
  0
ARC
  5
18E8F
  8
SU
  6
CONTINUOUS
 62
     3
 10
263.30436025343391
 20
-167.9359590972428
 30
0.0
 40
0.3000000000000114
 50
0.0
 51
180.0
  0
ARC
  5
18E90
  8
SU
  6
CONTINUOUS
 62
     3
 10
263.30436025343391
 20
-167.9359590972428
 30
0.0
 40
0.3000000000000114
 50
180.0
 51
0.0
  0
ARC
  5
18E91
  8
SU
  6
CONTINUOUS
 62
     3
 10
-59.695639746567892
 20
28.664040902757201
 30
0.0
 40
0.3000000000000007
 50
90.0
 51
270.0
  0
ARC
  5
18E92
  8
SU
  6
CONTINUOUS
 62
     3
 10
-59.695639746567892
 20
28.664040902757201
 30
0.0
 40
0.3000000000000007
 50
270.0
 51
90.0
  0
ARC
  5
18E93
  8
SU
  6
CONTINUOUS
 62
     3
 10
-59.695639746567892
 20
41.164040902757201
 30
0.0
 40
0.2999999999999971
 50
270.0
 51
90.0
  0
ARC
  5
18E94
  8
SU
  6
CONTINUOUS
 62
     3
 10
-59.695639746567892
 20
41.164040902757201
 30
0.0
 40
0.2999999999999971
 50
90.0
 51
270.0
  0
ARC
  5
18E95
  8
SU
  6
CONTINUOUS
 62
     3
 10
-59.695639746567892
 20
-76.33595909724275
 30
0.0
 40
0.2999999999999971
 50
270.0
 51
90.0
  0
ARC
  5
18E96
  8
SU
  6
CONTINUOUS
 62
     3
 10
-59.695639746567892
 20
-76.33595909724275
 30
0.0
 40
0.2999999999999971
 50
90.0
 51
270.0
  0
ARC
  5
18E97
  8
SU
  6
CONTINUOUS
 62
     3
 10
-59.695639746567892
 20
-88.835959097242764
 30
0.0
 40
0.2999999999999971
 50
90.0
 51
270.0
  0
ARC
  5
18E98
  8
SU
  6
CONTINUOUS
 62
     3
 10
-59.695639746567892
 20
-88.835959097242764
 30
0.0
 40
0.2999999999999971
 50
270.0
 51
90.0
  0
ARC
  5
18E99
  8
SU
  6
CONTINUOUS
 62
     3
 10
-59.695639746567892
 20
28.664040902757201
 30
0.0
 40
0.3000000000000007
 50
270.0
 51
90.0
  0
ARC
  5
18E9A
  8
SU
  6
CONTINUOUS
 62
     3
 10
-59.695639746567892
 20
28.664040902757201
 30
0.0
 40
0.3000000000000007
 50
90.0
 51
270.0
  0
ARC
  5
18E9B
  8
SU
  6
CONTINUOUS
 62
     3
 10
-59.695639746567927
 20
-76.33595909724275
 30
0.0
 40
0.2999999999999971
 50
90.0
 51
270.0
  0
ARC
  5
18E9C
  8
SU
  6
CONTINUOUS
 62
     3
 10
-59.695639746567927
 20
-76.33595909724275
 30
0.0
 40
0.2999999999999971
 50
270.0
 51
90.0
  0
ARC
  5
18E9D
  8
SU
  6
CONTINUOUS
 62
     3
 10
-74.695639746567892
 20
41.164040902757201
 30
0.0
 40
0.2999999999999971
 50
270.0
 51
90.0
  0
ARC
  5
18E9E
  8
SU
  6
CONTINUOUS
 62
     3
 10
-74.695639746567892
 20
41.164040902757201
 30
0.0
 40
0.2999999999999971
 50
90.0
 51
270.0
  0
ARC
  5
18E9F
  8
SU
  6
CONTINUOUS
 62
     3
 10
-74.69563974656792
 20
-88.835959097242679
 30
0.0
 40
0.2999999999999971
 50
90.0
 51
270.0
  0
ARC
  5
18EA0
  8
SU
  6
CONTINUOUS
 62
     3
 10
-74.69563974656792
 20
-88.835959097242679
 30
0.0
 40
0.2999999999999971
 50
270.0
 51
90.0
  0
ARC
  5
18EA1
  8
SU
  6
CONTINUOUS
 62
     3
 10
-74.695639746567906
 20
-88.835959097242679
 30
0.0
 40
0.2999999999999971
 50
270.0
 51
90.0
  0
ARC
  5
18EA2
  8
SU
  6
CONTINUOUS
 62
     3
 10
-74.695639746567906
 20
-88.835959097242679
 30
0.0
 40
0.2999999999999971
 50
90.0
 51
270.0
  0
ARC
  5
18EA3
  8
SU
  6
CONTINUOUS
 62
     3
 10
-74.69563974656792
 20
-125.8359591012964
 30
0.0
 40
0.2999999999999971
 50
90.0
 51
270.0
  0
ARC
  5
18EA4
  8
SU
  6
CONTINUOUS
 62
     3
 10
-74.69563974656792
 20
-125.8359591012964
 30
0.0
 40
0.2999999999999971
 50
270.0
 51
90.0
  0
ARC
  5
18EA5
  8
SU
  6
CONTINUOUS
 62
     3
 10
-196.2500000018336
 20
-184.20288723538221
 30
0.0
 40
0.3000000000000114
 50
0.0
 51
180.0
  0
ARC
  5
18EA6
  8
SU
  6
CONTINUOUS
 62
     3
 10
-196.2500000018336
 20
-184.20288723538221
 30
0.0
 40
0.3000000000000114
 50
180.0
 51
0.0
  0
ARC
  5
18EA7
  8
SU
  6
CONTINUOUS
 62
     3
 10
-176.7500000018338
 20
-184.20288723538221
 30
0.0
 40
0.3000000000000114
 50
180.0
 51
0.0
  0
ARC
  5
18EA8
  8
SU
  6
CONTINUOUS
 62
     3
 10
-176.7500000018338
 20
-184.20288723538221
 30
0.0
 40
0.3000000000000114
 50
0.0
 51
180.0
  0
ARC
  5
18EA9
  8
SU
  6
CONTINUOUS
 62
     3
 10
-186.50000000183351
 20
-199.20288723538221
 30
0.0
 40
0.3000000000000114
 50
180.0
 51
0.0
  0
ARC
  5
18EAA
  8
SU
  6
CONTINUOUS
 62
     3
 10
-186.50000000183351
 20
-199.20288723538221
 30
0.0
 40
0.3000000000000114
 50
0.0
 51
180.0
  0
ARC
  5
18EAB
  8
SU
  6
CONTINUOUS
 62
     3
 10
-223.4999999999998
 20
-199.20288723538221
 30
0.0
 40
0.3000000000000114
 50
0.0
 51
180.0
  0
ARC
  5
18EAC
  8
SU
  6
CONTINUOUS
 62
     3
 10
-223.4999999999998
 20
-199.20288723538221
 30
0.0
 40
0.3000000000000114
 50
180.0
 51
0.0
  0
ARC
  5
18EAD
  8
SU
  6
CONTINUOUS
 62
     3
 10
187.1555465109694
 20
-140.83595910128921
 30
0.0
 40
0.3000000000000114
 50
270.0
 51
90.0
  0
ARC
  5
18EAE
  8
SU
  6
CONTINUOUS
 62
     3
 10
187.1555465109694
 20
-140.83595910128921
 30
0.0
 40
0.3000000000000114
 50
90.0
 51
270.0
  0
ARC
  5
18EAF
  8
SU
  6
CONTINUOUS
 62
     3
 10
187.1555465109694
 20
-147.4359590972428
 30
0.0
 40
0.3000000000000114
 50
90.0
 51
270.0
  0
ARC
  5
18EB0
  8
SU
  6
CONTINUOUS
 62
     3
 10
187.1555465109694
 20
-147.4359590972428
 30
0.0
 40
0.3000000000000114
 50
270.0
 51
90.0
  0
ARC
  5
18EB1
  8
SU
  6
CONTINUOUS
 62
     3
 10
187.1555465109694
 20
-110.8359590989905
 30
0.0
 40
0.2999999999999971
 50
270.0
 51
90.0
  0
ARC
  5
18EB2
  8
SU
  6
CONTINUOUS
 62
     3
 10
187.1555465109694
 20
-110.8359590989905
 30
0.0
 40
0.2999999999999971
 50
90.0
 51
270.0
  0
ARC
  5
18EB3
  8
SU
  6
CONTINUOUS
 62
     3
 10
187.1555465109694
 20
-140.83595910128921
 30
0.0
 40
0.3000000000000114
 50
90.0
 51
270.0
  0
ARC
  5
18EB4
  8
SU
  6
CONTINUOUS
 62
     3
 10
187.1555465109694
 20
-140.83595910128921
 30
0.0
 40
0.3000000000000114
 50
270.0
 51
90.0
  0
ARC
  5
18EB5
  8
SU
  6
CONTINUOUS
 62
     3
 10
187.1555465109694
 20
-99.835959097243844
 30
0.0
 40
0.2999999999999971
 50
270.0
 51
90.0
  0
ARC
  5
18EB6
  8
SU
  6
CONTINUOUS
 62
     3
 10
187.1555465109694
 20
-99.835959097243844
 30
0.0
 40
0.2999999999999971
 50
90.0
 51
270.0
  0
ARC
  5
18EB7
  8
SU
  6
CONTINUOUS
 62
     3
 10
187.1555465109694
 20
-110.8359591013047
 30
0.0
 40
0.2999999999999971
 50
90.0
 51
270.0
  0
ARC
  5
18EB8
  8
SU
  6
CONTINUOUS
 62
     3
 10
187.1555465109694
 20
-110.8359591013047
 30
0.0
 40
0.2999999999999971
 50
270.0
 51
90.0
  0
ARC
  5
18EB9
  8
SU
  6
CONTINUOUS
 62
     3
 10
187.15554651096949
 20
52.16404090275627
 30
0.0
 40
0.2999999999999971
 50
270.0
 51
90.0
  0
ARC
  5
18EBA
  8
SU
  6
CONTINUOUS
 62
     3
 10
187.15554651096949
 20
52.16404090275627
 30
0.0
 40
0.2999999999999971
 50
90.0
 51
270.0
  0
ARC
  5
18EBB
  8
SU
  6
CONTINUOUS
 62
     3
 10
187.15554651096949
 20
-99.835959097243844
 30
0.0
 40
0.2999999999999971
 50
90.0
 51
270.0
  0
ARC
  5
18EBC
  8
SU
  6
CONTINUOUS
 62
     3
 10
187.15554651096949
 20
-99.835959097243844
 30
0.0
 40
0.2999999999999971
 50
270.0
 51
90.0
  0
ARC
  5
18EBD
  8
SU
  6
CONTINUOUS
 62
     3
 10
6.3043602534340364
 20
-197.9359590972426
 30
0.0
 40
0.2999999999999998
 50
180.0
 51
0.0
  0
ARC
  5
18EBE
  8
SU
  6
CONTINUOUS
 62
     3
 10
6.3043602534340364
 20
-197.9359590972426
 30
0.0
 40
0.2999999999999998
 50
0.0
 51
180.0
  0
ARC
  5
18EBF
  8
SU
  6
CONTINUOUS
 62
     3
 10
-16.195639746565959
 20
-197.9359590972426
 30
0.0
 40
0.3000000000000007
 50
0.0
 51
180.0
  0
ARC
  5
18EC0
  8
SU
  6
CONTINUOUS
 62
     3
 10
-16.195639746565959
 20
-197.9359590972426
 30
0.0
 40
0.3000000000000007
 50
180.0
 51
0.0
  0
ARC
  5
18EC1
  8
SU
  6
CONTINUOUS
 62
     3
 10
128.1555465109698
 20
-197.9359590972426
 30
0.0
 40
0.2999999999999971
 50
180.0
 51
0.0
  0
ARC
  5
18EC2
  8
SU
  6
CONTINUOUS
 62
     3
 10
128.1555465109698
 20
-197.9359590972426
 30
0.0
 40
0.3000000000000114
 50
0.0
 51
180.0
  0
ARC
  5
18EC3
  8
SU
  6
CONTINUOUS
 62
     3
 10
6.3043602534340364
 20
-197.9359590972426
 30
0.0
 40
0.2999999999999998
 50
0.0
 51
180.0
  0
ARC
  5
18EC4
  8
SU
  6
CONTINUOUS
 62
     3
 10
6.3043602534340364
 20
-197.9359590972426
 30
0.0
 40
0.2999999999999998
 50
180.0
 51
0.0
  0
ARC
  5
18EC5
  8
SU
  6
CONTINUOUS
 62
     3
 10
128.1555465109698
 20
-197.9359590972426
 30
0.0
 40
0.3000000000000114
 50
0.0
 51
180.0
  0
ARC
  5
18EC6
  8
SU
  6
CONTINUOUS
 62
     3
 10
128.1555465109698
 20
-197.9359590972426
 30
0.0
 40
0.2999999999999971
 50
180.0
 51
0.0
  0
ARC
  5
18EC7
  8
SU
  6
CONTINUOUS
 62
     3
 10
311.30436025343391
 20
-197.9359590972426
 30
0.0
 40
0.3000000000000114
 50
180.0
 51
0.0
  0
ARC
  5
18EC8
  8
SU
  6
CONTINUOUS
 62
     3
 10
311.30436025343391
 20
-197.9359590972426
 30
0.0
 40
0.3000000000000114
 50
0.0
 51
180.0
  0
ARC
  5
18EC9
  8
SU
  6
CONTINUOUS
 62
     3
 10
128.1555465109698
 20
-182.9359590972428
 30
0.0
 40
0.3000000000000114
 50
0.0
 51
180.0
  0
ARC
  5
18ECA
  8
SU
  6
CONTINUOUS
 62
     3
 10
128.1555465109698
 20
-182.9359590972428
 30
0.0
 40
0.2999999999999971
 50
180.0
 51
0.0
  0
ARC
  5
18ECB
  8
SU
  6
CONTINUOUS
 62
     3
 10
205.15554651096949
 20
-182.9359590972428
 30
0.0
 40
0.3000000000000114
 50
180.0
 51
0.0
  0
ARC
  5
18ECC
  8
SU
  6
CONTINUOUS
 62
     3
 10
205.15554651096949
 20
-182.9359590972428
 30
0.0
 40
0.3000000000000114
 50
0.0
 51
180.0
  0
ARC
  5
18ECD
  8
SU
  6
CONTINUOUS
 62
     3
 10
156.6555465109694
 20
-167.9359590972428
 30
0.0
 40
0.3000000000000114
 50
180.0
 51
0.0
  0
ARC
  5
18ECE
  8
SU
  6
CONTINUOUS
 62
     3
 10
156.6555465109694
 20
-167.9359590972428
 30
0.0
 40
0.3000000000000114
 50
0.0
 51
180.0
  0
ARC
  5
18ECF
  8
SU
  6
CONTINUOUS
 62
     3
 10
128.1555465109698
 20
-167.9359590972428
 30
0.0
 40
0.3000000000000114
 50
0.0
 51
180.0
  0
ARC
  5
18ED0
  8
SU
  6
CONTINUOUS
 62
     3
 10
128.1555465109698
 20
-167.9359590972428
 30
0.0
 40
0.2999999999999971
 50
180.0
 51
0.0
  0
ARC
  5
18ED1
  8
SU
  6
CONTINUOUS
 62
     3
 10
311.30436025343391
 20
-197.9359590972426
 30
0.0
 40
0.3000000000000114
 50
0.0
 51
180.0
  0
ARC
  5
18ED2
  8
SU
  6
CONTINUOUS
 62
     3
 10
311.30436025343391
 20
-197.9359590972426
 30
0.0
 40
0.3000000000000114
 50
180.0
 51
0.0
  0
ARC
  5
18ED3
  8
SU
  6
CONTINUOUS
 62
     3
 10
333.80436025343403
 20
-197.9359590972426
 30
0.0
 40
0.3000000000000114
 50
180.0
 51
0.0
  0
ARC
  5
18ED4
  8
SU
  6
CONTINUOUS
 62
     3
 10
333.80436025343403
 20
-197.9359590972426
 30
0.0
 40
0.3000000000000114
 50
0.0
 51
180.0
  0
ARC
  5
18ED5
  8
SU
  6
CONTINUOUS
 62
     3
 10
311.30436025343391
 20
-167.9359590972428
 30
0.0
 40
0.3000000000000114
 50
180.0
 51
0.0
  0
ARC
  5
18ED6
  8
SU
  6
CONTINUOUS
 62
     3
 10
311.30436025343391
 20
-167.9359590972428
 30
0.0
 40
0.3000000000000114
 50
0.0
 51
180.0
  0
ARC
  5
18ED7
  8
SU
  6
CONTINUOUS
 62
     3
 10
303.30436025343391
 20
-167.9359590972428
 30
0.0
 40
0.3000000000000114
 50
0.0
 51
180.0
  0
ARC
  5
18ED8
  8
SU
  6
CONTINUOUS
 62
     3
 10
303.30436025343391
 20
-167.9359590972428
 30
0.0
 40
0.3000000000000114
 50
180.0
 51
0.0
  0
ARC
  5
18ED9
  8
SU
  6
CONTINUOUS
 62
     3
 10
287.30436025343391
 20
72.164040902756724
 30
0.0
 40
0.3000000000000114
 50
180.0
 51
0.0
  0
ARC
  5
18EDA
  8
SU
  6
CONTINUOUS
 62
     3
 10
287.30436025343391
 20
72.164040902756724
 30
0.0
 40
0.3000000000000114
 50
0.0
 51
180.0
  0
ARC
  5
18EDB
  8
SU
  6
CONTINUOUS
 62
     3
 10
263.30436025343391
 20
72.164040902756724
 30
0.0
 40
0.3000000000000114
 50
0.0
 51
180.0
  0
ARC
  5
18EDC
  8
SU
  6
CONTINUOUS
 62
     3
 10
263.30436025343391
 20
72.164040902756724
 30
0.0
 40
0.3000000000000114
 50
180.0
 51
0.0
  0
ARC
  5
18EDD
  8
SU
  6
CONTINUOUS
 62
     3
 10
287.30436025343391
 20
87.164040902760263
 30
0.0
 40
0.3000000000000114
 50
180.0
 51
0.0
  0
ARC
  5
18EDE
  8
SU
  6
CONTINUOUS
 62
     3
 10
287.30436025343391
 20
87.164040902760263
 30
0.0
 40
0.3000000000000114
 50
0.0
 51
180.0
  0
ARC
  5
18EDF
  8
SU
  6
CONTINUOUS
 62
     3
 10
205.15554651096949
 20
87.164040902760263
 30
0.0
 40
0.3000000000000114
 50
0.0
 51
180.0
  0
ARC
  5
18EE0
  8
SU
  6
CONTINUOUS
 62
     3
 10
205.15554651096949
 20
87.164040902760263
 30
0.0
 40
0.3000000000000114
 50
180.0
 51
0.0
  0
ARC
  5
18EE1
  8
SU
  6
CONTINUOUS
 62
     3
 10
311.30436025343391
 20
102.1640409027567
 30
0.0
 40
0.3000000000000114
 50
180.0
 51
0.0
  0
ARC
  5
18EE2
  8
SU
  6
CONTINUOUS
 62
     3
 10
311.30436025343391
 20
102.1640409027567
 30
0.0
 40
0.3000000000000114
 50
0.0
 51
180.0
  0
ARC
  5
18EE3
  8
SU
  6
CONTINUOUS
 62
     3
 10
128.1555465109698
 20
102.1640409027567
 30
0.0
 40
0.3000000000000114
 50
0.0
 51
180.0
  0
ARC
  5
18EE4
  8
SU
  6
CONTINUOUS
 62
     3
 10
128.1555465109698
 20
102.1640409027567
 30
0.0
 40
0.2999999999999971
 50
180.0
 51
0.0
  0
ARC
  5
18EE5
  8
SU
  6
CONTINUOUS
 62
     3
 10
311.30436025343391
 20
87.164040902760263
 30
0.0
 40
0.3000000000000114
 50
180.0
 51
0.0
  0
ARC
  5
18EE6
  8
SU
  6
CONTINUOUS
 62
     3
 10
311.30436025343391
 20
87.164040902760263
 30
0.0
 40
0.3000000000000114
 50
0.0
 51
180.0
  0
ARC
  5
18EE7
  8
SU
  6
CONTINUOUS
 62
     3
 10
287.30436025343391
 20
87.164040902760263
 30
0.0
 40
0.3000000000000114
 50
0.0
 51
180.0
  0
ARC
  5
18EE8
  8
SU
  6
CONTINUOUS
 62
     3
 10
287.30436025343391
 20
87.164040902760263
 30
0.0
 40
0.3000000000000114
 50
180.0
 51
0.0
  0
ARC
  5
18EE9
  8
SU
  6
CONTINUOUS
 62
     3
 10
152.1555465109698
 20
87.164040902754465
 30
0.0
 40
0.3000000000000114
 50
0.0
 51
180.0
  0
ARC
  5
18EEA
  8
SU
  6
CONTINUOUS
 62
     3
 10
152.1555465109698
 20
87.164040902754465
 30
0.0
 40
0.3000000000000114
 50
180.0
 51
0.0
  0
ARC
  5
18EEB
  8
SU
  6
CONTINUOUS
 62
     3
 10
205.15554651096949
 20
87.164040902754465
 30
0.0
 40
0.3000000000000114
 50
180.0
 51
0.0
  0
ARC
  5
18EEC
  8
SU
  6
CONTINUOUS
 62
     3
 10
205.15554651096949
 20
87.164040902754465
 30
0.0
 40
0.3000000000000114
 50
0.0
 51
180.0
  0
ARC
  5
18EED
  8
SU
  6
CONTINUOUS
 62
     3
 10
128.1555465109698
 20
87.164040902754465
 30
0.0
 40
0.3000000000000114
 50
0.0
 51
180.0
  0
ARC
  5
18EEE
  8
SU
  6
CONTINUOUS
 62
     3
 10
128.1555465109698
 20
87.164040902754465
 30
0.0
 40
0.2999999999999971
 50
180.0
 51
0.0
  0
ARC
  5
18EEF
  8
SU
  6
CONTINUOUS
 62
     3
 10
152.1555465109698
 20
87.164040902754465
 30
0.0
 40
0.3000000000000114
 50
180.0
 51
0.0
  0
ARC
  5
18EF0
  8
SU
  6
CONTINUOUS
 62
     3
 10
152.1555465109698
 20
87.164040902754465
 30
0.0
 40
0.3000000000000114
 50
0.0
 51
180.0
  0
ARC
  5
18EF1
  8
SU
  6
CONTINUOUS
 62
     3
 10
-223.4999999999998
 20
188.79711276645239
 30
0.0
 40
0.3000000000000114
 50
0.0
 51
180.0
  0
ARC
  5
18EF2
  8
SU
  6
CONTINUOUS
 62
     3
 10
-223.4999999999998
 20
188.79711276645239
 30
0.0
 40
0.3000000000000114
 50
180.0
 51
0.0
  0
ARC
  5
18EF3
  8
SU
  6
CONTINUOUS
 62
     3
 10
-164.90000000183301
 20
188.79711276645239
 30
0.0
 40
0.3000000000000114
 50
180.0
 51
0.0
  0
ARC
  5
18EF4
  8
SU
  6
CONTINUOUS
 62
     3
 10
-164.90000000183301
 20
188.79711276645239
 30
0.0
 40
0.3000000000000114
 50
0.0
 51
180.0
  0
ARC
  5
18EF5
  8
SU
  6
CONTINUOUS
 62
     3
 10
-353.5
 20
188.79711276645239
 30
0.0
 40
0.3000000000000114
 50
0.0
 51
180.0
  0
ARC
  5
18EF6
  8
SU
  6
CONTINUOUS
 62
     3
 10
-353.5
 20
188.79711276645239
 30
0.0
 40
0.3000000000000114
 50
180.0
 51
0.0
  0
ARC
  5
18EF7
  8
SU
  6
CONTINUOUS
 62
     3
 10
-223.4999999999998
 20
188.79711276645239
 30
0.0
 40
0.3000000000000114
 50
180.0
 51
0.0
  0
ARC
  5
18EF8
  8
SU
  6
CONTINUOUS
 62
     3
 10
-223.4999999999998
 20
188.79711276645239
 30
0.0
 40
0.3000000000000114
 50
0.0
 51
180.0
  0
ARC
  5
18EF9
  8
SU
  6
CONTINUOUS
 62
     3
 10
-223.4999999999998
 20
173.79711276645239
 30
0.0
 40
0.3000000000000114
 50
0.0
 51
180.0
  0
ARC
  5
18EFA
  8
SU
  6
CONTINUOUS
 62
     3
 10
-223.4999999999998
 20
173.79711276645239
 30
0.0
 40
0.3000000000000114
 50
180.0
 51
0.0
  0
ARC
  5
18EFB
  8
SU
  6
CONTINUOUS
 62
     3
 10
-186.50000000183351
 20
173.79711276645239
 30
0.0
 40
0.3000000000000114
 50
180.0
 51
0.0
  0
ARC
  5
18EFC
  8
SU
  6
CONTINUOUS
 62
     3
 10
-186.50000000183351
 20
173.79711276645239
 30
0.0
 40
0.3000000000000114
 50
0.0
 51
180.0
  0
ARC
  5
18EFD
  8
SU
  6
CONTINUOUS
 62
     3
 10
-235.9999999999998
 20
173.79711276645239
 30
0.0
 40
0.3000000000000114
 50
0.0
 51
180.0
  0
ARC
  5
18EFE
  8
SU
  6
CONTINUOUS
 62
     3
 10
-235.9999999999998
 20
173.79711276645239
 30
0.0
 40
0.3000000000000114
 50
180.0
 51
0.0
  0
ARC
  5
18EFF
  8
SU
  6
CONTINUOUS
 62
     3
 10
-223.4999999999998
 20
173.79711276645239
 30
0.0
 40
0.3000000000000114
 50
180.0
 51
0.0
  0
ARC
  5
18F00
  8
SU
  6
CONTINUOUS
 62
     3
 10
-223.4999999999998
 20
173.79711276645239
 30
0.0
 40
0.3000000000000114
 50
0.0
 51
180.0
  0
ARC
  5
18F01
  8
SU
  6
CONTINUOUS
 62
     3
 10
-341.0
 20
173.79711276645239
 30
0.0
 40
0.3000000000000114
 50
0.0
 51
180.0
  0
ARC
  5
18F02
  8
SU
  6
CONTINUOUS
 62
     3
 10
-341.0
 20
173.79711276645239
 30
0.0
 40
0.3000000000000114
 50
180.0
 51
0.0
  0
ARC
  5
18F03
  8
SU
  6
CONTINUOUS
 62
     3
 10
-235.9999999999998
 20
173.79711276645239
 30
0.0
 40
0.3000000000000114
 50
180.0
 51
0.0
  0
ARC
  5
18F04
  8
SU
  6
CONTINUOUS
 62
     3
 10
-235.9999999999998
 20
173.79711276645239
 30
0.0
 40
0.3000000000000114
 50
0.0
 51
180.0
  0
ARC
  5
18F05
  8
SU
  6
CONTINUOUS
 62
     3
 10
-341.0
 20
173.79711276645239
 30
0.0
 40
0.3000000000000114
 50
180.0
 51
0.0
  0
ARC
  5
18F06
  8
SU
  6
CONTINUOUS
 62
     3
 10
-341.0
 20
173.79711276645239
 30
0.0
 40
0.3000000000000114
 50
0.0
 51
180.0
  0
ARC
  5
18F07
  8
SU
  6
CONTINUOUS
 62
     3
 10
-353.5
 20
173.79711276645239
 30
0.0
 40
0.3000000000000114
 50
0.0
 51
180.0
  0
ARC
  5
18F08
  8
SU
  6
CONTINUOUS
 62
     3
 10
-353.5
 20
173.79711276645239
 30
0.0
 40
0.3000000000000114
 50
180.0
 51
0.0
  0
ARC
  5
18F09
  8
SU
  6
CONTINUOUS
 62
     3
 10
-201.50000000183371
 20
7.2971127664527584
 30
0.0
 40
0.3000000000000114
 50
180.0
 51
0.0
  0
ARC
  5
18F0A
  8
SU
  6
CONTINUOUS
 62
     3
 10
-201.50000000183371
 20
7.2971127664527584
 30
0.0
 40
0.3000000000000114
 50
0.0
 51
180.0
  0
ARC
  5
18F0B
  8
SU
  6
CONTINUOUS
 62
     3
 10
-212.5
 20
7.2971127664527584
 30
0.0
 40
0.3000000000000114
 50
0.0
 51
180.0
  0
ARC
  5
18F0C
  8
SU
  6
CONTINUOUS
 62
     3
 10
-212.5
 20
7.2971127664527584
 30
0.0
 40
0.3000000000000114
 50
180.0
 51
0.0
  0
ARC
  5
18F0D
  8
SU
  6
CONTINUOUS
 62
     3
 10
-171.5000000018338
 20
7.2971127664527584
 30
0.0
 40
0.3000000000000114
 50
180.0
 51
0.0
  0
ARC
  5
18F0E
  8
SU
  6
CONTINUOUS
 62
     3
 10
-171.5000000018338
 20
7.2971127664527584
 30
0.0
 40
0.3000000000000114
 50
0.0
 51
180.0
  0
ARC
  5
18F0F
  8
SU
  6
CONTINUOUS
 62
     3
 10
-201.50000000183371
 20
7.2971127664527584
 30
0.0
 40
0.3000000000000114
 50
0.0
 51
180.0
  0
ARC
  5
18F10
  8
SU
  6
CONTINUOUS
 62
     3
 10
-201.50000000183371
 20
7.2971127664527584
 30
0.0
 40
0.3000000000000114
 50
180.0
 51
0.0
  0
ARC
  5
18F11
  8
SU
  6
CONTINUOUS
 62
     3
 10
-171.5000000018338
 20
7.2971127664527584
 30
0.0
 40
0.3000000000000114
 50
0.0
 51
180.0
  0
ARC
  5
18F12
  8
SU
  6
CONTINUOUS
 62
     3
 10
-171.5000000018338
 20
7.2971127664527584
 30
0.0
 40
0.3000000000000114
 50
180.0
 51
0.0
  0
ARC
  5
18F13
  8
SU
  6
CONTINUOUS
 62
     3
 10
-164.90000000183321
 20
7.2971127664527584
 30
0.0
 40
0.3000000000000114
 50
180.0
 51
0.0
  0
ARC
  5
18F14
  8
SU
  6
CONTINUOUS
 62
     3
 10
-164.90000000183321
 20
7.2971127664527584
 30
0.0
 40
0.3000000000000114
 50
0.0
 51
180.0
  0
ARC
  5
18F15
  8
SU
  6
CONTINUOUS
 62
     3
 10
-129.9000000018334
 20
-142.2028872354044
 30
0.0
 40
0.3000000000000114
 50
90.0
 51
270.0
  0
ARC
  5
18F16
  8
SU
  6
CONTINUOUS
 62
     3
 10
-129.9000000018334
 20
-142.2028872354044
 30
0.0
 40
0.3000000000000114
 50
270.0
 51
90.0
  0
ARC
  5
18F17
  8
SU
  6
CONTINUOUS
 62
     3
 10
-129.9000000018334
 20
52.297112764595568
 30
0.0
 40
0.2999999999999971
 50
270.0
 51
90.0
  0
ARC
  5
18F18
  8
SU
  6
CONTINUOUS
 62
     3
 10
-129.9000000018334
 20
52.297112764595568
 30
0.0
 40
0.2999999999999971
 50
90.0
 51
270.0
  0
ARC
  5
18F19
  8
SU
  6
CONTINUOUS
 62
     3
 10
-129.9000000018334
 20
-152.20288723538201
 30
0.0
 40
0.3000000000000114
 50
90.0
 51
270.0
  0
ARC
  5
18F1A
  8
SU
  6
CONTINUOUS
 62
     3
 10
-129.9000000018334
 20
-152.20288723538201
 30
0.0
 40
0.3000000000000114
 50
270.0
 51
90.0
  0
ARC
  5
18F1B
  8
SU
  6
CONTINUOUS
 62
     3
 10
-129.9000000018334
 20
-142.2028872354044
 30
0.0
 40
0.3000000000000114
 50
270.0
 51
90.0
  0
ARC
  5
18F1C
  8
SU
  6
CONTINUOUS
 62
     3
 10
-129.9000000018334
 20
-142.2028872354044
 30
0.0
 40
0.3000000000000114
 50
90.0
 51
270.0
  0
ARC
  5
18F1D
  8
SU
  6
CONTINUOUS
 62
     3
 10
-114.9000000018334
 20
97.79711276461785
 30
0.0
 40
0.2999999999999971
 50
270.0
 51
90.0
  0
ARC
  5
18F1E
  8
SU
  6
CONTINUOUS
 62
     3
 10
-114.9000000018334
 20
97.79711276461785
 30
0.0
 40
0.2999999999999971
 50
90.0
 51
270.0
  0
ARC
  5
18F1F
  8
SU
  6
CONTINUOUS
 62
     3
 10
-114.9000000018334
 20
47.797112764617601
 30
0.0
 40
0.2999999999999971
 50
90.0
 51
270.0
  0
ARC
  5
18F20
  8
SU
  6
CONTINUOUS
 62
     3
 10
-114.9000000018334
 20
47.797112764617601
 30
0.0
 40
0.2999999999999971
 50
270.0
 51
90.0
  0
ARC
  5
18F21
  8
SU
  6
CONTINUOUS
 62
     3
 10
-129.9000000018334
 20
59.79711276461807
 30
0.0
 40
0.2999999999999971
 50
90.0
 51
270.0
  0
ARC
  5
18F22
  8
SU
  6
CONTINUOUS
 62
     3
 10
-129.9000000018334
 20
59.79711276461807
 30
0.0
 40
0.2999999999999971
 50
270.0
 51
90.0
  0
ARC
  5
18F23
  8
SU
  6
CONTINUOUS
 62
     3
 10
-129.9000000018334
 20
97.79711276461785
 30
0.0
 40
0.2999999999999971
 50
270.0
 51
90.0
  0
ARC
  5
18F24
  8
SU
  6
CONTINUOUS
 62
     3
 10
-129.9000000018334
 20
97.79711276461785
 30
0.0
 40
0.2999999999999971
 50
90.0
 51
270.0
  0
ARC
  5
18F25
  8
SU
  6
CONTINUOUS
 62
     3
 10
-129.9000000018334
 20
52.297112764595568
 30
0.0
 40
0.2999999999999971
 50
90.0
 51
270.0
  0
ARC
  5
18F26
  8
SU
  6
CONTINUOUS
 62
     3
 10
-129.9000000018334
 20
52.297112764595568
 30
0.0
 40
0.2999999999999971
 50
270.0
 51
90.0
  0
ARC
  5
18F27
  8
SU
  6
CONTINUOUS
 62
     3
 10
-129.9000000018334
 20
59.79711276461807
 30
0.0
 40
0.2999999999999971
 50
270.0
 51
90.0
  0
ARC
  5
18F28
  8
SU
  6
CONTINUOUS
 62
     3
 10
-129.9000000018334
 20
59.79711276461807
 30
0.0
 40
0.2999999999999971
 50
90.0
 51
270.0
  0
ARC
  5
18F29
  8
SU
  6
CONTINUOUS
 62
     3
 10
-144.9000000018334
 20
52.297112764595568
 30
0.0
 40
0.2999999999999971
 50
270.0
 51
90.0
  0
ARC
  5
18F2A
  8
SU
  6
CONTINUOUS
 62
     3
 10
-144.9000000018334
 20
52.297112764595568
 30
0.0
 40
0.2999999999999971
 50
90.0
 51
270.0
  0
ARC
  5
18F2B
  8
SU
  6
CONTINUOUS
 62
     3
 10
-144.9000000018334
 20
47.797112764617601
 30
0.0
 40
0.2999999999999971
 50
90.0
 51
270.0
  0
ARC
  5
18F2C
  8
SU
  6
CONTINUOUS
 62
     3
 10
-144.9000000018334
 20
47.797112764617601
 30
0.0
 40
0.2999999999999971
 50
270.0
 51
90.0
  0
ENDSEC
  0
EOF
