  0
SECTION
  2
HEADER
  9
$ACADVER
  1
AC1009
  9
$INSBASE
 10
0.0
 20
0.0
 30
0.0
  9
$EXTMIN
 10
-397.02816580262538
 20
-278.43057118546062
 30
-0.0000000000000058
  9
$EXTMAX
 10
400.08967779982999
 20
249.05851873669121
 30
0.0000000000000104
  9
$LIMMIN
 10
-410.0
 20
-286.0
  9
$LIMMAX
 10
408.99999999999989
 20
279.0
  9
$ORTHOMODE
 70
     1
  9
$REGENMODE
 70
     1
  9
$FILLMODE
 70
     1
  9
$QTEXTMODE
 70
     0
  9
$MIRRTEXT
 70
     1
  9
$DRAGMODE
 70
     2
  9
$LTSCALE
 40
1.0
  9
$OSMODE
 70
  3071
  9
$ATTMODE
 70
     1
  9
$TEXTSIZE
 40
2.5
  9
$TRACEWID
 40
1.0
  9
$TEXTSTYLE
  7
STANDARD
  9
$CLAYER
  8
0
  9
$CELTYPE
  6
BYLAYER
  9
$CECOLOR
 62
   256
  9
$DIMSCALE
 40
1.0
  9
$DIMASZ
 40
2.399999999999999
  9
$DIMEXO
 40
3.0
  9
$DIMDLI
 40
7.0
  9
$DIMRND
 40
0.0
  9
$DIMDLE
 40
0.0
  9
$DIMEXE
 40
3.0
  9
$DIMTP
 40
0.1
  9
$DIMTM
 40
0.1
  9
$DIMTXT
 40
4.0
  9
$DIMCEN
 40
0.0
  9
$DIMTSZ
 40
0.0
  9
$DIMTOL
 70
     0
  9
$DIMLIM
 70
     0
  9
$DIMTIH
 70
     0
  9
$DIMTOH
 70
     0
  9
$DIMSE1
 70
     0
  9
$DIMSE2
 70
     0
  9
$DIMTAD
 70
     1
  9
$DIMZIN
 70
     8
  9
$DIMBLK
  1
DOTSMALL
  9
$DIMASO
 70
     1
  9
$DIMSHO
 70
     1
  9
$DIMPOST
  1

  9
$DIMAPOST
  1
"
  9
$DIMALT
 70
     0
  9
$DIMALTD
 70
     2
  9
$DIMALTF
 40
0.0393701
  9
$DIMLFAC
 40
1.0
  9
$DIMTOFL
 70
     1
  9
$DIMTVP
 40
0.0
  9
$DIMTIX
 70
     0
  9
$DIMSOXD
 70
     0
  9
$DIMSAH
 70
     0
  9
$DIMBLK1
  1

  9
$DIMBLK2
  1

  9
$DIMSTYLE
  2
SANKYO
  9
$DIMCLRD
 70
     3
  9
$DIMCLRE
 70
     3
  9
$DIMCLRT
 70
     3
  9
$DIMTFAC
 40
0.71
  9
$DIMGAP
 40
1.3
  9
$LUNITS
 70
     2
  9
$LUPREC
 70
     4
  9
$SKETCHINC
 40
1.0
  9
$FILLETRAD
 40
0.5
  9
$AUNITS
 70
     0
  9
$AUPREC
 70
     0
  9
$MENU
  1
.
  9
$ELEVATION
 40
0.0
  9
$PELEVATION
 40
0.0
  9
$THICKNESS
 40
0.0
  9
$LIMCHECK
 70
     0
  9
$BLIPMODE
 70
     0
  9
$CHAMFERA
 40
10.0
  9
$CHAMFERB
 40
10.0
  9
$SKPOLY
 70
     0
  9
$TDCREATE
 40
2452388.6082117362
  9
$TDUPDATE
 40
2458222.7285158918
  9
$TDINDWG
 40
1.6680816550999999
  9
$TDUSRTIMER
 40
1.6680816550999999
  9
$USRTIMER
 70
     1
  9
$ANGBASE
 50
0.0
  9
$ANGDIR
 70
     0
  9
$PDMODE
 70
     0
  9
$PDSIZE
 40
0.0
  9
$PLINEWID
 40
0.0
  9
$COORDS
 70
     2
  9
$SPLFRAME
 70
     0
  9
$SPLINETYPE
 70
     6
  9
$SPLINESEGS
 70
     8
  9
$ATTDIA
 70
     1
  9
$ATTREQ
 70
     1
  9
$HANDLING
 70
     1
  9
$HANDSEED
  5
1DF75
  9
$SURFTAB1
 70
     6
  9
$SURFTAB2
 70
     6
  9
$SURFTYPE
 70
     6
  9
$SURFU
 70
     6
  9
$SURFV
 70
     6
  9
$UCSNAME
  2

  9
$UCSORG
 10
0.0
 20
0.0
 30
0.0
  9
$UCSXDIR
 10
1.0
 20
0.0
 30
0.0
  9
$UCSYDIR
 10
0.0
 20
1.0
 30
0.0
  9
$PUCSNAME
  2

  9
$PUCSORG
 10
0.0
 20
0.0
 30
0.0
  9
$PUCSXDIR
 10
1.0
 20
0.0
 30
0.0
  9
$PUCSYDIR
 10
0.0
 20
1.0
 30
0.0
  9
$USERI1
 70
     0
  9
$USERI2
 70
     0
  9
$USERI3
 70
     0
  9
$USERI4
 70
     0
  9
$USERI5
 70
     0
  9
$USERR1
 40
0.0
  9
$USERR2
 40
0.0
  9
$USERR3
 40
0.0
  9
$USERR4
 40
0.0
  9
$USERR5
 40
0.0
  9
$WORLDVIEW
 70
     1
  9
$SHADEDGE
 70
     3
  9
$SHADEDIF
 70
    70
  9
$TILEMODE
 70
     1
  9
$MAXACTVP
 70
    48
  9
$PLIMCHECK
 70
     0
  9
$PEXTMIN
 10
1.0000000000000000E+020
 20
1.0000000000000000E+020
 30
1.0000000000000000E+020
  9
$PEXTMAX
 10
-1.0000000000000000E+020
 20
-1.0000000000000000E+020
 30
-1.0000000000000000E+020
  9
$PLIMMIN
 10
0.0
 20
0.0
  9
$PLIMMAX
 10
420.0
 20
297.0
  9
$UNITMODE
 70
     0
  9
$VISRETAIN
 70
     1
  9
$PLINEGEN
 70
     0
  9
$PSLTSCALE
 70
     1
  0
ENDSEC
  0
SECTION
  2
TABLES
  0
TABLE
  2
VPORT
 70
     1
  0
VPORT
  2
*ACTIVE
 70
     0
 10
0.0
 20
0.0
 11
1.0
 21
1.0
 12
1.530755998602316
 22
-14.686026224384699
 13
0.0
 23
0.0
 14
2.5
 24
2.5
 15
10.0
 25
10.0
 16
0.0
 26
0.0
 36
1.0
 17
0.0
 27
0.0
 37
0.0
 40
531.26135993351409
 41
1.8066825775656321
 42
50.0
 43
0.0
 44
0.0
 50
0.0
 51
0.0
 71
    16
 72
   100
 73
     1
 74
     1
 75
     0
 76
     0
 77
     0
 78
     0
  0
ENDTAB
  0
TABLE
  2
LTYPE
 70
    15
  0
LTYPE
  2
CONTINUOUS
 70
     0
  3
Solid line
 72
    65
 73
     0
 40
0.0
  0
LTYPE
  2
CENTER
 70
     0
  3
Center ____ _ ____ _ ____ _ ____ _ ____ _ ____
 72
    65
 73
     4
 40
50.799999999999997
 49
31.75
 49
-6.3499999999999988
 49
6.3499999999999988
 49
-6.3499999999999988
  0
LTYPE
  2
CENTER2
 70
     0
  3
Center (.5x) ___ _ ___ _ ___ _ ___ _ ___ _ ___
 72
    65
 73
     4
 40
28.574999999999999
 49
19.050000000000001
 49
-3.1749999999999989
 49
3.1749999999999989
 49
-3.1749999999999989
  0
LTYPE
  2
PHANTOM2
 70
     0
  3
Phantom (.5x) ___ _ _ ___ _ _ ___ _ _ ___ _ _
 72
    65
 73
     6
 40
31.75
 49
15.875
 49
-3.1749999999999989
 49
3.1749999999999989
 49
-3.1749999999999989
 49
3.1749999999999989
 49
-3.1749999999999989
  0
LTYPE
  2
DASHED2
 70
     0
  3
Dashed (.5x) _ _ _ _ _ _ _ _ _ _ _ _ _ _ _ _ _
 72
    65
 73
     2
 40
9.5249999999999986
 49
6.3499999999999988
 49
-3.1749999999999989
  0
LTYPE
  2
AM_ISO02W050
 70
     0
  3
__ __ __ __ __ __ __ __ __ __ __ __ __ __ __
 72
    65
 73
     2
 40
7.5
 49
6.0
 49
-1.5
  0
LTYPE
  2
AMZIGZAG
 70
     0
  3
/\/-/\/-/\/-/\/-/\/-/\/
 72
    65
 73
     2
 40
11.0001
 49
0.0001
 49
-11.0
  0
LTYPE
  2
ACJISTGB
 70
     0
  3
__ . . __ . .
 72
    65
 73
     6
 40
9.0
 49
4.0
 49
-1.0
 49
1.0
 49
-1.0
 49
1.0
 49
-1.0
  0
LTYPE
  2
ACJISTGL
 70
     0
  3
_ _ _ _ _
 72
    65
 73
     2
 40
3.0
 49
2.0
 49
-1.0
  0
LTYPE
  2
ACISOWELD
 70
     0
  3
_ _ _ _ _
 72
    65
 73
     2
 40
2.0
 49
2.0
 49
-1.0
  0
LTYPE
  2
ACISOTGB
 70
     0
  3
__ . . __ . .
 72
    65
 73
     6
 40
9.0
 49
4.0
 49
-1.0
 49
1.0
 49
-1.0
 49
1.0
 49
-1.0
  0
LTYPE
  2
ACISOTGL
 70
     0
  3
_ _ _ _ _
 72
    65
 73
     2
 40
3.0
 49
2.0
 49
-1.0
  0
LTYPE
  2
ACANSTGB
 70
     0
  3
__ . . __ . .
 72
    65
 73
     6
 40
0.35433070866
 49
0.15748031496
 49
-0.03937007874
 49
0.03937007874
 49
-0.03937007874
 49
0.03937007874
 49
-0.03937007874
  0
LTYPE
  2
ACANSTGL
 70
     0
  3
_ _ _ _ _
 72
    65
 73
     2
 40
0.11811023622
 49
0.07874015748
 49
-0.03937007874
  0
ENDTAB
  0
TABLE
  2
LAYER
 70
     7
  0
LAYER
  2
0
 70
     0
 62
     7
  6
CONTINUOUS
  0
LAYER
  2
DEFPOINTS
 70
     0
 62
     7
  6
CONTINUOUS
  0
LAYER
  2
SU
 70
     0
 62
     3
  6
CONTINUOUS
  0
LAYER
  2
KI
 70
     0
 62
     7
  6
CONTINUOUS
  0
LAYER
  2
OS
 70
     0
 62
     2
  6
CONTINUOUS
  0
LAYER
  2
MJ
 70
     0
 62
     2
  6
CONTINUOUS
  0
ENDTAB
  0
TABLE
  2
STYLE
 70
     9
  0
STYLE
  2
STANDARD
 70
     0
 40
0.0
 41
0.8299999999999999
 50
0.0
 71
     0
 42
2.5
  3
romans.shx
  4
extfont.shx
  0
STYLE
  2

 70
     1
 40
0.0
 41
1.0
 50
0.0
 71
     0
 42
2.5
  3
ltypeshp.shx
  4

  0
STYLE
  2
ACJISTS
 70
     0
 40
1.0
 41
1.0
 50
0.0
 71
     0
 42
2.5
  3
isocp.shx
  4
extfont.shx
  0
STYLE
  2
ACJISGDT
 70
     0
 40
0.0
 41
1.0
 50
0.0
 71
     0
 42
2.5
  3
amgdt.shx
  4

  0
STYLE
  2
ACISOTS
 70
     0
 40
1.0
 41
1.0
 50
0.0
 71
     0
 42
2.5
  3
isocp.shx
  4
extfont.shx
  0
STYLE
  2
ACISOGDT
 70
     0
 40
0.0
 41
1.0
 50
0.0
 71
     0
 42
2.5
  3
amgdt.shx
  4

  0
STYLE
  2
SANKYODESIGN
 70
     0
 40
4.0
 41
0.8
 50
0.0
 71
     0
 42
4.0
  3
romans.shx
  4
EXTFONT.SHX
  0
STYLE
  2
ACANSTS
 70
     0
 40
1.0
 41
1.0
 50
0.0
 71
     0
 42
0.2
  3
romans.shx
  4
extfont.shx
  0
STYLE
  2
ACANSGDT
 70
     0
 40
0.0
 41
1.0
 50
0.0
 71
     0
 42
0.2
  3
amgdtans.shx
  4

  0
ENDTAB
  0
TABLE
  2
VIEW
 70
     8
  0
VIEW
  2
AM_VIEW1
 70
     0
 40
148.9999998536185
 10
126.6100177647027
 20
223.4999997804278
 41
253.22003552940541
 11
0.0
 21
0.0
 31
1.0
 12
0.0
 22
0.0
 32
0.0
 42
50.0
 43
0.0
 44
0.0
 50
0.0
 71
    16
  0
VIEW
  2
AM_VIEW2
 70
     0
 40
148.9999998536185
 10
294.38998139545492
 20
223.4999997804278
 41
253.22003552940541
 11
0.0
 21
0.0
 31
1.0
 12
0.0
 22
0.0
 32
0.0
 42
50.0
 43
0.0
 44
0.0
 50
0.0
 71
    16
  0
VIEW
  2
AM_VIEW3
 70
     0
 40
148.9999998536185
 10
126.6100177647027
 20
74.499999926809267
 41
253.22003552940541
 11
0.0
 21
0.0
 31
1.0
 12
0.0
 22
0.0
 32
0.0
 42
50.0
 43
0.0
 44
0.0
 50
0.0
 71
    16
  0
VIEW
  2
AM_VIEW4
 70
     0
 40
148.9999998536185
 10
294.38998139545492
 20
74.499999926809267
 41
253.22003552940541
 11
0.0
 21
0.0
 31
1.0
 12
0.0
 22
0.0
 32
0.0
 42
50.0
 43
0.0
 44
0.0
 50
0.0
 71
    16
  0
VIEW
  2
AM_VIEW5
 70
     0
 40
148.9999998536185
 10
210.49999958007879
 20
148.9999998536185
 41
253.22003552940541
 11
0.0
 21
0.0
 31
1.0
 12
0.0
 22
0.0
 32
0.0
 42
50.0
 43
0.0
 44
0.0
 50
0.0
 71
    16
  0
VIEW
  2
AM_VIEW6
 70
     0
 40
297.99701970723999
 10
210.49999958007879
 20
148.9999998536185
 41
506.43500665810018
 11
0.0
 21
0.0
 31
1.0
 12
0.0
 22
0.0
 32
0.0
 42
50.0
 43
0.0
 44
0.0
 50
0.0
 71
    16
  0
ENDTAB
  0
TABLE
  2
UCS
 70
     0
  0
ENDTAB
  0
TABLE
  2
APPID
 70
    29
  0
APPID
  2
ACAD
 70
     0
  0
APPID
  2
MCAD_NO_VIS
 70
     0
  0
APPID
  2
ACAD_TEMP_GRAPHIC
 70
     0
  0
APPID
  2
ACATTRIBSERVICES
 70
     0
  0
APPID
  2
GENIUS_GENDIMSH_14
 70
     0
  0
APPID
  2
GENIUS_GENOLIS_13
 70
     0
  0
APPID
  2
GENIUS_GENOENT_13
 70
     0
  0
APPID
  2
GENIUS_GENODEF_13
 70
     0
  0
APPID
  2
GENIUS_GENOBJ-N-TIT_13
 70
     0
  0
APPID
  2
GENIUS_GENTITLE_13
 70
     0
  0
APPID
  2
GENIUS_GENOREF_13
 70
     0
  0
APPID
  2
GENIUS_GENSCREG_15
 70
     0
  0
APPID
  2
GENIUS_GENOBJ-N-SDF_13
 70
     0
  0
APPID
  2
GENIUS_GENOBJ-N-FIL_13
 70
     0
  0
APPID
  2
GENIUS_GENREC_14
 70
     0
  0
APPID
  2
GENIUS_GENOBJ-N-REC_13
 70
     0
  0
APPID
  2
GENIUS_GENDTOL_13
 70
     0
  0
APPID
  2
GENIUS_GENOBJ-N-CEN_13
 70
     0
  0
APPID
  2
GENIUS_GENOBJ-N-HTC_13
 70
     0
  0
APPID
  2
GENIUS_GENHATCH_13
 70
     0
  0
APPID
  2
GENIUS_GENFIL_13
 70
     0
  0
APPID
  2
GENIUS_GENOBJ-N-CHA_13
 70
     0
  0
APPID
  2
DESIGNERASSEMBLIES
 70
     0
  0
APPID
  2
ACAD_NAV_VCDISPLAY
 70
     0
  0
APPID
  2
ACAD_DSTYLE_DIMBREAK
 70
     0
  0
APPID
  2
ACAD_DSTYLE_DIMJAG
 70
     0
  0
APPID
  2
ACAD_DSTYLE_DIMTALN
 70
     0
  0
APPID
  2
ACAECLAYERSTANDARD
 70
     0
  0
APPID
  2
ACAD_MLEADERVER
 70
     0
  0
ENDTAB
  0
TABLE
  2
DIMSTYLE
 70
    40
  0
DIMSTYLE
  2
AM_JIS
 70
     0
  3

  4
"
  5
OPEN
  6

  7

 40
1.0
 41
1.6000000000000001
 42
1.0
 43
7.0
 44
1.0
 45
0.0
 46
0.0
 47
0.1
 48
0.1
140
2.5
141
0.0
142
0.0
143
0.0393701
144
1.0
145
0.0
146
0.71
147
0.625
 71
     0
 72
     0
 73
     0
 74
     0
 75
     0
 76
     0
 77
     1
 78
     8
170
     0
171
     2
172
     1
173
     0
174
     0
175
     0
176
   256
177
   256
178
   256
  0
DIMSTYLE
  2
AM_JIS$3
 70
     0
  3

  4
"
  5
OPEN
  6

  7

 40
1.0
 41
1.6000000000000001
 42
1.0
 43
7.0
 44
1.0
 45
0.0
 46
0.0
 47
0.1
 48
0.1
140
2.5
141
0.0
142
0.0
143
0.0393701
144
1.0
145
0.0
146
0.71
147
0.625
 71
     0
 72
     0
 73
     0
 74
     0
 75
     0
 76
     0
 77
     1
 78
     8
170
     0
171
     2
172
     1
173
     0
174
     0
175
     0
176
   256
177
   256
178
   256
  0
DIMSTYLE
  2
AM_JIS$4
 70
     0
  3

  4
"
  5
OPEN
  6

  7

 40
1.0
 41
1.6000000000000001
 42
1.0
 43
7.0
 44
1.0
 45
0.0
 46
0.0
 47
0.1
 48
0.1
140
2.5
141
0.0
142
0.0
143
0.0393701
144
1.0
145
0.0
146
0.71
147
0.625
 71
     0
 72
     0
 73
     0
 74
     0
 75
     0
 76
     0
 77
     1
 78
     8
170
     0
171
     2
172
     1
173
     0
174
     0
175
     0
176
   256
177
   256
178
   256
  0
DIMSTYLE
  2
AM_JIS$6
 70
     0
  3

  4
"
  5
OPEN
  6

  7

 40
1.0
 41
1.6000000000000001
 42
1.0
 43
7.0
 44
1.0
 45
0.0
 46
0.0
 47
0.1
 48
0.1
140
2.5
141
0.0
142
0.0
143
0.0393701
144
1.0
145
0.0
146
0.71
147
0.625
 71
     0
 72
     0
 73
     0
 74
     0
 75
     0
 76
     0
 77
     0
 78
     8
170
     0
171
     2
172
     1
173
     0
174
     0
175
     0
176
   256
177
   256
178
   256
  0
DIMSTYLE
  2
AM_JIS$7
 70
     0
  3

  4
"
  5
OPEN
  6

  7

 40
1.0
 41
1.6000000000000001
 42
1.0
 43
7.0
 44
1.0
 45
0.0
 46
0.0
 47
0.1
 48
0.1
140
2.5
141
0.0
142
0.0
143
0.0393701
144
1.0
145
0.0
146
0.71
147
0.625
 71
     0
 72
     0
 73
     0
 74
     0
 75
     0
 76
     0
 77
     1
 78
     8
170
     0
171
     2
172
     1
173
     0
174
     0
175
     0
176
   256
177
   256
178
   256
  0
DIMSTYLE
  2
AM_JIS$SF
 70
     0
  3

  4
"
  5
OPEN30
  6
OPEN30
  7
OPEN30
 40
1.0
 41
2.5
 42
1.0
 43
10.0
 44
1.0
 45
0.0
 46
0.0
 47
0.1
 48
0.1
140
3.5
141
0.0
142
0.0
143
0.0393701
144
1.0
145
0.0
146
0.71
147
1.5
 71
     0
 72
     0
 73
     0
 74
     0
 75
     1
 76
     1
 77
     3
 78
     8
170
     0
171
     2
172
     1
173
     0
174
     0
175
     0
176
   256
177
   256
178
     2
  0
DIMSTYLE
  2
AM_JIS$SH
 70
     0
  3

  4
"
  5
OPEN30
  6
GENAXEH
  7
OPEN30
 40
1.0
 41
2.5
 42
1.0
 43
10.0
 44
1.0
 45
0.0
 46
0.0
 47
0.1
 48
0.1
140
3.5
141
0.0
142
0.0
143
0.0393701
144
2.0
145
0.0
146
0.71
147
1.5
 71
     0
 72
     0
 73
     0
 74
     0
 75
     1
 76
     1
 77
     3
 78
     8
170
     0
171
     2
172
     1
173
     1
174
     0
175
     0
176
   256
177
   256
178
     2
  0
DIMSTYLE
  2
AM_JIS$2
 70
     0
  3

  4
"
  5
OPEN
  6

  7

 40
1.0
 41
1.6000000000000001
 42
1.0
 43
7.0
 44
1.0
 45
0.0
 46
0.0
 47
0.1
 48
0.1
140
2.5
141
0.0
142
0.0
143
0.0393701
144
1.0
145
0.0
146
0.71
147
0.625
 71
     0
 72
     0
 73
     0
 74
     0
 75
     0
 76
     0
 77
     1
 78
     8
170
     0
171
     2
172
     1
173
     0
174
     0
175
     0
176
   256
177
   256
178
   256
  0
DIMSTYLE
  2
AM_JIS$0
 70
     0
  3

  4
"
  5
OPEN
  6

  7

 40
1.0
 41
1.6000000000000001
 42
1.0
 43
7.0
 44
1.0
 45
0.0
 46
0.0
 47
0.1
 48
0.1
140
2.5
141
0.0
142
0.0
143
0.0393701
144
1.0
145
0.0
146
0.71
147
0.625
 71
     0
 72
     0
 73
     0
 74
     0
 75
     0
 76
     0
 77
     1
 78
     8
170
     0
171
     2
172
     1
173
     0
174
     0
175
     0
176
   256
177
   256
178
   256
  0
DIMSTYLE
  2
SANKYO
 70
     0
  3

  4
"
  5
DOTSMALL
  6

  7

 40
1.0
 41
2.399999999999999
 42
3.0
 43
7.0
 44
3.0
 45
0.0
 46
0.0
 47
0.1
 48
0.1
140
4.0
141
0.0
142
0.0
143
0.0393701
144
1.0
145
0.0
146
0.71
147
1.3
 71
     0
 72
     0
 73
     0
 74
     0
 75
     0
 76
     0
 77
     1
 78
     8
170
     0
171
     2
172
     1
173
     0
174
     0
175
     0
176
     3
177
     3
178
     3
  0
DIMSTYLE
  2
SANKYO$3
 70
     0
  3

  4
"
  5
DOTSMALL
  6

  7

 40
1.0
 41
2.399999999999999
 42
1.0
 43
10.0
 44
3.0
 45
0.0
 46
0.0
 47
0.1
 48
0.1
140
4.0
141
0.0
142
0.0
143
0.0393701
144
1.0
145
0.0
146
0.71
147
1.3
 71
     0
 72
     0
 73
     0
 74
     0
 75
     0
 76
     0
 77
     1
 78
     8
170
     0
171
     2
172
     1
173
     0
174
     0
175
     0
176
     3
177
     3
178
     3
  0
DIMSTYLE
  2
SANKYO$4
 70
     0
  3

  4
"
  5

  6
OPEN30
  7
OPEN
 40
1.0
 41
2.399999999999999
 42
1.0
 43
10.0
 44
3.0
 45
0.0
 46
0.0
 47
0.1
 48
0.1
140
4.0
141
0.0
142
0.0
143
0.0393701
144
1.0
145
0.0
146
0.71
147
1.3
 71
     0
 72
     0
 73
     0
 74
     0
 75
     0
 76
     0
 77
     1
 78
     8
170
     0
171
     2
172
     1
173
     1
174
     0
175
     0
176
     3
177
     3
178
     3
  0
DIMSTYLE
  2
SANKYO$6
 70
     0
  3

  4
"
  5
OPEN30
  6

  7

 40
1.0
 41
2.399999999999999
 42
1.0
 43
7.0
 44
3.0
 45
0.0
 46
0.0
 47
0.1
 48
0.1
140
4.0
141
0.0
142
0.0
143
0.0393701
144
1.0
145
0.0
146
0.71
147
1.3
 71
     0
 72
     0
 73
     0
 74
     0
 75
     0
 76
     0
 77
     0
 78
     8
170
     0
171
     2
172
     1
173
     0
174
     0
175
     0
176
     3
177
     3
178
     3
  0
DIMSTYLE
  2
SANKYO$7
 70
     0
  3

  4
"
  5
DOTSMALL
  6

  7

 40
1.0
 41
2.399999999999999
 42
0.0
 43
7.0
 44
3.0
 45
0.0
 46
0.0
 47
0.1
 48
0.1
140
4.0
141
0.0
142
0.0
143
0.0393701
144
1.0
145
0.0
146
0.71
147
1.3
 71
     0
 72
     0
 73
     0
 74
     0
 75
     0
 76
     0
 77
     1
 78
     8
170
     0
171
     2
172
     1
173
     0
174
     0
175
     0
176
     3
177
     3
178
     3
  0
DIMSTYLE
  2
SANKYO$SF
 70
     0
  3

  4
"
  5
OPEN30
  6
OPEN30
  7
OPEN30
 40
1.0
 41
2.5
 42
1.0
 43
10.0
 44
1.0
 45
0.0
 46
0.0
 47
0.1
 48
0.1
140
3.5
141
0.0
142
0.0
143
0.0393701
144
1.0
145
0.0
146
0.71
147
1.5
 71
     0
 72
     0
 73
     0
 74
     0
 75
     1
 76
     1
 77
     3
 78
     8
170
     0
171
     2
172
     1
173
     0
174
     0
175
     0
176
     3
177
     3
178
     2
  0
DIMSTYLE
  2
SANKYO$SH
 70
     0
  3

  4
"
  5
OPEN30
  6
GENAXEH
  7
OPEN30
 40
1.0
 41
2.5
 42
1.0
 43
10.0
 44
1.0
 45
0.0
 46
0.0
 47
0.1
 48
0.1
140
3.5
141
0.0
142
0.0
143
0.0393701
144
2.0
145
0.0
146
0.71
147
1.5
 71
     0
 72
     0
 73
     0
 74
     0
 75
     1
 76
     1
 77
     3
 78
     8
170
     0
171
     2
172
     1
173
     1
174
     0
175
     0
176
     3
177
     3
178
     2
  0
DIMSTYLE
  2
SANKYO$2
 70
     0
  3

  4
"
  5
DOTSMALL
  6

  7

 40
1.0
 41
2.399999999999999
 42
1.0
 43
7.0
 44
3.0
 45
0.0
 46
0.0
 47
0.1
 48
0.1
140
4.0
141
0.0
142
0.0
143
0.0393701
144
1.0
145
0.0
146
0.71
147
1.3
 71
     0
 72
     0
 73
     0
 74
     0
 75
     0
 76
     0
 77
     1
 78
     8
170
     0
171
     2
172
     1
173
     0
174
     0
175
     0
176
     3
177
     3
178
     3
  0
DIMSTYLE
  2
SANKYO$0
 70
     0
  3

  4
"
  5
DOTSMALL
  6

  7

 40
1.0
 41
2.399999999999999
 42
1.0
 43
7.0
 44
3.0
 45
0.0
 46
0.0
 47
0.1
 48
0.1
140
4.0
141
0.0
142
0.0
143
0.0393701
144
1.0
145
0.0
146
0.71
147
1.3
 71
     0
 72
     0
 73
     0
 74
     0
 75
     0
 76
     0
 77
     1
 78
     8
170
     0
171
     2
172
     1
173
     0
174
     0
175
     0
176
     3
177
     3
178
     3
  0
DIMSTYLE
  2
AM_ISO
 70
     0
  3

  4
"
  5

  6

  7

 40
1.0
 41
1.6000000000000001
 42
1.0
 43
7.0
 44
1.0
 45
0.0
 46
0.0
 47
0.1
 48
0.1
140
2.5
141
0.0
142
0.0
143
0.0393701
144
1.0
145
0.0
146
0.71
147
0.625
 71
     0
 72
     0
 73
     0
 74
     0
 75
     0
 76
     0
 77
     1
 78
     8
170
     0
171
     2
172
     1
173
     0
174
     0
175
     0
176
   256
177
   256
178
   256
  0
DIMSTYLE
  2
AM_ISO$3
 70
     0
  3

  4
"
  5

  6

  7

 40
1.0
 41
1.6000000000000001
 42
1.0
 43
7.0
 44
1.0
 45
0.0
 46
0.0
 47
0.1
 48
0.1
140
2.5
141
0.0
142
0.0
143
0.0393701
144
1.0
145
0.0
146
0.71
147
0.625
 71
     0
 72
     0
 73
     0
 74
     0
 75
     0
 76
     0
 77
     1
 78
     8
170
     0
171
     2
172
     1
173
     0
174
     0
175
     0
176
   256
177
   256
178
   256
  0
DIMSTYLE
  2
AM_ISO$4
 70
     0
  3

  4
"
  5

  6

  7

 40
1.0
 41
1.6000000000000001
 42
1.0
 43
7.0
 44
1.0
 45
0.0
 46
0.0
 47
0.1
 48
0.1
140
2.5
141
0.0
142
0.0
143
0.0393701
144
1.0
145
0.0
146
0.71
147
0.625
 71
     0
 72
     0
 73
     0
 74
     0
 75
     0
 76
     0
 77
     1
 78
     8
170
     0
171
     2
172
     1
173
     0
174
     0
175
     0
176
   256
177
   256
178
   256
  0
DIMSTYLE
  2
AM_ISO$6
 70
     0
  3

  4
"
  5

  6

  7

 40
1.0
 41
1.6000000000000001
 42
1.0
 43
7.0
 44
1.0
 45
0.0
 46
0.0
 47
0.1
 48
0.1
140
2.5
141
0.0
142
0.0
143
0.0393701
144
1.0
145
0.0
146
0.71
147
0.625
 71
     0
 72
     0
 73
     0
 74
     0
 75
     0
 76
     0
 77
     0
 78
     8
170
     0
171
     2
172
     1
173
     0
174
     0
175
     0
176
   256
177
   256
178
   256
  0
DIMSTYLE
  2
AM_ISO$7
 70
     0
  3

  4
"
  5

  6

  7

 40
1.0
 41
1.6000000000000001
 42
1.0
 43
7.0
 44
1.0
 45
0.0
 46
0.0
 47
0.1
 48
0.1
140
2.5
141
0.0
142
0.0
143
0.0393701
144
1.0
145
0.0
146
0.71
147
0.625
 71
     0
 72
     0
 73
     0
 74
     0
 75
     0
 76
     0
 77
     1
 78
     8
170
     0
171
     2
172
     1
173
     0
174
     0
175
     0
176
   256
177
   256
178
   256
  0
DIMSTYLE
  2
AM_ISO$SF
 70
     0
  3

  4
"
  5

  6

  7

 40
1.0
 41
2.5
 42
1.0
 43
10.0
 44
1.0
 45
0.0
 46
0.0
 47
0.1
 48
0.1
140
3.5
141
0.0
142
0.0
143
0.0393701
144
1.0
145
0.0
146
0.71
147
1.5
 71
     0
 72
     0
 73
     0
 74
     0
 75
     1
 76
     1
 77
     1
 78
     8
170
     0
171
     2
172
     1
173
     0
174
     0
175
     0
176
   256
177
   256
178
     2
  0
DIMSTYLE
  2
AM_ISO$SH
 70
     0
  3

  4
"
  5

  6
GENAXEH
  7

 40
1.0
 41
2.5
 42
1.0
 43
10.0
 44
1.0
 45
0.0
 46
0.0
 47
0.1
 48
0.1
140
3.5
141
0.0
142
0.0
143
0.0393701
144
2.0
145
0.0
146
0.71
147
1.5
 71
     0
 72
     0
 73
     0
 74
     0
 75
     1
 76
     1
 77
     1
 78
     8
170
     0
171
     2
172
     1
173
     1
174
     0
175
     0
176
   256
177
   256
178
     2
  0
DIMSTYLE
  2
AM_ISO$2
 70
     0
  3

  4
"
  5

  6

  7

 40
1.0
 41
1.6000000000000001
 42
1.0
 43
7.0
 44
1.0
 45
0.0
 46
0.0
 47
0.1
 48
0.1
140
2.5
141
0.0
142
0.0
143
0.0393701
144
1.0
145
0.0
146
0.71
147
0.625
 71
     0
 72
     0
 73
     0
 74
     0
 75
     0
 76
     0
 77
     1
 78
     8
170
     0
171
     2
172
     1
173
     0
174
     0
175
     0
176
   256
177
   256
178
   256
  0
DIMSTYLE
  2
AM_ISO$0
 70
     0
  3

  4
"
  5

  6

  7

 40
1.0
 41
1.6000000000000001
 42
1.0
 43
7.0
 44
1.0
 45
0.0
 46
0.0
 47
0.1
 48
0.1
140
2.5
141
0.0
142
0.0
143
0.0393701
144
1.0
145
0.0
146
0.71
147
0.625
 71
     0
 72
     0
 73
     0
 74
     0
 75
     0
 76
     0
 77
     1
 78
     8
170
     0
171
     2
172
     1
173
     0
174
     0
175
     0
176
   256
177
   256
178
   256
  0
DIMSTYLE
  2
SANKYODESIGN
 70
     0
  3

  4
"
  5
DOT
  6

  7

 40
1.0
 41
1.0
 42
2.0
 43
10.0
 44
1.0
 45
0.0
 46
0.0
 47
0.1
 48
0.1
140
4.0
141
0.0
142
0.0
143
0.0393701
144
1.0
145
0.0
146
0.71
147
1.0
 71
     0
 72
     0
 73
     0
 74
     0
 75
     0
 76
     0
 77
     3
 78
     8
170
     0
171
     2
172
     1
173
     0
174
     0
175
     0
176
   256
177
   256
178
   256
  0
DIMSTYLE
  2
SANKYODESIGN$SF
 70
     0
  3

  4
"
  5
DOT
  6

  7

 40
1.0
 41
2.5
 42
1.0
 43
10.0
 44
1.0
 45
0.0
 46
0.0
 47
0.1
 48
0.1
140
3.5
141
0.0
142
0.0
143
0.0393701
144
1.0
145
0.0
146
0.71
147
1.5
 71
     0
 72
     0
 73
     0
 74
     0
 75
     1
 76
     1
 77
     3
 78
     8
170
     0
171
     2
172
     1
173
     0
174
     0
175
     0
176
   256
177
   256
178
   256
  0
DIMSTYLE
  2
SANKYODESIGN$SH
 70
     0
  3

  4
"
  5
DOT
  6
GENAXEH
  7

 40
1.0
 41
2.5
 42
1.0
 43
10.0
 44
1.0
 45
0.0
 46
0.0
 47
0.1
 48
0.1
140
3.5
141
0.0
142
0.0
143
0.0393701
144
2.0
145
0.0
146
0.71
147
1.5
 71
     0
 72
     0
 73
     0
 74
     0
 75
     1
 76
     1
 77
     3
 78
     8
170
     0
171
     2
172
     1
173
     1
174
     0
175
     0
176
   256
177
   256
178
   256
  0
DIMSTYLE
  2
SANKYODESIGN$3
 70
     0
  3

  4
"
  5
OPEN30
  6

  7

 40
1.0
 41
2.5
 42
2.0
 43
10.0
 44
1.0
 45
0.0
 46
0.0
 47
0.1
 48
0.1
140
4.0
141
0.0
142
0.0
143
0.0393701
144
1.0
145
0.0
146
0.71
147
1.0
 71
     0
 72
     0
 73
     0
 74
     1
 75
     0
 76
     0
 77
     3
 78
     8
170
     0
171
     2
172
     0
173
     0
174
     0
175
     0
176
   256
177
   256
178
   256
  0
DIMSTYLE
  2
SANKYODESIGN$4
 70
     0
  3

  4
"
  5
DOT
  6

  7

 40
1.0
 41
1.0
 42
2.0
 43
10.0
 44
1.0
 45
0.0
 46
0.0
 47
0.1
 48
0.1
140
4.0
141
0.0
142
0.0
143
0.0393701
144
1.0
145
0.0
146
0.71
147
1.0
 71
     0
 72
     0
 73
     0
 74
     1
 75
     0
 76
     0
 77
     3
 78
     8
170
     0
171
     2
172
     0
173
     0
174
     0
175
     0
176
   256
177
   256
178
   256
  0
DIMSTYLE
  2
SANKYODESIGN$6
 70
     0
  3

  4
"
  5
DOT
  6

  7

 40
1.0
 41
1.0
 42
2.0
 43
10.0
 44
1.0
 45
0.0
 46
0.0
 47
0.1
 48
0.1
140
4.0
141
0.0
142
0.0
143
0.0393701
144
1.0
145
0.0
146
0.71
147
1.0
 71
     0
 72
     0
 73
     0
 74
     0
 75
     0
 76
     0
 77
     0
 78
     8
170
     0
171
     2
172
     1
173
     0
174
     0
175
     0
176
   256
177
   256
178
   256
  0
DIMSTYLE
  2
SANKYODESIGN$7
 70
     0
  3

  4
"
  5
DOT
  6

  7

 40
1.0
 41
2.5
 42
2.0
 43
10.0
 44
1.0
 45
0.0
 46
0.0
 47
0.1
 48
0.1
140
4.0
141
0.0
142
0.0
143
0.0393701
144
1.0
145
0.0
146
0.71
147
1.0
 71
     0
 72
     0
 73
     0
 74
     0
 75
     0
 76
     0
 77
     3
 78
     8
170
     0
171
     2
172
     1
173
     0
174
     0
175
     0
176
   256
177
   256
178
   256
  0
DIMSTYLE
  2
AM_ANSI
 70
     0
  3

  4
mm
  5

  6

  7

 40
1.0
 41
0.1
 42
0.05
 43
0.5
 44
0.1
 45
0.0
 46
0.0
 47
0.1
 48
0.1
140
0.12
141
0.0
142
0.0
143
25.399999999999999
144
1.0
145
0.0
146
0.71
147
0.06
 71
     0
 72
     0
 73
     1
 74
     1
 75
     0
 76
     0
 77
     0
 78
     7
170
     0
171
     2
172
     0
173
     0
174
     0
175
     0
176
   256
177
   256
178
     2
  0
DIMSTYLE
  2
AM_ANSI$3
 70
     0
  3

  4
mm
  5

  6

  7

 40
1.0
 41
0.1
 42
0.05
 43
0.5
 44
0.1
 45
0.0
 46
0.0
 47
0.1
 48
0.1
140
0.12
141
0.0
142
0.0
143
25.399999999999999
144
1.0
145
0.0
146
0.71
147
0.06
 71
     0
 72
     0
 73
     1
 74
     1
 75
     0
 76
     0
 77
     0
 78
     7
170
     0
171
     2
172
     0
173
     0
174
     0
175
     0
176
   256
177
   256
178
     2
  0
DIMSTYLE
  2
AM_ANSI$4
 70
     0
  3

  4
mm
  5

  6

  7

 40
1.0
 41
0.1
 42
0.05
 43
0.5
 44
0.1
 45
0.0
 46
0.0
 47
0.1
 48
0.1
140
0.12
141
0.0
142
0.0
143
25.399999999999999
144
1.0
145
0.0
146
0.71
147
0.06
 71
     0
 72
     0
 73
     1
 74
     1
 75
     0
 76
     0
 77
     0
 78
     7
170
     0
171
     2
172
     0
173
     0
174
     0
175
     0
176
   256
177
   256
178
     2
  0
DIMSTYLE
  2
AM_ANSI$7
 70
     0
  3

  4
mm
  5

  6

  7

 40
1.0
 41
0.1
 42
0.05
 43
0.5
 44
0.1
 45
0.0
 46
0.0
 47
0.1
 48
0.1
140
0.24
141
0.0
142
0.0
143
25.399999999999999
144
1.0
145
0.0
146
0.71
147
0.06
 71
     0
 72
     0
 73
     1
 74
     1
 75
     0
 76
     0
 77
     0
 78
     7
170
     0
171
     2
172
     0
173
     0
174
     0
175
     0
176
   256
177
   256
178
     2
  0
DIMSTYLE
  2
AM_ANSI$SF
 70
     0
  3

  4
mm
  5

  6

  7

 40
1.0
 41
0.1
 42
0.05
 43
0.5
 44
0.1
 45
0.0
 46
0.0
 47
0.1
 48
0.1
140
0.12
141
0.0
142
0.0
143
25.399999999999999
144
1.0
145
0.0
146
0.71
147
0.06
 71
     0
 72
     0
 73
     1
 74
     1
 75
     1
 76
     1
 77
     0
 78
     7
170
     0
171
     2
172
     0
173
     0
174
     0
175
     0
176
   256
177
   256
178
     2
  0
DIMSTYLE
  2
AM_ANSI$SH
 70
     0
  3

  4
mm
  5

  6
GENAXEH
  7

 40
1.0
 41
0.1
 42
0.05
 43
0.5
 44
0.1
 45
0.0
 46
0.0
 47
0.1
 48
0.1
140
0.12
141
0.0
142
0.0
143
25.399999999999999
144
1.0
145
0.0
146
0.71
147
0.06
 71
     0
 72
     0
 73
     1
 74
     1
 75
     1
 76
     1
 77
     0
 78
     7
170
     0
171
     2
172
     0
173
     1
174
     0
175
     0
176
   256
177
   256
178
     2
  0
ENDTAB
  0
ENDSEC
  0
SECTION
  2
BLOCKS
  0
BLOCK
  8
0
  2
$MODEL_SPACE
 70
     0
 10
0.0
 20
0.0
 30
0.0
  3
$MODEL_SPACE
  1

  0
ENDBLK
  5
1A
  8
0
  0
BLOCK
 67
     1
  8
0
  2
$PAPER_SPACE
 70
     0
 10
0.0
 20
0.0
 30
0.0
  3
$PAPER_SPACE
  1

  0
ENDBLK
  5
17
 67
     1
  8
0
  0
BLOCK
  8
0
  2
_OPEN30
 70
     0
 10
0.0
 20
0.0
 30
0.0
  3
_OPEN30
  1

  0
LINE
  5
34
  8
0
  6
BYBLOCK
 62
     0
 10
-1.0
 20
0.26794919
 30
0.0
 11
0.0
 21
0.0
 31
0.0
  0
LINE
  5
35
  8
0
  6
BYBLOCK
 62
     0
 10
0.0
 20
0.0
 30
0.0
 11
-1.0
 21
-0.26794919
 31
0.0
  0
LINE
  5
36
  8
0
  6
BYBLOCK
 62
     0
 10
0.0
 20
0.0
 30
0.0
 11
-1.0
 21
0.0
 31
0.0
  0
ENDBLK
  5
37
  8
0
  0
BLOCK
  8
0
  2
GENAXEH
 70
     0
 10
0.0
 20
0.0
 30
0.0
  3
GENAXEH
  1

  0
LINE
  5
102
  8
0
 10
-1.0
 20
0.0
 30
0.0
 11
1.0
 21
0.0
 31
0.0
  0
ENDBLK
  5
104
  8
0
  0
BLOCK
  8
0
  2
_OPEN
 70
     0
 10
0.0
 20
0.0
 30
0.0
  3
_OPEN
  1

  0
LINE
  5
30B
  8
0
  6
BYBLOCK
 62
     0
 10
-1.0
 20
0.1666666666666666
 30
0.0
 11
0.0
 21
0.0
 31
0.0
  0
LINE
  5
30C
  8
0
  6
BYBLOCK
 62
     0
 10
-1.0
 20
-0.1666666666666666
 30
0.0
 11
0.0
 21
0.0
 31
0.0
  0
LINE
  5
30D
  8
0
  6
BYBLOCK
 62
     0
 10
0.0
 20
0.0
 30
0.0
 11
-1.0
 21
0.0
 31
0.0
  0
ENDBLK
  5
30F
  8
0
  0
BLOCK
  8
0
  2
_DOTSMALL
 70
     0
 10
0.0
 20
0.0
 30
0.0
  3
_DOTSMALL
  1

  0
POLYLINE
  5
3F7
  8
0
  6
BYBLOCK
 62
     0
 66
     1
 10
0.0
 20
0.0
 30
0.0
 70
     1
 40
1.0
 41
1.0
  0
VERTEX
  5
1DF38
  8
0
  6
BYBLOCK
 62
     0
 10
-0.125
 20
0.0
 30
0.0
 42
1.0
  0
VERTEX
  5
1DF39
  8
0
  6
BYBLOCK
 62
     0
 10
0.125
 20
0.0
 30
0.0
 42
1.0
  0
SEQEND
  5
1DF3A
  8
0
  6
BYBLOCK
 62
     0
  0
ENDBLK
  5
3F9
  8
0
  0
BLOCK
  8
0
  2
_DOT
 70
     0
 10
0.0
 20
0.0
 30
0.0
  3
_DOT
  1

  0
POLYLINE
  5
A53D
  8
0
  6
BYBLOCK
 62
     0
 66
     1
 10
0.0
 20
0.0
 30
0.0
 70
     1
 40
0.5
 41
0.5
  0
VERTEX
  5
1DF3B
  8
0
  6
BYBLOCK
 62
     0
 10
-0.25
 20
0.0
 30
0.0
 42
1.0
  0
VERTEX
  5
1DF3C
  8
0
  6
BYBLOCK
 62
     0
 10
0.25
 20
0.0
 30
0.0
 42
1.0
  0
SEQEND
  5
1DF3D
  8
0
  6
BYBLOCK
 62
     0
  0
LINE
  5
A53E
  8
0
  6
BYBLOCK
 62
     0
 10
-0.5
 20
0.0
 30
0.0
 11
-1.0
 21
0.0
 31
0.0
  0
ENDBLK
  5
A540
  8
0
  0
ENDSEC
  0
SECTION
  2
ENTITIES
  0
TEXT
  5
15617
  8
KI
 62
     7
 10
217.70790036644311
 20
-269.30914795167661
 30
0.0
 40
7.0
  1
たて横断面
 41
0.84552428
  0
TEXT
  5
170C7
  8
KI
 62
     7
 10
-374.2702574296182
 20
233.69945489643041
 30
0.0
 40
7.0
  1
C：戸先かかり寸法
 41
0.84552428
  0
TEXT
  5
170C8
  8
KI
 62
     7
 10
-374.2702574296182
 20
242.03943992916419
 30
0.0
 40
7.0
  1
B：戸尻かかり寸法
 41
0.84552428
  0
TEXT
  5
170CA
  8
KI
 62
     7
 10
-374.2702574296182
 20
224.8425911174416
 30
0.0
 40
7.0
  1
D：チリ寸法
 41
0.84552428
  0
TEXT
  5
1716A
  8
KI
 62
     7
 10
218.27257340280721
 20
-242.1955118880114
 30
0.0
 40
7.0
  1
室内引戸　アウトセット引戸（Yレール仕様）
 41
0.84552428
  0
TEXT
  5
1716B
  8
KI
 62
     7
 10
218.27257340280721
 20
-260.11880434947761
 30
0.0
 40
7.0
  1
無目枠納め（ノンケーシング枠）
 41
0.84552428
  0
TEXT
  5
1716C
  8
KI
 62
     7
 10
218.27257340280721
 20
-251.1188043494775
 30
0.0
 40
7.0
  1
片引き戸（錠無し）
 41
0.84552428
  0
TEXT
  5
1716E
  8
KI
 62
     7
 10
218.27257340280721
 20
-232.72627912060551
 30
0.0
 40
7.0
  1
D TOS多機能商品シリーズ
 41
0.84552428
  0
TEXT
  5
17180
  8
KI
 62
     7
 10
217.70790036644311
 20
-278.41994937017938
 30
0.0
 40
7.0
  1
dt28b001
 41
0.84552428
  0
LINE
  5
18A22
  8
KI
 62
     7
 10
-133.0000000000002
 20
-61.452887234464747
 30
0.0
 11
-133.0000000000002
 21
83.297112766452756
 31
0.0
  0
LINE
  5
18A23
  8
KI
 62
     7
 10
-166.0000000000002
 20
-61.452887234464747
 30
0.0
 11
-166.0000000000002
 21
44.297112766452749
 31
0.0
  0
LINE
  5
18A24
  8
OS
 62
     2
 10
322.39440871129727
 20
7.4768293531714667
 30
0.0
 11
295.39440871129659
 21
34.47682935317215
 31
0.0
  0
LINE
  5
18A25
  8
OS
 62
     2
 10
322.39440871129727
 20
-2.422665583440164
 30
0.0
 11
295.39440871129642
 21
24.577334416560578
 31
0.0
  0
LINE
  5
18A26
  8
OS
 62
     2
 10
400.07797476628218
 20
-23.519525152228091
 30
0.0
 11
327.39440871129722
 21
49.164040902757158
 31
0.0
  0
LINE
  5
18A27
  8
OS
 62
     2
 10
322.39440871129722
 20
49.164040902757279
 30
0.0
 11
327.39440871129722
 21
-55.835959097242721
 31
0.0
  0
LINE
  5
18A28
  8
OS
 62
     2
 10
327.39440871129722
 20
-55.835959097242721
 30
0.0
 11
327.39440871129722
 21
49.164040902757279
 31
0.0
  0
LINE
  5
18A29
  8
OS
 62
     2
 10
400.07797476628252
 20
16.847606957742471
 30
0.0
 11
327.39440871129722
 21
-55.835959097242842
 31
0.0
  0
LINE
  5
18A2A
  8
KI
 62
     7
 10
295.39440871129352
 20
-97.835959097243816
 30
0.0
 11
295.39440871129727
 21
94.164040902755957
 31
0.0
  0
LINE
  5
18A2B
  8
KI
 62
     7
 10
322.39440871129909
 20
96.664040902756895
 30
0.0
 11
322.39440871129659
 21
-150.33595909724289
 31
0.0
  0
LINE
  5
18A2C
  8
KI
 62
     7
 10
160.39440871129511
 20
-97.335959097243844
 30
0.0
 11
160.3944087112977
 21
94.664040902755971
 31
0.0
  0
LINE
  5
18A2D
  8
KI
 62
     7
 10
136.3944087112977
 20
97.164040902756881
 30
0.0
 11
136.39440871129511
 21
-99.835959097242949
 31
0.0
  0
LINE
  5
18A2F
  8
OS
 62
     2
 10
131.3944087112952
 20
-55.835959097242721
 30
0.0
 11
131.3944087112952
 21
49.164040902757279
 31
0.0
  0
LINE
  5
18A30
  8
OS
 62
     2
 10
136.3944087112952
 20
49.164040902757279
 30
0.0
 11
131.3944087112952
 21
-55.835959097242721
 31
0.0
  0
LINE
  5
18A31
  8
OS
 62
     2
 10
58.710842656309957
 20
-23.519525152228091
 30
0.0
 11
131.3944087112952
 21
49.164040902757158
 31
0.0
  0
LINE
  5
18A32
  8
OS
 62
     2
 10
58.71084265630985
 20
16.847606957742471
 30
0.0
 11
131.3944087112952
 21
-55.835959097242842
 31
0.0
  0
LINE
  5
18A33
  8
KI
  6
PHANTOM2
 62
     7
 10
-181.5000000000002
 20
51.297112766452749
 30
0.0
 11
-181.50000000000031
 21
-61.452887234464747
 31
0.0
  0
LINE
  5
18A34
  8
KI
  6
PHANTOM2
 62
     7
 10
-353.5
 20
51.297112766452749
 30
0.0
 11
-353.5
 21
-61.452887234464747
 31
0.0
  0
LINE
  5
18A3C
  8
SU
 62
     3
 10
-264.58232376588728
 20
0.6282798038241709
 30
0.0
 11
-291.25115677903142
 21
27.297112766452759
 31
0.0
  0
LINE
  5
18A3D
  8
KI
 62
     7
 10
-171.0000000000002
 20
51.297112766452749
 30
0.0
 11
-171.0000000000002
 21
-61.452887234464747
 31
0.0
  0
LINE
  5
18A3E
  8
KI
 62
     7
 10
-368.00000000000068
 20
-61.452887234464747
 30
0.0
 11
-368.00000000000068
 21
51.297112766452749
 31
0.0
  0
LINE
  5
18A48
  8
KI
 62
     7
 10
-368.00000000000068
 20
-152.20288723538221
 30
0.0
 11
-171.0000000000002
 21
-152.20288723538221
 31
0.0
  0
LINE
  5
18A49
  8
KI
 62
     7
 10
-368.00000000000068
 20
-152.20288723538221
 30
0.0
 11
-368.00000000000068
 21
-63.452887234464761
 31
0.0
  0
LINE
  5
18A4A
  8
KI
  6
PHANTOM2
 62
     7
 10
-353.5
 20
-63.452887234464761
 30
0.0
 11
-353.5
 21
-152.20288723538221
 31
0.0
  0
LINE
  5
18A4C
  8
KI
 62
     7
 10
-171.0000000000002
 20
-63.452887234464761
 30
0.0
 11
-171.0000000000002
 21
-152.20288723538221
 31
0.0
  0
LINE
  5
18A4D
  8
KI
  6
PHANTOM2
 62
     7
 10
-181.5000000000002
 20
-63.452887234464761
 30
0.0
 11
-181.50000000000031
 21
-152.20288723538221
 31
0.0
  0
LINE
  5
18A4E
  8
KI
 62
     7
 10
-166.0000000000002
 20
-145.20288723538221
 30
0.0
 11
-166.0000000000002
 21
-63.452887234464761
 31
0.0
  0
LINE
  5
18A4F
  8
KI
 62
     7
 10
-133.0000000000002
 20
-145.20288723538221
 30
0.0
 11
-133.0000000000002
 21
-63.452887234464761
 31
0.0
  0
LINE
  5
18A53
  8
KI
 62
     7
 10
-166.0000000000002
 20
-145.20288723538221
 30
0.0
 11
-133.0000000000002
 21
-145.20288723538221
 31
0.0
  0
LINE
  5
18A56
  8
SU
 62
     3
 10
-264.58232376588728
 20
0.6282798038241709
 30
0.0
 11
-235.86644944283239
 21
0.6282798038241709
 31
0.0
  0
LINE
  5
18A62
  8
KI
 62
     7
 10
302.39440871129511
 20
-104.83595909724259
 30
0.0
 11
136.39440871129511
 21
-104.83595909724259
 31
0.0
  0
LINE
  5
18A63
  8
KI
 62
     7
 10
302.39440871129511
 20
-137.83595909724261
 30
0.0
 11
136.39440871129511
 21
-137.83595909724261
 31
0.0
  0
LINE
  5
18A64
  8
KI
 62
     7
 10
302.39440871129511
 20
-133.83595909724261
 30
0.0
 11
136.39440871129511
 21
-133.83595909724261
 31
0.0
  0
LINE
  5
18A6D
  8
KI
 62
     7
 10
136.39440864466309
 20
-111.08595909724269
 30
0.0
 11
69.394408644663145
 21
-111.08595909724269
 31
0.0
  0
LINE
  5
18A6E
  8
KI
 62
     7
 10
302.39440871129523
 20
-104.58595916387461
 30
0.0
 11
69.3944087112951
 21
-104.58595916387451
 31
0.0
  0
LINE
  5
18A70
  8
KI
 62
     7
 10
69.3944087112951
 20
-101.33595909318031
 30
0.0
 11
302.39440871129523
 21
-101.33595909318031
 31
0.0
  0
LINE
  5
18A71
  8
OS
 62
     2
 10
136.39440871129511
 20
-76.835959097242835
 30
0.0
 11
58.71084265630985
 21
-76.835959097242835
 31
0.0
  0
LINE
  5
18A72
  8
OS
 62
     2
 10
136.39440871129511
 20
-78.835959097242892
 30
0.0
 11
58.71084265630985
 21
-78.835959097242835
 31
0.0
  0
LINE
  5
18A73
  8
OS
 62
     2
 10
58.71084265630985
 20
-89.335959097242736
 30
0.0
 11
136.39440871129511
 21
-89.335959097242778
 31
0.0
  0
LINE
  5
18A74
  8
OS
 62
     2
 10
136.39440871129511
 20
-87.335959097242892
 30
0.0
 11
58.71084265630985
 21
-87.335959097242835
 31
0.0
  0
LINE
  5
18A7A
  8
OS
 62
     2
 10
8.5640578663187412
 20
-89.335959097242736
 30
0.0
 11
56.71084265630985
 21
-89.335959097242736
 31
0.0
  0
LINE
  5
18A7B
  8
OS
 62
     2
 10
56.71084265630985
 20
-87.335959097242835
 30
0.0
 11
8.5640578663187412
 21
-87.335959097242835
 31
0.0
  0
LINE
  5
18A7C
  8
OS
 62
     2
 10
56.71084265630985
 20
-78.835959097242835
 30
0.0
 11
8.5640578663187412
 21
-78.835959097242835
 31
0.0
  0
LINE
  5
18A7D
  8
OS
 62
     2
 10
56.71084265630985
 20
-76.835959097242835
 30
0.0
 11
8.5640578663187412
 21
-76.835959097242835
 31
0.0
  0
CIRCLE
  5
18A81
  8
KI
 62
     7
 10
202.39440871129511
 20
-119.33595909724259
 30
0.0
 40
4.2999999999999989
  0
ARC
  5
18A82
  8
KI
 62
     7
 10
190.39440871129511
 20
-121.33595909724259
 30
0.0
 40
4.0
 50
180.0
 51
0.0
  0
LINE
  5
18A83
  8
KI
 62
     7
 10
217.39440871129511
 20
-114.5359590972426
 30
0.0
 11
217.39440871129511
 21
-124.1359590972427
 31
0.0
  0
LINE
  5
18A84
  8
KI
 62
     7
 10
169.39440871129511
 20
-124.1359590972427
 30
0.0
 11
169.39440871129511
 21
-114.5359590972426
 31
0.0
  0
LINE
  5
18A85
  8
KI
  6
PHANTOM2
 62
     7
 10
81.3944087112951
 20
-104.83595909724259
 30
0.0
 11
81.3944087112951
 21
-137.83595909724261
 31
0.0
  0
LINE
  5
18A86
  8
KI
 62
     7
 10
136.39440871129511
 20
-104.83595909724259
 30
0.0
 11
136.39440871129511
 21
-137.83595909724261
 31
0.0
  0
LINE
  5
18A88
  8
KI
 62
     7
 10
213.39440871129511
 20
-128.13595909724259
 30
0.0
 11
173.39440871129511
 21
-128.13595909724259
 31
0.0
  0
ARC
  5
18A89
  8
KI
 62
     7
 10
173.39440871129511
 20
-124.1359590972427
 30
0.0
 40
4.0
 50
180.0
 51
270.0
  0
ARC
  5
18A8A
  8
KI
 62
     7
 10
213.39440871129511
 20
-124.1359590972427
 30
0.0
 40
4.0
 50
270.0
 51
0.0
  0
LINE
  5
18A8B
  8
KI
 62
     7
 10
136.39440871129511
 20
-99.835959097242949
 30
0.0
 11
157.89440871129511
 21
-99.835959097243844
 31
0.0
  0
LINE
  5
18A8C
  8
KI
  6
PHANTOM2
 62
     7
 10
136.394408711295
 20
-89.335959097242636
 30
0.0
 11
226.96881558252721
 21
-89.335959097242579
 31
0.0
  0
LINE
  5
18A8E
  8
KI
 62
     7
 10
136.39440871129511
 20
-119.7359590972427
 30
0.0
 11
117.8944087112948
 21
-119.7359590972427
 31
0.0
  0
LINE
  5
18A8F
  8
KI
 62
     7
 10
136.39440871129511
 20
-117.69609646589871
 30
0.0
 11
117.8944087112948
 21
-117.69609646589871
 31
0.0
  0
LINE
  5
18A90
  8
KI
 62
     7
 10
160.39440871129511
 20
-97.335959097243844
 30
0.0
 11
157.89440871129511
 21
-99.835959097243844
 31
0.0
  0
LINE
  5
18A92
  8
KI
 62
     7
 10
160.39440871129511
 20
-101.33595909724259
 30
0.0
 11
160.39440871129511
 21
-89.335959097242664
 31
0.0
  0
LINE
  5
18A93
  8
KI
 62
     7
 10
226.39440871129511
 20
-101.33595909724259
 30
0.0
 11
226.39440871129511
 21
-89.335959097242664
 31
0.0
  0
LINE
  5
18A94
  8
KI
 62
     7
 10
189.23970817291581
 20
-121.33595909724259
 30
0.0
 11
191.54910924967439
 21
-121.33595909724259
 31
0.0
  0
LINE
  5
18A95
  8
KI
 62
     7
 10
189.23970817291581
 20
-117.33595909724259
 30
0.0
 11
191.5491092496743
 21
-117.33595909724259
 31
0.0
  0
CIRCLE
  5
18A96
  8
KI
 62
     7
 10
190.39440871129511
 20
-119.33595909724259
 30
0.0
 40
3.5
  0
LINE
  5
18A97
  8
KI
 62
     7
 10
213.39440871129511
 20
-110.5359590972426
 30
0.0
 11
173.39440871129511
 21
-110.5359590972426
 31
0.0
  0
ARC
  5
18A98
  8
KI
 62
     7
 10
190.39440871129511
 20
-117.33595909724259
 30
0.0
 40
4.0
 50
0.0
 51
180.0
  0
ARC
  5
18A99
  8
KI
 62
     7
 10
173.39440871129511
 20
-114.5359590972426
 30
0.0
 40
4.0
 50
90.0
 51
180.0
  0
LINE
  5
18A9A
  8
KI
 62
     7
 10
173.79440871129509
 20
-119.6359590972426
 30
0.0
 11
172.59440871129499
 21
-119.6359590972426
 31
0.0
  0
LINE
  5
18A9B
  8
KI
 62
     7
 10
173.79440871129509
 20
-119.0359590972426
 30
0.0
 11
172.59440871129499
 21
-119.0359590972426
 31
0.0
  0
CIRCLE
  5
18A9C
  8
KI
 62
     7
 10
174.39440871129511
 20
-119.33595909724259
 30
0.0
 40
3.5
  0
LINE
  5
18A9D
  8
KI
 62
     7
 10
172.59440871129499
 20
-119.6359590972426
 30
0.0
 11
172.59440871129499
 21
-119.0359590972426
 31
0.0
  0
LINE
  5
18A9E
  8
KI
 62
     7
 10
189.23970817291581
 20
-121.33595909724259
 30
0.0
 11
188.08500763453659
 21
-119.33595909724259
 31
0.0
  0
LINE
  5
18A9F
  8
KI
 62
     7
 10
188.08500763453659
 20
-119.33595909724259
 30
0.0
 11
189.23970817291581
 21
-117.33595909724259
 31
0.0
  0
LINE
  5
18AA0
  8
KI
 62
     7
 10
186.39440871129511
 20
-119.33595909724259
 30
0.0
 11
186.39440871129511
 21
-121.33595909724259
 31
0.0
  0
LINE
  5
18AA1
  8
KI
 62
     7
 10
186.39440871129511
 20
-119.33595909724259
 30
0.0
 11
186.39440871129511
 21
-117.33595909724259
 31
0.0
  0
ARC
  5
18AA2
  8
KI
 62
     7
 10
173.79440871129509
 20
-119.9359590972426
 30
0.0
 40
0.3
 50
0.0
 51
90.0
  0
LINE
  5
18AA3
  8
KI
 62
     7
 10
174.09440871129499
 20
-119.9359590972426
 30
0.0
 11
174.09440871129499
 21
-121.1359590972427
 31
0.0
  0
ARC
  5
18AA4
  8
KI
 62
     7
 10
173.79440871129509
 20
-118.7359590972427
 30
0.0
 40
0.3
 50
270.0
 51
0.0
  0
LINE
  5
18AA5
  8
KI
 62
     7
 10
174.09440871129499
 20
-118.7359590972427
 30
0.0
 11
174.09440871129499
 21
-117.5359590972426
 31
0.0
  0
ARC
  5
18AA6
  8
KI
 62
     7
 10
174.99440871129511
 20
-118.7359590972427
 30
0.0
 40
0.3
 50
180.0
 51
270.0
  0
LINE
  5
18AA7
  8
KI
 62
     7
 10
174.99440871129511
 20
-119.0359590972426
 30
0.0
 11
176.19440871129521
 21
-119.0359590972426
 31
0.0
  0
LINE
  5
18AA8
  8
KI
 62
     7
 10
174.69440871129521
 20
-118.7359590972427
 30
0.0
 11
174.69440871129521
 21
-117.5359590972426
 31
0.0
  0
ARC
  5
18AA9
  8
KI
 62
     7
 10
174.99440871129511
 20
-119.9359590972426
 30
0.0
 40
0.3
 50
90.0
 51
180.0
  0
LINE
  5
18AAA
  8
KI
 62
     7
 10
174.99440871129511
 20
-119.6359590972426
 30
0.0
 11
176.19440871129521
 21
-119.6359590972426
 31
0.0
  0
LINE
  5
18AAB
  8
KI
 62
     7
 10
174.69440871129521
 20
-119.9359590972426
 30
0.0
 11
174.69440871129521
 21
-121.1359590972427
 31
0.0
  0
LINE
  5
18AAC
  8
KI
 62
     7
 10
174.69440871129501
 20
-121.1359590972427
 30
0.0
 11
174.09440871129499
 21
-121.1359590972427
 31
0.0
  0
LINE
  5
18AAD
  8
KI
 62
     7
 10
174.0944087112951
 20
-117.5359590972426
 30
0.0
 11
174.69440871129521
 21
-117.5359590972426
 31
0.0
  0
LINE
  5
18AAE
  8
KI
 62
     7
 10
176.19440871129521
 20
-119.0359590972426
 30
0.0
 11
176.19440871129521
 21
-119.6359590972426
 31
0.0
  0
LINE
  5
18AAF
  8
KI
 62
     7
 10
162.39440871129511
 20
-103.33595909724259
 30
0.0
 11
176.39440871129511
 21
-103.33595909724259
 31
0.0
  0
ARC
  5
18AB0
  8
KI
 62
     7
 10
162.39440871129511
 20
-101.33595909724259
 30
0.0
 40
2.0
 50
180.0
 51
270.0
  0
ARC
  5
18AB1
  8
KI
 62
     7
 10
176.39440871129511
 20
-105.33595909724259
 30
0.0
 40
2.0
 50
0.0
 51
90.0
  0
LINE
  5
18AB2
  8
KI
 62
     7
 10
178.39440871129511
 20
-105.33595909724259
 30
0.0
 11
178.39440871129511
 21
-110.5359590972426
 31
0.0
  0
ARC
  5
18AB3
  8
KI
 62
     7
 10
213.39440871129511
 20
-114.5359590972426
 30
0.0
 40
4.0
 50
0.0
 51
90.0
  0
CIRCLE
  5
18AB4
  8
KI
 62
     7
 10
212.39440871129511
 20
-119.33595909724259
 30
0.0
 40
3.5
  0
LINE
  5
18AB5
  8
KI
 62
     7
 10
201.23970817291581
 20
-121.33595909724259
 30
0.0
 11
200.08500763453659
 21
-119.33595909724259
 31
0.0
  0
LINE
  5
18AB6
  8
KI
 62
     7
 10
201.23970817291581
 20
-121.33595909724259
 30
0.0
 11
203.54910924967439
 21
-121.33595909724259
 31
0.0
  0
LINE
  5
18AB7
  8
KI
 62
     7
 10
203.54910924967439
 20
-121.33595909724259
 30
0.0
 11
204.7038097880536
 21
-119.33595909724259
 31
0.0
  0
LINE
  5
18AB8
  8
KI
 62
     7
 10
204.7038097880536
 20
-119.33595909724259
 30
0.0
 11
203.5491092496743
 21
-117.33595909724259
 31
0.0
  0
LINE
  5
18AB9
  8
KI
 62
     7
 10
201.23970817291581
 20
-117.33595909724259
 30
0.0
 11
203.5491092496743
 21
-117.33595909724259
 31
0.0
  0
LINE
  5
18ABA
  8
KI
 62
     7
 10
200.08500763453659
 20
-119.33595909724259
 30
0.0
 11
201.23970817291581
 21
-117.33595909724259
 31
0.0
  0
LINE
  5
18ABB
  8
KI
 62
     7
 10
191.54910924967439
 20
-121.33595909724259
 30
0.0
 11
192.7038097880536
 21
-119.33595909724259
 31
0.0
  0
LINE
  5
18ABC
  8
KI
 62
     7
 10
192.7038097880536
 20
-119.33595909724259
 30
0.0
 11
191.5491092496743
 21
-117.33595909724259
 31
0.0
  0
LINE
  5
18ABD
  8
KI
 62
     7
 10
194.39440871129511
 20
-119.33595909724259
 30
0.0
 11
194.39440871129511
 21
-121.33595909724259
 31
0.0
  0
LINE
  5
18ABE
  8
KI
 62
     7
 10
194.39440871129511
 20
-119.33595909724259
 30
0.0
 11
194.39440871129511
 21
-117.33595909724259
 31
0.0
  0
ARC
  5
18ABF
  8
KI
 62
     7
 10
211.79440871129509
 20
-119.9359590972426
 30
0.0
 40
0.3
 50
0.0
 51
90.0
  0
LINE
  5
18AC0
  8
KI
 62
     7
 10
212.09440871129499
 20
-119.9359590972426
 30
0.0
 11
212.09440871129499
 21
-121.1359590972427
 31
0.0
  0
LINE
  5
18AC1
  8
KI
 62
     7
 10
211.79440871129509
 20
-119.6359590972426
 30
0.0
 11
210.5944087112951
 21
-119.6359590972426
 31
0.0
  0
ARC
  5
18AC2
  8
KI
 62
     7
 10
211.79440871129509
 20
-118.7359590972427
 30
0.0
 40
0.3
 50
270.0
 51
0.0
  0
LINE
  5
18AC3
  8
KI
 62
     7
 10
212.09440871129499
 20
-118.7359590972427
 30
0.0
 11
212.09440871129499
 21
-117.5359590972426
 31
0.0
  0
LINE
  5
18AC4
  8
KI
 62
     7
 10
211.79440871129509
 20
-119.0359590972426
 30
0.0
 11
210.5944087112951
 21
-119.0359590972426
 31
0.0
  0
ARC
  5
18AC5
  8
KI
 62
     7
 10
212.99440871129519
 20
-118.7359590972427
 30
0.0
 40
0.3
 50
180.0
 51
270.0
  0
LINE
  5
18AC6
  8
KI
 62
     7
 10
212.99440871129519
 20
-119.0359590972426
 30
0.0
 11
214.19440871129521
 21
-119.0359590972426
 31
0.0
  0
LINE
  5
18AC7
  8
KI
 62
     7
 10
212.69440871129521
 20
-118.7359590972427
 30
0.0
 11
212.69440871129521
 21
-117.5359590972426
 31
0.0
  0
ARC
  5
18AC8
  8
KI
 62
     7
 10
212.99440871129519
 20
-119.9359590972426
 30
0.0
 40
0.3
 50
90.0
 51
180.0
  0
LINE
  5
18AC9
  8
KI
 62
     7
 10
212.99440871129519
 20
-119.6359590972426
 30
0.0
 11
214.19440871129521
 21
-119.6359590972426
 31
0.0
  0
LINE
  5
18ACA
  8
KI
 62
     7
 10
212.69440871129521
 20
-119.9359590972426
 30
0.0
 11
212.69440871129521
 21
-121.1359590972427
 31
0.0
  0
LINE
  5
18ACB
  8
KI
 62
     7
 10
212.6944087112951
 20
-121.1359590972427
 30
0.0
 11
212.09440871129499
 21
-121.1359590972427
 31
0.0
  0
LINE
  5
18ACC
  8
KI
 62
     7
 10
210.5944087112951
 20
-119.6359590972426
 30
0.0
 11
210.5944087112951
 21
-119.0359590972426
 31
0.0
  0
LINE
  5
18ACD
  8
KI
 62
     7
 10
212.09440871129519
 20
-117.5359590972426
 30
0.0
 11
212.69440871129521
 21
-117.5359590972426
 31
0.0
  0
LINE
  5
18ACE
  8
KI
 62
     7
 10
214.19440871129521
 20
-119.0359590972426
 30
0.0
 11
214.19440871129521
 21
-119.6359590972426
 31
0.0
  0
ARC
  5
18ACF
  8
KI
 62
     7
 10
210.39440871129511
 20
-105.33595909724259
 30
0.0
 40
2.0
 50
90.0
 51
180.0
  0
LINE
  5
18AD0
  8
KI
 62
     7
 10
208.39440871129511
 20
-105.33595909724259
 30
0.0
 11
208.39440871129511
 21
-110.5359590972426
 31
0.0
  0
ARC
  5
18AD1
  8
KI
 62
     7
 10
224.39440871129511
 20
-101.33595909724259
 30
0.0
 40
2.0
 50
270.0
 51
0.0
  0
LINE
  5
18AD2
  8
KI
 62
     7
 10
224.39440871129511
 20
-103.33595909724259
 30
0.0
 11
210.39440871129511
 21
-103.33595909724259
 31
0.0
  0
LINE
  5
18AD3
  8
KI
  6
DASHED2
 62
     7
 10
160.39440871129511
 20
-92.335959097242664
 30
0.0
 11
226.39440871129511
 21
-92.335959097242664
 31
0.0
  0
LINE
  5
18AD4
  8
KI
 62
     7
 10
226.39440871129511
 20
-89.335959097242664
 30
0.0
 11
160.39440871129511
 21
-89.335959097242664
 31
0.0
  0
LINE
  5
18AD5
  8
OS
 62
     2
 10
136.39440871129511
 20
-55.835959097242842
 30
0.0
 11
58.71084265630985
 21
-55.835959097242842
 31
0.0
  0
LINE
  5
18AD6
  8
OS
 62
     2
 10
56.71084265630985
 20
-55.835959097242842
 30
0.0
 11
8.5640578663187412
 21
-55.835959097242842
 31
0.0
  0
LINE
  5
18AD7
  8
OS
 62
     2
 10
322.39440871129727
 20
-81.618625076333487
 30
0.0
 11
295.39440871129523
 21
-54.618625076331682
 31
0.0
  0
LINE
  5
18AD8
  8
OS
 62
     2
 10
322.39440871129727
 20
-91.51812001294519
 30
0.0
 11
295.39440871129523
 21
-64.5181200129432
 31
0.0
  0
LINE
  5
18AD9
  8
OS
 62
     2
 10
322.39440871129727
 20
-101.41761494955701
 30
0.0
 11
295.39440871129511
 21
-74.417614949554775
 31
0.0
  0
LINE
  5
18ADA
  8
OS
 62
     2
 10
322.39440871129727
 20
-78.835959097242892
 30
0.0
 11
400.07797476628252
 21
-78.835959097242835
 31
0.0
  0
LINE
  5
18ADB
  8
OS
 62
     2
 10
400.07797476628252
 20
-89.335959097242736
 30
0.0
 11
322.39440871129727
 21
-89.335959097242778
 31
0.0
  0
LINE
  5
18ADC
  8
OS
 62
     2
 10
322.39440871129727
 20
-87.335959097242892
 30
0.0
 11
400.07797476628252
 21
-87.335959097242835
 31
0.0
  0
LINE
  5
18ADD
  8
OS
 62
     2
 10
322.39440871129727
 20
-76.835959097242835
 30
0.0
 11
400.07797476628252
 21
-76.835959097242835
 31
0.0
  0
LINE
  5
18ADE
  8
KI
 62
     7
 10
302.39440871129523
 20
-99.835959097243503
 30
0.0
 11
302.39440871129511
 21
-137.83595909724261
 31
0.0
  0
LINE
  5
18ADF
  8
OS
 62
     2
 10
322.39440871129727
 20
-131.1160997593914
 30
0.0
 11
302.39440871129523
 21
-111.1160997593893
 31
0.0
  0
LINE
  5
18AE0
  8
KI
 62
     7
 10
302.39440871129523
 20
-147.8359590972438
 30
0.0
 11
302.39440871129523
 21
-101.33595909318031
 31
0.0
  0
LINE
  5
18AE2
  8
KI
  6
PHANTOM2
 62
     7
 10
250.39440871129511
 20
-104.83595909724259
 30
0.0
 11
250.39440871129511
 21
-137.83595909724261
 31
0.0
  0
POINT
  5
18AE3
  8
KI
 62
     7
 10
296.61892196170078
 20
-137.83595909724261
 30
0.0
  0
LINE
  5
18AE4
  8
OS
 62
     2
 10
311.91578323931481
 20
-150.33595909724349
 30
0.0
 11
302.39440871129523
 21
-140.81458456922371
 31
0.0
  0
LINE
  5
18AE5
  8
OS
 62
     2
 10
321.81527817592558
 20
-150.33595909724269
 30
0.0
 11
302.39440871129523
 21
-130.91508963261231
 31
0.0
  0
LINE
  5
18AE6
  8
KI
 62
     7
 10
322.39440871129727
 20
-150.33595909724269
 30
0.0
 11
304.89440871129523
 21
-150.3359590972438
 31
0.0
  0
LINE
  5
18AE7
  8
KI
 62
     7
 10
302.39440871129523
 20
-147.8359590972438
 30
0.0
 11
304.89440871129523
 21
-150.3359590972438
 31
0.0
  0
LINE
  5
18AE8
  8
OS
 62
     2
 10
322.39440871129727
 20
-141.01559469600289
 30
0.0
 11
302.39440871129523
 21
-121.0155946960008
 31
0.0
  0
LINE
  5
18AE9
  8
OS
 62
     2
 10
322.39440871129727
 20
-111.3171098861685
 30
0.0
 11
295.39440871129477
 21
-84.317109886166136
 31
0.0
  0
LINE
  5
18AEA
  8
KI
 62
     7
 10
302.39440871129523
 20
-100.3359590972436
 30
0.0
 11
297.89440871129352
 21
-100.3359590972437
 31
0.0
  0
LINE
  5
18AEB
  8
KI
  6
PHANTOM2
 62
     7
 10
228.96881558252721
 20
-89.335959097242636
 30
0.0
 11
319.39440871129477
 21
-89.335959097242693
 31
0.0
  0
LINE
  5
18AEC
  8
OS
 62
     2
 10
301.51376298576082
 20
-100.3359590972437
 30
0.0
 11
295.39440871129489
 21
-94.216604822777853
 31
0.0
  0
POINT
  5
18AED
  8
KI
 62
     7
 10
296.61892196170078
 20
-104.83595909724259
 30
0.0
  0
LINE
  5
18AEF
  8
OS
 62
     2
 10
322.39440871129727
 20
-121.21660482278
 30
0.0
 11
302.39440871129523
 21
-101.2166048227779
 31
0.0
  0
LINE
  5
18AF0
  8
OS
 62
     2
 10
322.39440871129727
 20
-55.835959097242842
 30
0.0
 11
400.07797476628252
 21
-55.835959097242842
 31
0.0
  0
LINE
  5
18AF1
  8
OS
 62
     2
 10
322.39440871129727
 20
-32.121150393275293
 30
0.0
 11
295.39440871129602
 21
-5.1211503932739779
 31
0.0
  0
LINE
  5
18AF2
  8
OS
 62
     2
 10
322.39440871129727
 20
-42.020645329886918
 30
0.0
 11
295.3944087112958
 21
-15.0206453298855
 31
0.0
  0
LINE
  5
18AF3
  8
OS
 62
     2
 10
322.39440871129727
 20
-51.920140266498493
 30
0.0
 11
295.39440871129568
 21
-24.920140266497022
 31
0.0
  0
LINE
  5
18AF4
  8
OS
 62
     2
 10
322.39440871129727
 20
-61.819635203110181
 30
0.0
 11
295.39440871129568
 21
-34.819635203108653
 31
0.0
  0
LINE
  5
18AF5
  8
OS
 62
     2
 10
322.39440871129727
 20
-71.719130139721855
 30
0.0
 11
295.3944087112954
 21
-44.7191301397201
 31
0.0
  0
LINE
  5
18AF6
  8
OS
 62
     2
 10
322.39440871129727
 20
-12.322160520051909
 30
0.0
 11
295.39440871129619
 21
14.67783947994905
 31
0.0
  0
LINE
  5
18AF7
  8
OS
 62
     2
 10
322.39440871129727
 20
-22.221655456663651
 30
0.0
 11
295.39440871129619
 21
4.7783445433374823
 31
0.0
  0
LINE
  5
18AFC
  8
KI
 62
     7
 10
-365.00000000000091
 20
51.297112766452749
 30
0.0
 11
-174.0000000000004
 21
51.297112766452749
 31
0.0
  0
LINE
  5
18AFD
  8
KI
 62
     7
 10
-176.49999999999949
 20
27.297112766452759
 30
0.0
 11
-362.5
 21
27.297112766452759
 31
0.0
  0
LINE
  5
18AFE
  8
KI
 62
     7
 10
-368.00000000000068
 20
51.297112766452749
 30
0.0
 11
-171.0000000000002
 21
51.297112766452749
 31
0.0
  0
LINE
  5
18B00
  8
OS
 62
     2
 10
-343.00000000000023
 20
51.297112766452642
 30
0.0
 11
-343.0
 21
161.29711276461811
 31
0.0
  0
LINE
  5
18B01
  8
OS
 62
     2
 10
-351.50000000000023
 20
51.297112766452642
 30
0.0
 11
-351.5
 21
161.29711276461811
 31
0.0
  0
LINE
  5
18B02
  8
OS
 62
     2
 10
-341.00000000000023
 20
51.297112766452642
 30
0.0
 11
-341.0
 21
161.29711276461811
 31
0.0
  0
LINE
  5
18B03
  8
OS
 62
     2
 10
-353.5
 20
51.297112766452749
 30
0.0
 11
-353.5
 21
161.29711276461811
 31
0.0
  0
LINE
  5
18B04
  8
KI
 62
     7
 10
-365.0
 20
29.797112766452749
 30
0.0
 11
-365.00000000000091
 21
51.297112766452749
 31
0.0
  0
LINE
  5
18B05
  8
KI
 62
     7
 10
-365.0
 20
29.797112766452749
 30
0.0
 11
-362.5
 21
27.297112766452759
 31
0.0
  0
ARC
  5
18B08
  8
KI
 62
     7
 10
-178.5000000000002
 20
93.297112766452756
 30
0.0
 40
3.0
 50
90.0
 51
180.0
  0
LINE
  5
18B09
  8
KI
 62
     7
 10
-142.70000000000019
 20
98.297112766452756
 30
0.0
 11
-142.70000000000019
 21
85.797112766452756
 31
0.0
  0
LINE
  5
18B0A
  8
KI
 62
     7
 10
-160.3000000000001
 20
98.297112766452756
 30
0.0
 11
-160.3000000000001
 21
85.797112766452756
 31
0.0
  0
LINE
  5
18B0B
  8
OS
 62
     2
 10
-320.00000000000023
 20
51.297112766452642
 30
0.0
 11
-320.00000000000023
 21
161.29711276461811
 31
0.0
  0
LINE
  5
18B0C
  8
OS
 62
     2
 10
-215.0000000000002
 20
51.297112766452642
 30
0.0
 11
-215.0000000000002
 21
161.29711276461811
 31
0.0
  0
LINE
  5
18B0D
  8
OS
 62
     2
 10
-183.5000000000002
 20
51.297112766452642
 30
0.0
 11
-183.5000000000002
 21
161.29711276461811
 31
0.0
  0
LINE
  5
18B0E
  8
OS
 62
     2
 10
-192.0000000000002
 20
51.297112766452642
 30
0.0
 11
-192.0000000000002
 21
161.29711276461811
 31
0.0
  0
LINE
  5
18B0F
  8
OS
 62
     2
 10
-194.0000000000002
 20
51.297112766452642
 30
0.0
 11
-194.0000000000002
 21
161.29711276461811
 31
0.0
  0
LINE
  5
18B10
  8
OS
 62
     2
 10
-181.5000000000002
 20
51.297112766452749
 30
0.0
 11
-181.5000000000002
 21
161.29711276461811
 31
0.0
  0
LINE
  5
18B11
  8
OS
 62
     2
 10
-215.0000000000002
 20
153.79711276645261
 30
0.0
 11
-320.00000000000023
 21
108.7971127664526
 31
0.0
  0
LINE
  5
18B14
  8
KI
  6
CENTER2
 62
     7
 10
-174.1355340342613
 20
71.297112766452756
 30
0.0
 11
-191.933444470014
 21
71.297112766452756
 31
0.0
  0
LINE
  5
18B15
  8
KI
  6
CENTER2
 62
     7
 10
-174.1355340342613
 20
57.297112766452749
 30
0.0
 11
-191.94083419651119
 21
57.297112766452749
 31
0.0
  0
LINE
  5
18B1A
  8
OS
 62
     2
 10
-215.00000000000051
 20
61.797112766452642
 30
0.0
 11
-320.0
 21
61.797112766452642
 31
0.0
  0
LINE
  5
18B1B
  8
OS
 62
     2
 10
-215.0000000000002
 20
53.297112766452642
 30
0.0
 11
-320.0
 21
53.297112766452642
 31
0.0
  0
LINE
  5
18B1C
  8
SU
 62
     3
 10
-264.58232376588728
 20
17.7329939906964
 30
0.0
 11
-229.77141404824789
 21
17.7329939906964
 31
0.0
  0
LINE
  5
18B1E
  8
SU
 62
     3
 10
-229.77141404824789
 20
17.7329939906964
 30
0.0
 11
-196.2072952219761
 21
51.297112766452642
 31
0.0
  0
LINE
  5
18B20
  8
OS
 62
     2
 10
-215.0000000000002
 20
108.7971127664526
 30
0.0
 11
-320.00000000000023
 21
63.797112766452642
 31
0.0
  0
LINE
  5
18B21
  8
OS
 62
     2
 10
-215.00000000000051
 20
63.797112766452642
 30
0.0
 11
-320.0
 21
63.797112766452642
 31
0.0
  0
LINE
  5
18B22
  8
OS
 62
     2
 10
-215.0000000000002
 20
108.7971127664526
 30
0.0
 11
-320.00000000000023
 21
108.7971127664526
 31
0.0
  0
ARC
  5
18B2D
  8
KI
 62
     7
 10
-140.70000000000019
 20
49.297112766452749
 30
0.0
 40
1.0
 50
270.0
 51
0.0
  0
LINE
  5
18B2E
  8
KI
 62
     7
 10
-137.0000000000002
 20
82.297112766452756
 30
0.0
 11
-137.0000000000002
 21
44.59711276645276
 31
0.0
  0
ARC
  5
18B2F
  8
KI
 62
     7
 10
-162.3000000000001
 20
49.297112766452749
 30
0.0
 40
1.0
 50
180.0
 51
270.0
  0
LINE
  5
18B30
  8
KI
 62
     7
 10
-166.0000000000002
 20
82.297112766452756
 30
0.0
 11
-166.0000000000002
 21
44.59711276645276
 31
0.0
  0
LINE
  5
18B34
  8
KI
 62
     7
 10
-137.0000000000002
 20
44.297112766452749
 30
0.0
 11
-137.0000000000002
 21
83.297112766452756
 31
0.0
  0
LINE
  5
18B36
  8
KI
 62
     7
 10
-174.0000000000004
 20
51.297112766452749
 30
0.0
 11
-173.99999999999949
 21
29.797112766452749
 31
0.0
  0
LINE
  5
18B37
  8
KI
 62
     7
 10
-176.49999999999949
 20
27.297112766452759
 30
0.0
 11
-173.99999999999949
 21
29.797112766452749
 31
0.0
  0
LINE
  5
18B38
  8
KI
 62
     7
 10
-141.80000000000021
 20
45.497112766452737
 30
0.0
 11
-151.5000000000002
 21
45.497112766452737
 31
0.0
  0
LINE
  5
18B39
  8
KI
 62
     7
 10
-166.0000000000002
 20
44.297112766452749
 30
0.0
 11
-137.0000000000002
 21
44.297112766452749
 31
0.0
  0
ARC
  5
18B3A
  8
KI
 62
     7
 10
-165.70000000000019
 20
44.59711276645276
 30
0.0
 40
0.3
 50
180.0
 51
270.0
  0
LINE
  5
18B3B
  8
KI
 62
     7
 10
-164.7500000000002
 20
44.297112766452749
 30
0.0
 11
-165.70000000000019
 21
44.297112766452749
 31
0.0
  0
ARC
  5
18B3C
  8
KI
 62
     7
 10
-164.7500000000002
 20
44.59711276645276
 30
0.0
 40
0.3
 50
270.0
 51
0.0
  0
LINE
  5
18B3D
  8
KI
 62
     7
 10
-164.45000000000019
 20
45.197112766452733
 30
0.0
 11
-164.45000000000019
 21
44.59711276645276
 31
0.0
  0
ARC
  5
18B3E
  8
KI
 62
     7
 10
-164.1500000000002
 20
45.197112766452733
 30
0.0
 40
0.3
 50
90.0
 51
180.0
  0
LINE
  5
18B3F
  8
KI
 62
     7
 10
-163.35000000000019
 20
45.497112766452737
 30
0.0
 11
-164.1500000000002
 21
45.497112766452737
 31
0.0
  0
ARC
  5
18B40
  8
KI
 62
     7
 10
-163.35000000000019
 20
45.197112766452733
 30
0.0
 40
0.3
 50
0.0
 51
90.0
  0
LINE
  5
18B41
  8
KI
 62
     7
 10
-163.05000000000021
 20
44.59711276645276
 30
0.0
 11
-163.05000000000021
 21
45.197112766452733
 31
0.0
  0
ARC
  5
18B42
  8
KI
 62
     7
 10
-162.7500000000002
 20
44.59711276645276
 30
0.0
 40
0.3
 50
180.0
 51
270.0
  0
LINE
  5
18B43
  8
KI
 62
     7
 10
-161.80000000000021
 20
44.297112766452749
 30
0.0
 11
-162.7500000000002
 21
44.297112766452749
 31
0.0
  0
ARC
  5
18B44
  8
KI
 62
     7
 10
-161.80000000000021
 20
44.59711276645276
 30
0.0
 40
0.3
 50
270.0
 51
0.0
  0
LINE
  5
18B45
  8
KI
 62
     7
 10
-161.5000000000002
 20
45.197112766452733
 30
0.0
 11
-161.5000000000002
 21
44.59711276645276
 31
0.0
  0
ARC
  5
18B46
  8
KI
 62
     7
 10
-161.20000000000019
 20
45.197112766452733
 30
0.0
 40
0.3
 50
90.0
 51
180.0
  0
LINE
  5
18B47
  8
KI
 62
     7
 10
-161.20000000000019
 20
45.497112766452737
 30
0.0
 11
-151.5000000000002
 21
45.497112766452737
 31
0.0
  0
ARC
  5
18B48
  8
KI
 62
     7
 10
-137.3000000000001
 20
44.59711276645276
 30
0.0
 40
0.3
 50
270.0
 51
0.0
  0
LINE
  5
18B49
  8
KI
 62
     7
 10
-138.2500000000002
 20
44.297112766452749
 30
0.0
 11
-137.3000000000001
 21
44.297112766452749
 31
0.0
  0
ARC
  5
18B4A
  8
KI
 62
     7
 10
-138.2500000000002
 20
44.59711276645276
 30
0.0
 40
0.3
 50
180.0
 51
270.0
  0
LINE
  5
18B4B
  8
KI
 62
     7
 10
-138.55000000000021
 20
45.197112766452733
 30
0.0
 11
-138.55000000000021
 21
44.59711276645276
 31
0.0
  0
ARC
  5
18B4C
  8
KI
 62
     7
 10
-138.85000000000019
 20
45.197112766452733
 30
0.0
 40
0.3
 50
0.0
 51
90.0
  0
LINE
  5
18B4D
  8
KI
 62
     7
 10
-139.6500000000002
 20
45.497112766452737
 30
0.0
 11
-138.85000000000019
 21
45.497112766452737
 31
0.0
  0
ARC
  5
18B4E
  8
KI
 62
     7
 10
-139.6500000000002
 20
45.197112766452733
 30
0.0
 40
0.3
 50
90.0
 51
180.0
  0
LINE
  5
18B4F
  8
KI
 62
     7
 10
-139.9500000000003
 20
44.59711276645276
 30
0.0
 11
-139.9500000000003
 21
45.197112766452733
 31
0.0
  0
ARC
  5
18B50
  8
KI
 62
     7
 10
-140.2500000000002
 20
44.59711276645276
 30
0.0
 40
0.3
 50
270.0
 51
0.0
  0
LINE
  5
18B51
  8
KI
 62
     7
 10
-141.2000000000003
 20
44.297112766452749
 30
0.0
 11
-140.2500000000002
 21
44.297112766452749
 31
0.0
  0
ARC
  5
18B52
  8
KI
 62
     7
 10
-141.2000000000003
 20
44.59711276645276
 30
0.0
 40
0.3
 50
180.0
 51
270.0
  0
LINE
  5
18B53
  8
KI
 62
     7
 10
-141.5000000000002
 20
45.197112766452733
 30
0.0
 11
-141.5000000000002
 21
44.59711276645276
 31
0.0
  0
ARC
  5
18B54
  8
KI
 62
     7
 10
-141.80000000000021
 20
45.197112766452733
 30
0.0
 40
0.3
 50
0.0
 51
90.0
  0
TEXT
  5
18B55
  8
MJ
 62
     2
 10
-161.95319972941829
 20
69.497112766452744
 30
0.0
 40
4.0
  1
弱
  0
TEXT
  5
18B56
  8
MJ
 62
     2
 10
-145.04680027058211
 20
69.497112766452744
 30
0.0
 40
4.0
  1
強
  0
LINE
  5
18B5D
  8
KI
 62
     7
 10
-181.5000000000002
 20
51.297112766452749
 30
0.0
 11
-181.5000000000002
 21
93.297112766452756
 31
0.0
  0
LINE
  5
18B5E
  8
KI
 62
     7
 10
-178.60000000000019
 20
51.297112766452749
 30
0.0
 11
-178.60000000000019
 21
93.397112766452778
 31
0.0
  0
LINE
  5
18B5F
  8
KI
 62
     7
 10
-139.70000000000019
 20
80.297112766452756
 30
0.0
 11
-139.70000000000019
 21
49.297112766452749
 31
0.0
  0
LINE
  5
18B60
  8
KI
 62
     7
 10
-153.7000000000003
 20
71.897112766452778
 30
0.0
 11
-153.7000000000003
 21
71.09711276645271
 31
0.0
  0
LINE
  5
18B61
  8
KI
 62
     7
 10
-149.30000000000021
 20
71.09711276645271
 30
0.0
 11
-149.30000000000021
 21
71.897112766452778
 31
0.0
  0
LINE
  5
18B63
  8
KI
 62
     7
 10
-163.3000000000001
 20
80.297112766452756
 30
0.0
 11
-163.3000000000001
 21
49.297112766452749
 31
0.0
  0
CIRCLE
  5
18B64
  8
KI
 62
     7
 10
-151.5000000000002
 20
71.497112766452744
 30
0.0
 40
5.0
  0
LINE
  5
18B66
  8
KI
 62
     7
 10
-140.70000000000019
 20
48.297112766452763
 30
0.0
 11
-151.5000000000002
 21
48.297112766452763
 31
0.0
  0
ARC
  5
18B67
  8
KI
 62
     7
 10
-151.5000000000002
 20
71.497112766452744
 30
0.0
 40
8.0
 50
270.0
 51
340.08079912014642
  0
LINE
  5
18B70
  8
KI
 62
     7
 10
-181.5000000000002
 20
51.297112766452749
 30
0.0
 11
-178.60000000000019
 21
51.297112766452749
 31
0.0
  0
LINE
  5
18B79
  8
KI
 62
     7
 10
-162.3000000000001
 20
48.297112766452763
 30
0.0
 11
-151.5000000000002
 21
48.297112766452763
 31
0.0
  0
LINE
  5
18B82
  8
KI
 62
     7
 10
-159.02139205363409
 20
68.771555653579753
 30
0.0
 11
-158.0797565373191
 21
67.646138835388399
 31
0.0
  0
LINE
  5
18B83
  8
KI
 62
     7
 10
-159.02139205363409
 20
68.771555653579753
 30
0.0
 11
-158.76306521122541
 21
67.294332635600711
 31
0.0
  0
LINE
  5
18B84
  8
KI
 62
     7
 10
-151.90000000000029
 20
69.297112766452756
 30
0.0
 11
-151.10000000000019
 21
69.297112766452756
 31
0.0
  0
LINE
  5
18B85
  8
KI
 62
     7
 10
-150.8000000000001
 20
71.09711276645271
 30
0.0
 11
-149.30000000000021
 21
71.09711276645271
 31
0.0
  0
LINE
  5
18B86
  8
KI
 62
     7
 10
-151.10000000000019
 20
70.797112766452756
 30
0.0
 11
-151.10000000000019
 21
69.297112766452756
 31
0.0
  0
ARC
  5
18B87
  8
KI
 62
     7
 10
-150.8000000000001
 20
70.797112766452756
 30
0.0
 40
0.3
 50
90.0
 51
180.0
  0
LINE
  5
18B88
  8
KI
 62
     7
 10
-152.20000000000019
 20
71.09711276645271
 30
0.0
 11
-153.7000000000003
 21
71.09711276645271
 31
0.0
  0
LINE
  5
18B89
  8
KI
 62
     7
 10
-151.9000000000002
 20
70.797112766452756
 30
0.0
 11
-151.9000000000002
 21
69.297112766452756
 31
0.0
  0
ARC
  5
18B8A
  8
KI
 62
     7
 10
-152.20000000000019
 20
70.797112766452756
 30
0.0
 40
0.3
 50
0.0
 51
90.0
  0
ARC
  5
18B8B
  8
KI
 62
     7
 10
-151.5000000000002
 20
71.497112766452744
 30
0.0
 40
8.0
 50
199.91920087985349
 51
270.0
  0
LINE
  5
18B8C
  8
KI
 62
     7
 10
-143.97860794636631
 20
68.771555653579753
 30
0.0
 11
-144.9202434626813
 21
67.646138835388399
 31
0.0
  0
LINE
  5
18B8D
  8
KI
 62
     7
 10
-143.97860794636631
 20
68.771555653579753
 30
0.0
 11
-144.23693478877499
 21
67.294332635600711
 31
0.0
  0
LINE
  5
18B8E
  8
KI
 62
     7
 10
-144.9000000000002
 20
81.497112766452744
 30
0.0
 11
-151.5000000000002
 21
81.497112766452744
 31
0.0
  0
LINE
  5
18B8F
  8
KI
 62
     7
 10
-157.12548549900021
 20
85.797112766452756
 30
0.0
 11
-157.12548549900021
 21
81.497112766452744
 31
0.0
  0
LINE
  5
18B94
  8
KI
 62
     7
 10
-158.10000000000019
 20
81.497112766452744
 30
0.0
 11
-151.5000000000002
 21
81.497112766452744
 31
0.0
  0
LINE
  5
18B95
  8
KI
 62
     7
 10
-159.10000000000019
 20
80.097112766452753
 30
0.0
 11
-159.10000000000019
 21
81.297112766452756
 31
0.0
  0
ARC
  5
18B96
  8
KI
 62
     7
 10
-158.80000000000021
 20
80.097112766452753
 30
0.0
 40
0.3
 50
180.0
 51
270.0
  0
LINE
  5
18B97
  8
KI
 62
     7
 10
-158.40000000000029
 20
79.797112766452756
 30
0.0
 11
-158.80000000000021
 21
79.797112766452756
 31
0.0
  0
ARC
  5
18B98
  8
KI
 62
     7
 10
-158.40000000000029
 20
80.097112766452753
 30
0.0
 40
0.3
 50
270.0
 51
0.0
  0
LINE
  5
18B99
  8
KI
 62
     7
 10
-158.10000000000019
 20
82.497112766452744
 30
0.0
 11
-158.10000000000019
 21
80.097112766452753
 31
0.0
  0
ARC
  5
18B9A
  8
KI
 62
     7
 10
-158.40000000000029
 20
82.497112766452744
 30
0.0
 40
0.3
 50
0.0
 51
90.0
  0
ARC
  5
18B9B
  8
KI
 62
     7
 10
-165.5000000000002
 20
82.297112766452756
 30
0.0
 40
0.5
 50
90.0
 51
180.0
  0
ARC
  5
18B9C
  8
KI
 62
     7
 10
-162.3000000000001
 20
80.297112766452756
 30
0.0
 40
1.0
 50
90.0
 51
180.0
  0
LINE
  5
18B9D
  8
KI
 62
     7
 10
-162.3000000000001
 20
81.297112766452756
 30
0.0
 11
-159.10000000000019
 21
81.297112766452756
 31
0.0
  0
LINE
  5
18B9E
  8
KI
 62
     7
 10
-158.40000000000029
 20
82.797112766452756
 30
0.0
 11
-165.5000000000002
 21
82.797112766452756
 31
0.0
  0
LINE
  5
18B9F
  8
KI
 62
     7
 10
-151.10000000000011
 20
73.697112766452733
 30
0.0
 11
-151.9000000000002
 21
73.697112766452733
 31
0.0
  0
LINE
  5
18BA0
  8
KI
 62
     7
 10
-152.20000000000019
 20
71.897112766452778
 30
0.0
 11
-153.7000000000003
 21
71.897112766452778
 31
0.0
  0
LINE
  5
18BA1
  8
KI
 62
     7
 10
-151.9000000000002
 20
72.197112766452733
 30
0.0
 11
-151.9000000000002
 21
73.697112766452733
 31
0.0
  0
ARC
  5
18BA2
  8
KI
 62
     7
 10
-152.20000000000019
 20
72.197112766452733
 30
0.0
 40
0.3
 50
270.0
 51
0.0
  0
LINE
  5
18BA3
  8
KI
 62
     7
 10
-151.10000000000019
 20
72.197112766452733
 30
0.0
 11
-151.10000000000019
 21
73.697112766452733
 31
0.0
  0
LINE
  5
18BA4
  8
KI
 62
     7
 10
-150.8000000000001
 20
71.897112766452778
 30
0.0
 11
-149.30000000000021
 21
71.897112766452778
 31
0.0
  0
ARC
  5
18BA5
  8
KI
 62
     7
 10
-150.8000000000001
 20
72.197112766452733
 30
0.0
 40
0.3
 50
180.0
 51
270.0
  0
LINE
  5
18BA6
  8
KI
 62
     7
 10
-178.60000000000019
 20
93.397112766452778
 30
0.0
 11
-160.3000000000001
 21
93.397112766452778
 31
0.0
  0
LINE
  5
18BA7
  8
KI
 62
     7
 10
-157.12548549900021
 20
85.797112766452756
 30
0.0
 11
-160.3000000000001
 21
85.797112766452756
 31
0.0
  0
LINE
  5
18BA8
  8
KI
 62
     7
 10
-145.87451450100019
 20
85.797112766452756
 30
0.0
 11
-145.87451450100019
 21
81.497112766452744
 31
0.0
  0
ARC
  5
18BA9
  8
KI
 62
     7
 10
-137.5000000000002
 20
82.297112766452756
 30
0.0
 40
0.5
 50
0.0
 51
90.0
  0
ARC
  5
18BAA
  8
KI
 62
     7
 10
-140.70000000000019
 20
80.297112766452756
 30
0.0
 40
1.0
 50
0.0
 51
90.0
  0
LINE
  5
18BAB
  8
KI
 62
     7
 10
-143.9000000000002
 20
80.097112766452753
 30
0.0
 11
-143.9000000000002
 21
81.297112766452756
 31
0.0
  0
ARC
  5
18BAC
  8
KI
 62
     7
 10
-144.2000000000003
 20
80.097112766452753
 30
0.0
 40
0.3
 50
270.0
 51
0.0
  0
LINE
  5
18BAD
  8
KI
 62
     7
 10
-144.60000000000011
 20
79.797112766452756
 30
0.0
 11
-144.2000000000003
 21
79.797112766452756
 31
0.0
  0
ARC
  5
18BAE
  8
KI
 62
     7
 10
-144.60000000000011
 20
80.097112766452753
 30
0.0
 40
0.3
 50
180.0
 51
270.0
  0
LINE
  5
18BAF
  8
KI
 62
     7
 10
-144.9000000000002
 20
82.497112766452744
 30
0.0
 11
-144.9000000000002
 21
80.097112766452753
 31
0.0
  0
ARC
  5
18BB0
  8
KI
 62
     7
 10
-144.60000000000011
 20
82.497112766452744
 30
0.0
 40
0.3
 50
90.0
 51
180.0
  0
LINE
  5
18BB1
  8
KI
 62
     7
 10
-140.70000000000019
 20
81.297112766452756
 30
0.0
 11
-143.9000000000002
 21
81.297112766452756
 31
0.0
  0
LINE
  5
18BB2
  8
KI
 62
     7
 10
-144.60000000000011
 20
82.797112766452756
 30
0.0
 11
-137.5000000000002
 21
82.797112766452756
 31
0.0
  0
LINE
  5
18BB3
  8
KI
 62
     7
 10
-145.87451450100019
 20
85.797112766452756
 30
0.0
 11
-142.70000000000019
 21
85.797112766452756
 31
0.0
  0
LINE
  5
18BB4
  8
KI
 62
     7
 10
-137.0000000000002
 20
83.297112766452756
 30
0.0
 11
-133.0000000000002
 21
83.297112766452756
 31
0.0
  0
LINE
  5
18BB7
  8
OS
 62
     2
 10
-215.0000000000002
 20
153.79711276645261
 30
0.0
 11
-320.00000000000023
 21
153.79711276645261
 31
0.0
  0
LINE
  5
18BBD
  8
KI
 62
     7
 10
-151.5000000000002
 20
98.297112766452756
 30
0.0
 11
-142.70000000000019
 21
98.297112766452756
 31
0.0
  0
LINE
  5
18BBE
  8
KI
 62
     7
 10
-151.5000000000002
 20
100.2971127664527
 30
0.0
 11
-147.5000000000002
 21
100.2971127664527
 31
0.0
  0
LINE
  5
18BBF
  8
KI
 62
     7
 10
-151.5000000000002
 20
99.297112766452756
 30
0.0
 11
-147.5000000000002
 21
99.297112766452756
 31
0.0
  0
LINE
  5
18BC0
  8
KI
 62
     7
 10
-147.8000000000001
 20
105.2971127664527
 30
0.0
 11
-151.5000000000002
 21
105.2971127664527
 31
0.0
  0
LINE
  5
18BC1
  8
KI
 62
     7
 10
-151.5000000000002
 20
96.297112766452756
 30
0.0
 11
-142.70000000000019
 21
96.297112766452756
 31
0.0
  0
LINE
  5
18BC2
  8
KI
 62
     7
 10
-178.5000000000002
 20
96.297112766452756
 30
0.0
 11
-160.3000000000001
 21
96.297112766452756
 31
0.0
  0
LINE
  5
18BC3
  8
KI
 62
     7
 10
-151.5000000000002
 20
100.2971127664527
 30
0.0
 11
-155.5000000000002
 21
100.2971127664527
 31
0.0
  0
LINE
  5
18BC4
  8
KI
 62
     7
 10
-151.5000000000002
 20
99.297112766452756
 30
0.0
 11
-155.5000000000002
 21
99.297112766452756
 31
0.0
  0
LINE
  5
18BC5
  8
KI
 62
     7
 10
-155.5000000000002
 20
104.9971127664527
 30
0.0
 11
-155.5000000000002
 21
98.297112766452756
 31
0.0
  0
LINE
  5
18BC6
  8
KI
 62
     7
 10
-155.20000000000019
 20
105.2971127664527
 30
0.0
 11
-151.5000000000002
 21
105.2971127664527
 31
0.0
  0
ARC
  5
18BC7
  8
KI
 62
     7
 10
-155.20000000000019
 20
104.9971127664527
 30
0.0
 40
0.3
 50
90.0
 51
180.0
  0
LINE
  5
18BC8
  8
KI
 62
     7
 10
-148.5000000000002
 20
105.2971127664527
 30
0.0
 11
-148.5000000000002
 21
101.2971127664527
 31
0.0
  0
LINE
  5
18BC9
  8
KI
 62
     7
 10
-149.0000000000002
 20
105.2971127664527
 30
0.0
 11
-149.0000000000002
 21
101.2971127664527
 31
0.0
  0
LINE
  5
18BCA
  8
KI
 62
     7
 10
-149.5000000000002
 20
105.2971127664527
 30
0.0
 11
-149.5000000000002
 21
101.2971127664527
 31
0.0
  0
LINE
  5
18BCB
  8
KI
 62
     7
 10
-150.0000000000002
 20
105.2971127664527
 30
0.0
 11
-150.0000000000002
 21
101.2971127664527
 31
0.0
  0
LINE
  5
18BCC
  8
KI
 62
     7
 10
-150.5000000000002
 20
105.2971127664527
 30
0.0
 11
-150.5000000000002
 21
101.2971127664527
 31
0.0
  0
LINE
  5
18BCD
  8
KI
 62
     7
 10
-151.0000000000002
 20
105.2971127664527
 30
0.0
 11
-151.0000000000002
 21
101.2971127664527
 31
0.0
  0
LINE
  5
18BCE
  8
KI
 62
     7
 10
-151.5000000000002
 20
105.2971127664527
 30
0.0
 11
-151.5000000000002
 21
101.2971127664527
 31
0.0
  0
LINE
  5
18BCF
  8
KI
 62
     7
 10
-152.0000000000002
 20
105.2971127664527
 30
0.0
 11
-152.0000000000002
 21
101.2971127664527
 31
0.0
  0
LINE
  5
18BD0
  8
KI
 62
     7
 10
-152.5000000000002
 20
105.2971127664527
 30
0.0
 11
-152.5000000000002
 21
101.2971127664527
 31
0.0
  0
LINE
  5
18BD1
  8
KI
 62
     7
 10
-153.0000000000002
 20
105.2971127664527
 30
0.0
 11
-153.0000000000002
 21
101.2971127664527
 31
0.0
  0
LINE
  5
18BD2
  8
KI
 62
     7
 10
-153.5000000000002
 20
105.2971127664527
 30
0.0
 11
-153.5000000000002
 21
101.2971127664527
 31
0.0
  0
LINE
  5
18BD3
  8
KI
 62
     7
 10
-154.0000000000002
 20
105.2971127664527
 30
0.0
 11
-154.0000000000002
 21
101.2971127664527
 31
0.0
  0
LINE
  5
18BD4
  8
KI
 62
     7
 10
-154.5000000000002
 20
105.2971127664527
 30
0.0
 11
-154.5000000000002
 21
101.2971127664527
 31
0.0
  0
LINE
  5
18BD5
  8
KI
 62
     7
 10
-155.0000000000002
 20
105.2971127664527
 30
0.0
 11
-155.0000000000002
 21
101.2971127664527
 31
0.0
  0
LINE
  5
18BD6
  8
KI
 62
     7
 10
-151.5000000000002
 20
98.297112766452756
 30
0.0
 11
-160.3000000000001
 21
98.297112766452756
 31
0.0
  0
LINE
  5
18BD7
  8
KI
 62
     7
 10
-151.5000000000002
 20
96.297112766452756
 30
0.0
 11
-160.3000000000001
 21
96.297112766452756
 31
0.0
  0
LINE
  5
18BD8
  8
KI
 62
     7
 10
-147.5000000000002
 20
104.9971127664527
 30
0.0
 11
-147.5000000000002
 21
98.297112766452756
 31
0.0
  0
ARC
  5
18BD9
  8
KI
 62
     7
 10
-147.8000000000001
 20
104.9971127664527
 30
0.0
 40
0.3
 50
0.0
 51
90.0
  0
LINE
  5
18BDA
  8
KI
 62
     7
 10
-148.0000000000002
 20
105.2971127664527
 30
0.0
 11
-148.0000000000002
 21
101.2971127664527
 31
0.0
  0
LINE
  5
18BDD
  8
OS
 62
     2
 10
136.3944087112952
 20
49.164040902757279
 30
0.0
 11
58.710842656309957
 21
49.164040902757279
 31
0.0
  0
LINE
  5
18BDE
  8
OS
 62
     2
 10
136.39440871129511
 20
82.664040902757165
 30
0.0
 11
58.71084265630985
 21
82.664040902757165
 31
0.0
  0
LINE
  5
18BDF
  8
OS
 62
     2
 10
136.39440871129511
 20
80.664040902757165
 30
0.0
 11
58.71084265630985
 21
80.664040902757165
 31
0.0
  0
LINE
  5
18BE0
  8
OS
 62
     2
 10
136.39440871129511
 20
72.164040902757165
 30
0.0
 11
58.71084265630985
 21
72.164040902757165
 31
0.0
  0
LINE
  5
18BE1
  8
OS
 62
     2
 10
136.39440871129511
 20
70.164040902757165
 30
0.0
 11
58.71084265630985
 21
70.164040902757165
 31
0.0
  0
LINE
  5
18BE2
  8
OS
 62
     2
 10
56.710842656309957
 20
49.164040902757279
 30
0.0
 11
8.5640578663187412
 21
49.164040902757279
 31
0.0
  0
LINE
  5
18BE3
  8
OS
 62
     2
 10
56.71084265630985
 20
82.664040902757165
 30
0.0
 11
8.5640578663187412
 21
82.664040902757165
 31
0.0
  0
LINE
  5
18BE4
  8
OS
 62
     2
 10
56.71084265630985
 20
80.664040902757165
 30
0.0
 11
8.5640578663187412
 21
80.664040902757165
 31
0.0
  0
LINE
  5
18BE5
  8
OS
 62
     2
 10
56.71084265630985
 20
70.164040902757165
 30
0.0
 11
8.5640578663187412
 21
70.164040902757165
 31
0.0
  0
LINE
  5
18BE6
  8
OS
 62
     2
 10
56.71084265630985
 20
72.164040902757165
 30
0.0
 11
8.5640578663187412
 21
72.164040902757165
 31
0.0
  0
LINE
  5
18BE8
  8
KI
 62
     7
 10
157.8944087112977
 20
97.164040902755971
 30
0.0
 11
136.3944087112977
 21
97.164040902756881
 31
0.0
  0
LINE
  5
18BE9
  8
KI
 62
     7
 10
157.8944087112977
 20
97.164040902755971
 30
0.0
 11
160.3944087112977
 21
94.664040902755971
 31
0.0
  0
LINE
  5
18BEB
  8
OS
 62
     2
 10
322.39440871129727
 20
82.664040902757165
 30
0.0
 11
400.07797476628252
 21
82.664040902757165
 31
0.0
  0
LINE
  5
18BEC
  8
OS
 62
     2
 10
322.39440871129727
 20
80.664040902757165
 30
0.0
 11
400.07797476628252
 21
80.664040902757165
 31
0.0
  0
LINE
  5
18BED
  8
OS
 62
     2
 10
322.39440871129727
 20
72.164040902757165
 30
0.0
 11
400.07797476628252
 21
72.164040902757165
 31
0.0
  0
LINE
  5
18BEE
  8
OS
 62
     2
 10
322.39440871129727
 20
70.164040902757165
 30
0.0
 11
400.07797476628252
 21
70.164040902757165
 31
0.0
  0
LINE
  5
18BEF
  8
OS
 62
     2
 10
322.39440871129722
 20
49.164040902757279
 30
0.0
 11
400.07797476628218
 21
49.164040902757279
 31
0.0
  0
LINE
  5
18BF0
  8
OS
 62
     2
 10
322.39440871129727
 20
56.974304036229682
 30
0.0
 11
295.39440871129727
 21
83.974304036229796
 31
0.0
  0
LINE
  5
18BF1
  8
OS
 62
     2
 10
322.39440871129727
 20
47.074809099617987
 30
0.0
 11
295.39440871129699
 21
74.074809099618278
 31
0.0
  0
LINE
  5
18BF2
  8
OS
 62
     2
 10
322.39440871129727
 20
37.175314163006419
 30
0.0
 11
295.39440871129688
 21
64.175314163006703
 31
0.0
  0
LINE
  5
18BF3
  8
OS
 62
     2
 10
322.39440871129727
 20
27.275819226394852
 30
0.0
 11
295.39440871129682
 21
54.275819226395242
 31
0.0
  0
LINE
  5
18BF4
  8
OS
 62
     2
 10
322.39440871129727
 20
17.376324289783099
 30
0.0
 11
295.39440871129659
 21
44.376324289783717
 31
0.0
  0
LINE
  5
18BF5
  8
OS
 62
     2
 10
322.39440871129727
 20
76.773293909453116
 30
0.0
 11
302.50366171799431
 21
96.664040902756028
 31
0.0
  0
LINE
  5
18BF6
  8
OS
 62
     2
 10
322.39440871129727
 20
66.873798972841314
 30
0.0
 11
295.39440871129727
 21
93.873798972841243
 31
0.0
  0
LINE
  5
18BF7
  8
KI
 62
     7
 10
297.89440871129727
 20
96.664040902755985
 30
0.0
 11
322.39440871129727
 21
96.664040902756994
 31
0.0
  0
LINE
  5
18BF8
  8
KI
 62
     7
 10
297.89440871129727
 20
96.664040902755985
 30
0.0
 11
295.39440871129727
 21
94.164040902755957
 31
0.0
  0
LINE
  5
18BF9
  8
OS
 62
     2
 10
322.39440871129727
 20
86.672788846064805
 30
0.0
 11
312.40315665460548
 21
96.664040902756597
 31
0.0
  0
LINE
  5
19899
  8
KI
 62
     7
 10
106.3944087112948
 20
-117.69609646589871
 30
0.0
 11
69.3944087112951
 21
-117.6960964658988
 31
0.0
  0
LINE
  5
1989A
  8
KI
 62
     7
 10
106.3944087112948
 20
-119.7359590972427
 30
0.0
 11
69.394408711295085
 21
-119.7359590972427
 31
0.0
  0
LINE
  5
19984
  8
OS
 62
     2
 10
-110.5000000000002
 20
-161.20288723538221
 30
0.0
 11
-397.00000000000068
 21
-161.20288723538221
 31
0.0
  0
LINE
  5
19985
  8
OS
 62
     2
 10
-110.5000000000002
 20
-158.20288723538221
 30
0.0
 11
-397.00000000000068
 21
-158.20288723538221
 31
0.0
  0
LINE
  5
19986
  8
OS
 62
     2
 10
-110.5000000000002
 20
-155.20288723538221
 30
0.0
 11
-397.00000000000068
 21
-155.20288723538221
 31
0.0
  0
LINE
  5
19987
  8
OS
 62
     2
 10
-110.5000000000002
 20
-164.20288723538221
 30
0.0
 11
-397.00000000000068
 21
-164.20288723538221
 31
0.0
  0
LINE
  5
19988
  8
OS
 62
     2
 10
-110.5000000000002
 20
-152.20288723538221
 30
0.0
 11
-397.00000000000068
 21
-152.20288723538221
 31
0.0
  0
LINE
  5
1A0C0
  8
KI
 62
     7
 10
136.3944085780312
 20
-111.58595909724259
 30
0.0
 11
69.394408578031189
 21
-111.58595909724259
 31
0.0
  0
LINE
  5
1A0C2
  8
KI
 62
     7
 10
136.39440871129511
 20
-122.9359590972426
 30
0.0
 11
117.8944087112948
 21
-122.9359590972426
 31
0.0
  0
LINE
  5
1A0C3
  8
KI
 62
     7
 10
136.3944085780312
 20
-131.08595909724261
 30
0.0
 11
69.394408578031189
 21
-131.08595909724261
 31
0.0
  0
LINE
  5
1A0C4
  8
KI
 62
     7
 10
136.39440864466309
 20
-131.58595909724261
 30
0.0
 11
69.394408644663145
 21
-131.58595909724261
 31
0.0
  0
LINE
  5
1A0C5
  8
KI
 62
     7
 10
136.39440871129511
 20
-124.9758217285866
 30
0.0
 11
117.8944087112948
 21
-124.9758217285866
 31
0.0
  0
LINE
  5
1A0C6
  8
KI
 62
     7
 10
106.3944087112948
 20
-122.9359590972426
 30
0.0
 11
69.394408711295085
 21
-122.9359590972426
 31
0.0
  0
LINE
  5
1A0C7
  8
KI
 62
     7
 10
106.3944087112948
 20
-124.9758217285865
 30
0.0
 11
69.3944087112951
 21
-124.9758217285865
 31
0.0
  0
LINE
  5
1A0C8
  8
KI
 62
     7
 10
302.39440871129523
 20
-138.0859590306107
 30
0.0
 11
69.3944087112951
 21
-138.0859590306107
 31
0.0
  0
LINE
  5
1A0C9
  8
KI
 62
     7
 10
69.3944087112951
 20
-141.33595910130501
 30
0.0
 11
302.39440871129523
 21
-141.33595910130501
 31
0.0
  0
LINE
  5
1A128
  8
KI
 62
     7
 10
295.39440871129352
 20
-97.835959097243773
 30
0.0
 11
297.89440871129352
 21
-100.3359590972437
 31
0.0
  0
LINE
  5
1A129
  8
KI
 62
     7
 10
302.39440871129523
 20
-99.835959097243503
 30
0.0
 11
304.89440871129523
 21
-97.335959097243503
 31
0.0
  0
LINE
  5
1A1B9
  8
KI
 62
     7
 10
322.3944087112971
 20
-97.335959097243119
 30
0.0
 11
304.89440871129511
 21
-97.335959097243517
 31
0.0
  0
ARC
  5
1B0CC
  8
KI
 62
     7
 10
-166.04289313485009
 20
-149.20296651179851
 30
0.0
 40
0.5
 50
90.000000000011383
 51
134.9999999999954
1001
GENIUS_GENOBJ-N-FIL_13
1002
{
1000
OWNER
1000
GEN
1002
}
1001
GENIUS_GENODEF_13
1002
{
1000
HIER
1070
     0
1002
}
1002
{
1000
MANEDIT
1070
     0
1002
}
1002
{
1000
NOSEL
1070
     0
1002
}
1002
{
1000
BEHIND
1070
     0
1002
}
1002
{
1000
OTHER
1070
     0
1002
}
1002
{
1000
REACTOR
1002
}
  0
LINE
  5
1B0CD
  8
KI
 62
     7
 10
-167.00000000000011
 20
-151.57428693932169
 30
0.0
 11
-165.7019029611439
 21
-150.27618990046551
 31
0.0
  0
LINE
  5
1B0CE
  8
KI
 62
     7
 10
-169.42677669529681
 20
-151.8797432910587
 30
0.0
 11
-166.39644652544339
 21
-148.8494131212052
 31
0.0
  0
LINE
  5
1B0CF
  8
KI
 62
     7
 10
-167.00000000000011
 20
-151.95296659576201
 30
0.0
 11
-167.00000000000011
 21
-151.57428693932169
 31
0.0
  0
ARC
  5
1B0D0
  8
KI
 62
     7
 10
-167.2500000000002
 20
-151.95296659576201
 30
0.0
 40
0.25
 50
270.00000000000978
 51
0.0
1001
GENIUS_GENOBJ-N-FIL_13
1002
{
1000
OWNER
1000
GEN
1002
}
1001
GENIUS_GENODEF_13
1002
{
1000
HIER
1070
     0
1002
}
1002
{
1000
MANEDIT
1070
     0
1002
}
1002
{
1000
NOSEL
1070
     0
1002
}
1002
{
1000
BEHIND
1070
     0
1002
}
1002
{
1000
OTHER
1070
     0
1002
}
1002
{
1000
REACTOR
1002
}
  0
LINE
  5
1B0D1
  8
KI
 62
     7
 10
-167.2500000000002
 20
-152.20296659576201
 30
0.0
 11
-169.5000000000002
 21
-152.20296659576201
 31
0.0
  0
ARC
  5
1B0D2
  8
KI
 62
     7
 10
-169.2500000000002
 20
-152.05651998635531
 30
0.0
 40
0.25
 50
135.0000000000023
 51
180.00000000001299
1001
GENIUS_GENOBJ-N-FIL_13
1002
{
1000
OWNER
1000
GEN
1002
}
1001
GENIUS_GENODEF_13
1002
{
1000
HIER
1070
     0
1002
}
1002
{
1000
MANEDIT
1070
     0
1002
}
1002
{
1000
NOSEL
1070
     0
1002
}
1002
{
1000
BEHIND
1070
     0
1002
}
1002
{
1000
OTHER
1070
     0
1002
}
1002
{
1000
REACTOR
1002
}
  0
LINE
  5
1B0D3
  8
KI
 62
     7
 10
-169.5000000000002
 20
-152.0565199863554
 30
0.0
 11
-169.5000000000002
 21
-152.20296659576209
 31
0.0
  0
ARC
  5
1B0D4
  8
KI
 62
     7
 10
-134.20000000000019
 20
-151.70296659576201
 30
0.0
 40
0.5
 50
269.99999999999841
 51
0.0
1001
GENIUS_GENODEF_13
1002
{
1000
HIER
1070
     0
1002
}
1002
{
1000
MANEDIT
1070
     0
1002
}
1002
{
1000
NOSEL
1070
     0
1002
}
1002
{
1000
BEHIND
1070
     0
1002
}
1002
{
1000
OTHER
1070
     0
1002
}
1002
{
1000
REACTOR
1002
}
1001
GENIUS_GENOBJ-N-FIL_13
1002
{
1000
OWNER
1000
GEN
1002
}
  0
LINE
  5
1B0D5
  8
KI
 62
     7
 10
-139.2500000000002
 20
-148.70296659576209
 30
0.0
 11
-132.95710686515019
 21
-148.70296651179851
 31
0.0
  0
LINE
  5
1B0D6
  8
KI
 62
     7
 10
-148.1500000000002
 20
-151.20296659576209
 30
0.0
 11
-150.85000000000019
 21
-151.20296659576209
 31
0.0
  0
LINE
  5
1B0D7
  8
KI
 62
     7
 10
-146.4000000000002
 20
-152.20296659576209
 30
0.0
 11
-152.60000000000019
 21
-152.20296659576209
 31
0.0
  0
LINE
  5
1B0D8
  8
KI
 62
     7
 10
-153.06820836312141
 20
-148.71148513918979
 30
0.0
 11
-151.28529523872459
 21
-149.18921527104681
 31
0.0
  0
LINE
  5
1B0D9
  8
KI
 62
     7
 10
-156.80000000000021
 20
-150.20296659576181
 30
0.0
 11
-164.30000000000021
 21
-150.20296659576181
 31
0.0
  0
LINE
  5
1B0DA
  8
KI
 62
     7
 10
-164.80000000000021
 20
-152.20296659576201
 30
0.0
 11
-163.80000000000021
 21
-152.20296659576201
 31
0.0
  0
ARC
  5
1B0DB
  8
KI
 62
     7
 10
-164.05000000000021
 20
-150.95296659576201
 30
0.0
 40
0.25
 50
180.00000000001299
 51
269.99999999998698
1001
GENIUS_GENODEF_13
1002
{
1000
HIER
1070
     0
1002
}
1002
{
1000
MANEDIT
1070
     0
1002
}
1002
{
1000
NOSEL
1070
     0
1002
}
1002
{
1000
BEHIND
1070
     0
1002
}
1002
{
1000
OTHER
1070
     0
1002
}
1002
{
1000
REACTOR
1002
}
1001
GENIUS_GENOBJ-N-FIL_13
1002
{
1000
OWNER
1000
GEN
1002
}
  0
LINE
  5
1B0DC
  8
KI
 62
     7
 10
-164.05000000000021
 20
-151.20296659576201
 30
0.0
 11
-163.80000000000021
 21
-151.20296659576201
 31
0.0
  0
ARC
  5
1B0DD
  8
KI
 62
     7
 10
-163.80000000000021
 20
-151.70296659576209
 30
0.0
 40
0.5
 50
0.0000000000065138
 51
90.000000000004874
1001
GENIUS_GENODEF_13
1002
{
1000
HIER
1070
     0
1002
}
1002
{
1000
MANEDIT
1070
     0
1002
}
1002
{
1000
NOSEL
1070
     0
1002
}
1002
{
1000
BEHIND
1070
     0
1002
}
1002
{
1000
OTHER
1070
     0
1002
}
1002
{
1000
REACTOR
1002
}
1001
GENIUS_GENOBJ-N-FIL_13
1002
{
1000
OWNER
1000
GEN
1002
}
  0
ARC
  5
1B0DE
  8
KI
 62
     7
 10
-163.80000000000021
 20
-151.70296659576201
 30
0.0
 40
0.5
 50
269.99999999999511
 51
359.99999999999352
1001
GENIUS_GENODEF_13
1002
{
1000
HIER
1070
     0
1002
}
1002
{
1000
MANEDIT
1070
     0
1002
}
1002
{
1000
NOSEL
1070
     0
1002
}
1002
{
1000
BEHIND
1070
     0
1002
}
1002
{
1000
OTHER
1070
     0
1002
}
1002
{
1000
REACTOR
1002
}
1001
GENIUS_GENOBJ-N-FIL_13
1002
{
1000
OWNER
1000
GEN
1002
}
  0
LINE
  5
1B0DF
  8
KI
 62
     7
 10
-165.30000000000021
 20
-150.20296659576181
 30
0.0
 11
-165.52512626584681
 21
-150.20296659576181
 31
0.0
  0
LINE
  5
1B0E0
  8
KI
 62
     7
 10
-164.30000000000021
 20
-150.95296659576201
 30
0.0
 11
-164.30000000000021
 21
-150.20296659576181
 31
0.0
  0
LINE
  5
1B0E1
  8
KI
 62
     7
 10
-165.30000000000021
 20
-151.70296659576201
 30
0.0
 11
-165.30000000000021
 21
-150.20296659576181
 31
0.0
  0
ARC
  5
1B0E2
  8
KI
 62
     7
 10
-164.80000000000021
 20
-151.70296659576201
 30
0.0
 40
0.5
 50
180.0
 51
270.00000000000171
1001
GENIUS_GENODEF_13
1002
{
1000
HIER
1070
     0
1002
}
1002
{
1000
MANEDIT
1070
     0
1002
}
1002
{
1000
NOSEL
1070
     0
1002
}
1002
{
1000
BEHIND
1070
     0
1002
}
1002
{
1000
OTHER
1070
     0
1002
}
1002
{
1000
REACTOR
1002
}
1001
GENIUS_GENOBJ-N-FIL_13
1002
{
1000
OWNER
1000
GEN
1002
}
  0
ARC
  5
1B0E3
  8
KI
 62
     7
 10
-165.52512626584701
 20
-150.45296659576181
 30
0.0
 40
0.25
 50
89.999999999964174
 51
135.0000000000253
1001
GENIUS_GENODEF_13
1002
{
1000
HIER
1070
     0
1002
}
1002
{
1000
MANEDIT
1070
     0
1002
}
1002
{
1000
NOSEL
1070
     0
1002
}
1002
{
1000
BEHIND
1070
     0
1002
}
1002
{
1000
OTHER
1070
     0
1002
}
1002
{
1000
REACTOR
1002
}
1001
GENIUS_GENOBJ-N-FIL_13
1002
{
1000
OWNER
1000
GEN
1002
}
  0
LINE
  5
1B0E4
  8
KI
 62
     7
 10
-156.55000000000021
 20
-152.20296659576201
 30
0.0
 11
-156.05000000000021
 21
-152.20296659576201
 31
0.0
  0
LINE
  5
1B0E5
  8
KI
 62
     7
 10
-155.80000000000021
 20
-151.95296659576201
 30
0.0
 11
-155.80000000000021
 21
-150.20296659576181
 31
0.0
  0
LINE
  5
1B0E6
  8
KI
 62
     7
 10
-153.35000000000019
 20
-150.20296659576181
 30
0.0
 11
-155.80000000000021
 21
-150.20296659576181
 31
0.0
  0
ARC
  5
1B0E7
  8
KI
 62
     7
 10
-156.05000000000021
 20
-151.95296659576201
 30
0.0
 40
0.25
 50
270.00000000000978
 51
359.99999999998698
1001
GENIUS_GENOBJ-N-FIL_13
1002
{
1000
OWNER
1000
GEN
1002
}
1001
GENIUS_GENODEF_13
1002
{
1000
HIER
1070
     0
1002
}
1002
{
1000
MANEDIT
1070
     0
1002
}
1002
{
1000
NOSEL
1070
     0
1002
}
1002
{
1000
BEHIND
1070
     0
1002
}
1002
{
1000
OTHER
1070
     0
1002
}
1002
{
1000
REACTOR
1002
}
  0
ARC
  5
1B0E8
  8
KI
 62
     7
 10
-152.60000000000019
 20
-151.70296659576209
 30
0.0
 40
0.5
 50
180.0
 51
269.99999999999841
1001
GENIUS_GENOBJ-N-FIL_13
1002
{
1000
OWNER
1000
GEN
1002
}
1001
GENIUS_GENODEF_13
1002
{
1000
HIER
1070
     0
1002
}
1002
{
1000
MANEDIT
1070
     0
1002
}
1002
{
1000
NOSEL
1070
     0
1002
}
1002
{
1000
BEHIND
1070
     0
1002
}
1002
{
1000
OTHER
1070
     0
1002
}
1002
{
1000
REACTOR
1002
}
  0
LINE
  5
1B0E9
  8
KI
 62
     7
 10
-153.10000000000019
 20
-150.45296659576181
 30
0.0
 11
-153.10000000000019
 21
-151.70296659576209
 31
0.0
  0
LINE
  5
1B0EA
  8
KI
 62
     7
 10
-151.10000000000019
 20
-149.43069672761911
 30
0.0
 11
-151.10000000000019
 21
-150.95296659576209
 31
0.0
  0
ARC
  5
1B0EB
  8
KI
 62
     7
 10
-150.85000000000019
 20
-150.95296659576209
 30
0.0
 40
0.25
 50
180.0
 51
269.99999999999022
1001
GENIUS_GENODEF_13
1002
{
1000
HIER
1070
     0
1002
}
1002
{
1000
MANEDIT
1070
     0
1002
}
1002
{
1000
NOSEL
1070
     0
1002
}
1002
{
1000
BEHIND
1070
     0
1002
}
1002
{
1000
OTHER
1070
     0
1002
}
1002
{
1000
REACTOR
1002
}
1001
GENIUS_GENOBJ-N-FIL_13
1002
{
1000
OWNER
1000
GEN
1002
}
  0
ARC
  5
1B0EC
  8
KI
 62
     7
 10
-153.35000000000019
 20
-150.45296659576189
 30
0.0
 40
0.25
 50
0.0000000000260551
 51
89.999999999986969
1001
GENIUS_GENOBJ-N-FIL_13
1002
{
1000
OWNER
1000
GEN
1002
}
1001
GENIUS_GENODEF_13
1002
{
1000
HIER
1070
     0
1002
}
1002
{
1000
MANEDIT
1070
     0
1002
}
1002
{
1000
NOSEL
1070
     0
1002
}
1002
{
1000
BEHIND
1070
     0
1002
}
1002
{
1000
OTHER
1070
     0
1002
}
1002
{
1000
REACTOR
1002
}
  0
ARC
  5
1B0ED
  8
KI
 62
     7
 10
-151.35000000000011
 20
-149.43069672761911
 30
0.0
 40
0.25
 50
0.0
 51
75.000000000020549
1001
GENIUS_GENOBJ-N-FIL_13
1002
{
1000
OWNER
1000
GEN
1002
}
1001
GENIUS_GENODEF_13
1002
{
1000
HIER
1070
     0
1002
}
1002
{
1000
MANEDIT
1070
     0
1002
}
1002
{
1000
NOSEL
1070
     0
1002
}
1002
{
1000
BEHIND
1070
     0
1002
}
1002
{
1000
OTHER
1070
     0
1002
}
1002
{
1000
REACTOR
1002
}
  0
LINE
  5
1B0EE
  8
KI
 62
     7
 10
-156.80000000000021
 20
-151.95296659576201
 30
0.0
 11
-156.80000000000021
 21
-150.20296659576181
 31
0.0
  0
ARC
  5
1B0EF
  8
KI
 62
     7
 10
-156.55000000000021
 20
-151.95296659576201
 30
0.0
 40
0.25
 50
180.0
 51
269.99999999999022
1001
GENIUS_GENOBJ-N-FIL_13
1002
{
1000
OWNER
1000
GEN
1002
}
1001
GENIUS_GENODEF_13
1002
{
1000
HIER
1070
     0
1002
}
1002
{
1000
MANEDIT
1070
     0
1002
}
1002
{
1000
NOSEL
1070
     0
1002
}
1002
{
1000
BEHIND
1070
     0
1002
}
1002
{
1000
OTHER
1070
     0
1002
}
1002
{
1000
REACTOR
1002
}
  0
LINE
  5
1B0F0
  8
KI
 62
     7
 10
-153.13291312439699
 20
-148.70296659576209
 30
0.0
 11
-159.2500000000002
 21
-148.70296659576209
 31
0.0
  0
LINE
  5
1B0F1
  8
KI
 62
     7
 10
-159.7500000000002
 20
-148.70296659576209
 30
0.0
 11
-166.0428931348502
 21
-148.70296651179851
 31
0.0
  0
LINE
  5
1B0F2
  8
KI
 62
     7
 10
-159.7500000000002
 20
-148.70296659576209
 30
0.0
 11
-159.5000000000002
 21
-148.95296659576209
 31
0.0
  0
LINE
  5
1B0F3
  8
KI
 62
     7
 10
-159.2500000000002
 20
-148.70296659576209
 30
0.0
 11
-159.5000000000002
 21
-148.95296659576209
 31
0.0
  0
ARC
  5
1B0F4
  8
KI
 62
     7
 10
-153.13291312439711
 20
-148.9529665957628
 30
0.0
 40
0.25
 50
75.000000000030823
 51
89.999999999986969
1001
GENIUS_GENOBJ-N-FIL_13
1002
{
1000
OWNER
1000
GEN
1002
}
1001
GENIUS_GENODEF_13
1002
{
1000
HIER
1070
     0
1002
}
1002
{
1000
MANEDIT
1070
     0
1002
}
1002
{
1000
NOSEL
1070
     0
1002
}
1002
{
1000
BEHIND
1070
     0
1002
}
1002
{
1000
OTHER
1070
     0
1002
}
1002
{
1000
REACTOR
1002
}
  0
LINE
  5
1B0F5
  8
KI
 62
     7
 10
-145.93179163687901
 20
-148.71148513918979
 30
0.0
 11
-147.71470476127581
 21
-149.18921527104681
 31
0.0
  0
ARC
  5
1B0F6
  8
KI
 62
     7
 10
-142.45000000000019
 20
-151.95296659576201
 30
0.0
 40
0.25
 50
270.00000000000978
 51
0.0
1001
GENIUS_GENOBJ-N-FIL_13
1002
{
1000
OWNER
1000
GEN
1002
}
1001
GENIUS_GENODEF_13
1002
{
1000
HIER
1070
     0
1002
}
1002
{
1000
MANEDIT
1070
     0
1002
}
1002
{
1000
NOSEL
1070
     0
1002
}
1002
{
1000
BEHIND
1070
     0
1002
}
1002
{
1000
OTHER
1070
     0
1002
}
1002
{
1000
REACTOR
1002
}
  0
LINE
  5
1B0F7
  8
KI
 62
     7
 10
-142.20000000000019
 20
-150.20296659576181
 30
0.0
 11
-134.70000000000019
 21
-150.20296659576181
 31
0.0
  0
LINE
  5
1B0F8
  8
KI
 62
     7
 10
-142.20000000000019
 20
-151.95296659576201
 30
0.0
 11
-142.20000000000019
 21
-150.20296659576181
 31
0.0
  0
LINE
  5
1B0F9
  8
KI
 62
     7
 10
-147.9000000000002
 20
-149.43069672761911
 30
0.0
 11
-147.9000000000002
 21
-150.95296659576209
 31
0.0
  0
LINE
  5
1B0FA
  8
KI
 62
     7
 10
-145.9000000000002
 20
-150.45296659576181
 30
0.0
 11
-145.9000000000002
 21
-151.70296659576209
 31
0.0
  0
ARC
  5
1B0FB
  8
KI
 62
     7
 10
-147.65000000000029
 20
-149.43069672761911
 30
0.0
 40
0.25
 50
104.99999999997939
 51
180.0
1001
GENIUS_GENOBJ-N-FIL_13
1002
{
1000
OWNER
1000
GEN
1002
}
1001
GENIUS_GENODEF_13
1002
{
1000
HIER
1070
     0
1002
}
1002
{
1000
MANEDIT
1070
     0
1002
}
1002
{
1000
NOSEL
1070
     0
1002
}
1002
{
1000
BEHIND
1070
     0
1002
}
1002
{
1000
OTHER
1070
     0
1002
}
1002
{
1000
REACTOR
1002
}
  0
ARC
  5
1B0FC
  8
KI
 62
     7
 10
-148.1500000000002
 20
-150.95296659576209
 30
0.0
 40
0.25
 50
270.00000000000978
 51
0.0
1001
GENIUS_GENODEF_13
1002
{
1000
HIER
1070
     0
1002
}
1002
{
1000
MANEDIT
1070
     0
1002
}
1002
{
1000
NOSEL
1070
     0
1002
}
1002
{
1000
BEHIND
1070
     0
1002
}
1002
{
1000
OTHER
1070
     0
1002
}
1002
{
1000
REACTOR
1002
}
1001
GENIUS_GENOBJ-N-FIL_13
1002
{
1000
OWNER
1000
GEN
1002
}
  0
LINE
  5
1B0FD
  8
KI
 62
     7
 10
-145.6500000000002
 20
-150.20296659576181
 30
0.0
 11
-143.20000000000019
 21
-150.20296659576181
 31
0.0
  0
ARC
  5
1B0FE
  8
KI
 62
     7
 10
-145.65000000000009
 20
-150.45296659576189
 30
0.0
 40
0.25
 50
90.000000000013031
 51
179.99999999997391
1001
GENIUS_GENOBJ-N-FIL_13
1002
{
1000
OWNER
1000
GEN
1002
}
1001
GENIUS_GENODEF_13
1002
{
1000
HIER
1070
     0
1002
}
1002
{
1000
MANEDIT
1070
     0
1002
}
1002
{
1000
NOSEL
1070
     0
1002
}
1002
{
1000
BEHIND
1070
     0
1002
}
1002
{
1000
OTHER
1070
     0
1002
}
1002
{
1000
REACTOR
1002
}
  0
ARC
  5
1B0FF
  8
KI
 62
     7
 10
-146.4000000000002
 20
-151.70296659576209
 30
0.0
 40
0.5
 50
270.00000000000171
 51
0.0
1001
GENIUS_GENOBJ-N-FIL_13
1002
{
1000
OWNER
1000
GEN
1002
}
1001
GENIUS_GENODEF_13
1002
{
1000
HIER
1070
     0
1002
}
1002
{
1000
MANEDIT
1070
     0
1002
}
1002
{
1000
NOSEL
1070
     0
1002
}
1002
{
1000
BEHIND
1070
     0
1002
}
1002
{
1000
OTHER
1070
     0
1002
}
1002
{
1000
REACTOR
1002
}
  0
LINE
  5
1B100
  8
KI
 62
     7
 10
-143.20000000000019
 20
-151.95296659576201
 30
0.0
 11
-143.20000000000019
 21
-150.20296659576181
 31
0.0
  0
ARC
  5
1B101
  8
KI
 62
     7
 10
-142.95000000000019
 20
-151.95296659576201
 30
0.0
 40
0.25
 50
180.00000000001299
 51
269.99999999999022
1001
GENIUS_GENOBJ-N-FIL_13
1002
{
1000
OWNER
1000
GEN
1002
}
1001
GENIUS_GENODEF_13
1002
{
1000
HIER
1070
     0
1002
}
1002
{
1000
MANEDIT
1070
     0
1002
}
1002
{
1000
NOSEL
1070
     0
1002
}
1002
{
1000
BEHIND
1070
     0
1002
}
1002
{
1000
OTHER
1070
     0
1002
}
1002
{
1000
REACTOR
1002
}
  0
LINE
  5
1B102
  8
KI
 62
     7
 10
-142.45000000000019
 20
-152.20296659576201
 30
0.0
 11
-142.95000000000019
 21
-152.20296659576201
 31
0.0
  0
LINE
  5
1B103
  8
KI
 62
     7
 10
-134.70000000000019
 20
-150.95296659576201
 30
0.0
 11
-134.70000000000019
 21
-150.20296659576181
 31
0.0
  0
LINE
  5
1B104
  8
KI
 62
     7
 10
-134.95000000000019
 20
-151.20296659576201
 30
0.0
 11
-135.20000000000019
 21
-151.20296659576201
 31
0.0
  0
ARC
  5
1B105
  8
KI
 62
     7
 10
-135.20000000000019
 20
-151.70296659576201
 30
0.0
 40
0.5
 50
180.00000000000651
 51
270.00000000000489
1001
GENIUS_GENODEF_13
1002
{
1000
HIER
1070
     0
1002
}
1002
{
1000
MANEDIT
1070
     0
1002
}
1002
{
1000
NOSEL
1070
     0
1002
}
1002
{
1000
BEHIND
1070
     0
1002
}
1002
{
1000
OTHER
1070
     0
1002
}
1002
{
1000
REACTOR
1002
}
1001
GENIUS_GENOBJ-N-FIL_13
1002
{
1000
OWNER
1000
GEN
1002
}
  0
ARC
  5
1B106
  8
KI
 62
     7
 10
-135.20000000000019
 20
-151.70296659576209
 30
0.0
 40
0.5
 50
89.999999999995111
 51
179.99999999999349
1001
GENIUS_GENODEF_13
1002
{
1000
HIER
1070
     0
1002
}
1002
{
1000
MANEDIT
1070
     0
1002
}
1002
{
1000
NOSEL
1070
     0
1002
}
1002
{
1000
BEHIND
1070
     0
1002
}
1002
{
1000
OTHER
1070
     0
1002
}
1002
{
1000
REACTOR
1002
}
1001
GENIUS_GENOBJ-N-FIL_13
1002
{
1000
OWNER
1000
GEN
1002
}
  0
LINE
  5
1B107
  8
KI
 62
     7
 10
-134.20000000000019
 20
-152.20296659576201
 30
0.0
 11
-135.20000000000019
 21
-152.20296659576201
 31
0.0
  0
ARC
  5
1B108
  8
KI
 62
     7
 10
-134.9500000000003
 20
-150.95296659576201
 30
0.0
 40
0.25
 50
270.00000000001302
 51
359.99999999998698
1001
GENIUS_GENODEF_13
1002
{
1000
HIER
1070
     0
1002
}
1002
{
1000
MANEDIT
1070
     0
1002
}
1002
{
1000
NOSEL
1070
     0
1002
}
1002
{
1000
BEHIND
1070
     0
1002
}
1002
{
1000
OTHER
1070
     0
1002
}
1002
{
1000
REACTOR
1002
}
1001
GENIUS_GENOBJ-N-FIL_13
1002
{
1000
OWNER
1000
GEN
1002
}
  0
LINE
  5
1B109
  8
KI
 62
     7
 10
-145.86708687560329
 20
-148.70296659576209
 30
0.0
 11
-139.7500000000002
 21
-148.70296659576209
 31
0.0
  0
ARC
  5
1B10A
  8
KI
 62
     7
 10
-145.86708687560329
 20
-148.9529665957628
 30
0.0
 40
0.25
 50
90.000000000013031
 51
104.99999999996911
1001
GENIUS_GENOBJ-N-FIL_13
1002
{
1000
OWNER
1000
GEN
1002
}
1001
GENIUS_GENODEF_13
1002
{
1000
HIER
1070
     0
1002
}
1002
{
1000
MANEDIT
1070
     0
1002
}
1002
{
1000
NOSEL
1070
     0
1002
}
1002
{
1000
BEHIND
1070
     0
1002
}
1002
{
1000
OTHER
1070
     0
1002
}
1002
{
1000
REACTOR
1002
}
  0
LINE
  5
1B10B
  8
KI
 62
     7
 10
-139.2500000000002
 20
-148.70296659576209
 30
0.0
 11
-139.5000000000002
 21
-148.95296659576209
 31
0.0
  0
LINE
  5
1B10C
  8
KI
 62
     7
 10
-139.7500000000002
 20
-148.70296659576209
 30
0.0
 11
-139.5000000000002
 21
-148.95296659576209
 31
0.0
  0
LINE
  5
1B10D
  8
KI
 62
     7
 10
-129.57322330470359
 20
-151.8797432910587
 30
0.0
 11
-132.603553474557
 21
-148.8494131212052
 31
0.0
  0
LINE
  5
1B10E
  8
KI
 62
     7
 10
-133.70000000000019
 20
-151.70296659576201
 30
0.0
 11
-133.70000000000019
 21
-150.20296659576181
 31
0.0
  0
LINE
  5
1B10F
  8
KI
 62
     7
 10
-133.70000000000019
 20
-150.20296659576181
 30
0.0
 11
-133.47487373415359
 21
-150.20296659576181
 31
0.0
  0
LINE
  5
1B110
  8
KI
 62
     7
 10
-129.5000000000002
 20
-152.0565199863554
 30
0.0
 11
-129.5000000000002
 21
-152.20296659576209
 31
0.0
  0
LINE
  5
1B111
  8
KI
 62
     7
 10
-132.00000000000031
 20
-151.57428693932169
 30
0.0
 11
-133.2980970388565
 21
-150.27618990046551
 31
0.0
  0
ARC
  5
1B112
  8
KI
 62
     7
 10
-129.7500000000002
 20
-152.05651998635531
 30
0.0
 40
0.25
 50
359.99999999998698
 51
44.999999999997691
1001
GENIUS_GENOBJ-N-FIL_13
1002
{
1000
OWNER
1000
GEN
1002
}
1001
GENIUS_GENODEF_13
1002
{
1000
HIER
1070
     0
1002
}
1002
{
1000
MANEDIT
1070
     0
1002
}
1002
{
1000
NOSEL
1070
     0
1002
}
1002
{
1000
BEHIND
1070
     0
1002
}
1002
{
1000
OTHER
1070
     0
1002
}
1002
{
1000
REACTOR
1002
}
  0
LINE
  5
1B113
  8
KI
 62
     7
 10
-132.00000000000031
 20
-151.95296659576201
 30
0.0
 11
-132.00000000000031
 21
-151.57428693932169
 31
0.0
  0
LINE
  5
1B114
  8
KI
 62
     7
 10
-131.7500000000002
 20
-152.20296659576201
 30
0.0
 11
-129.5000000000002
 21
-152.20296659576201
 31
0.0
  0
ARC
  5
1B115
  8
KI
 62
     7
 10
-131.7500000000002
 20
-151.95296659576201
 30
0.0
 40
0.25
 50
180.0
 51
269.99999999999022
1001
GENIUS_GENOBJ-N-FIL_13
1002
{
1000
OWNER
1000
GEN
1002
}
1001
GENIUS_GENODEF_13
1002
{
1000
HIER
1070
     0
1002
}
1002
{
1000
MANEDIT
1070
     0
1002
}
1002
{
1000
NOSEL
1070
     0
1002
}
1002
{
1000
BEHIND
1070
     0
1002
}
1002
{
1000
OTHER
1070
     0
1002
}
1002
{
1000
REACTOR
1002
}
  0
ARC
  5
1B116
  8
KI
 62
     7
 10
-133.47487373415339
 20
-150.45296659576181
 30
0.0
 40
0.25
 50
44.999999999974662
 51
90.000000000035826
1001
GENIUS_GENODEF_13
1002
{
1000
HIER
1070
     0
1002
}
1002
{
1000
MANEDIT
1070
     0
1002
}
1002
{
1000
NOSEL
1070
     0
1002
}
1002
{
1000
BEHIND
1070
     0
1002
}
1002
{
1000
OTHER
1070
     0
1002
}
1002
{
1000
REACTOR
1002
}
1001
GENIUS_GENOBJ-N-FIL_13
1002
{
1000
OWNER
1000
GEN
1002
}
  0
ARC
  5
1B117
  8
KI
 62
     7
 10
-132.95710686515031
 20
-149.20296651179851
 30
0.0
 40
0.5
 50
45.000000000004597
 51
89.999999999988617
1001
GENIUS_GENOBJ-N-FIL_13
1002
{
1000
OWNER
1000
GEN
1002
}
1001
GENIUS_GENODEF_13
1002
{
1000
HIER
1070
     0
1002
}
1002
{
1000
MANEDIT
1070
     0
1002
}
1002
{
1000
NOSEL
1070
     0
1002
}
1002
{
1000
BEHIND
1070
     0
1002
}
1002
{
1000
OTHER
1070
     0
1002
}
1002
{
1000
REACTOR
1002
}
  0
LINE
  5
1B11A
  8
OS
 62
     2
 10
-205.5000000000002
 20
51.297112766452749
 30
0.0
 11
-205.5000000000002
 21
111.2971127664527
 31
0.0
  0
LINE
  5
1B11B
  8
OS
 62
     2
 10
-181.5000000000004
 20
111.2971127664527
 30
0.0
 11
-205.5000000000002
 21
111.2971127664527
 31
0.0
  0
LINE
  5
1B11C
  8
OS
 62
     2
 10
-365.0000000000004
 20
43.242220540471124
 30
0.0
 11
-356.94510777401888
 21
51.297112766452699
 31
0.0
  0
LINE
  5
1B11D
  8
OS
 62
     2
 10
-365.00000000000011
 20
33.342725603859719
 30
0.0
 11
-347.04561283740719
 21
51.297112766452699
 31
0.0
  0
LINE
  5
1B11E
  8
OS
 62
     2
 10
-361.1461179007955
 20
27.297112766452699
 30
0.0
 11
-337.1461179007955
 21
51.297112766452699
 31
0.0
  0
LINE
  5
1B11F
  8
OS
 62
     2
 10
-351.24662296418393
 20
27.297112766452759
 30
0.0
 11
-327.24662296418393
 21
51.297112766452699
 31
0.0
  0
LINE
  5
1B120
  8
OS
 62
     2
 10
-341.34712802757218
 20
27.297112766452639
 30
0.0
 11
-317.34712802757218
 21
51.297112766452699
 31
0.0
  0
LINE
  5
1B121
  8
OS
 62
     2
 10
-331.44763309096049
 20
27.297112766452759
 30
0.0
 11
-307.44763309096049
 21
51.297112766452699
 31
0.0
  0
LINE
  5
1B122
  8
OS
 62
     2
 10
-321.54813815434892
 20
27.297112766452759
 30
0.0
 11
-297.54813815434881
 21
51.297112766452699
 31
0.0
  0
LINE
  5
1B123
  8
OS
 62
     2
 10
-311.64864321773712
 20
27.297112766452699
 30
0.0
 11
-287.64864321773717
 21
51.297112766452699
 31
0.0
  0
LINE
  5
1B124
  8
OS
 62
     2
 10
-301.74914828112537
 20
27.297112766452759
 30
0.0
 11
-277.74914828112549
 21
51.297112766452699
 31
0.0
  0
LINE
  5
1B125
  8
OS
 62
     2
 10
-291.8496533445138
 20
27.297112766452759
 30
0.0
 11
-267.84965334451391
 21
51.297112766452699
 31
0.0
  0
LINE
  5
1B126
  8
OS
 62
     2
 10
-281.95015840790211
 20
27.297112766452759
 30
0.0
 11
-257.95015840790222
 21
51.297112766452699
 31
0.0
  0
LINE
  5
1B127
  8
OS
 62
     2
 10
-272.05066347129042
 20
27.297112766452759
 30
0.0
 11
-248.05066347129051
 21
51.297112766452699
 31
0.0
  0
LINE
  5
1B128
  8
OS
 62
     2
 10
-262.1511685346789
 20
27.297112766452759
 30
0.0
 11
-238.1511685346789
 21
51.297112766452699
 31
0.0
  0
LINE
  5
1B129
  8
OS
 62
     2
 10
-252.2516735980671
 20
27.297112766452759
 30
0.0
 11
-228.25167359806721
 21
51.297112766452699
 31
0.0
  0
LINE
  5
1B12A
  8
OS
 62
     2
 10
-242.35217866145541
 20
27.297112766452699
 30
0.0
 11
-218.3521786614555
 21
51.297112766452699
 31
0.0
  0
LINE
  5
1B12B
  8
OS
 62
     2
 10
-232.45268372484381
 20
27.297112766452759
 30
0.0
 11
-208.45268372484381
 21
51.297112766452699
 31
0.0
  0
LINE
  5
1B12C
  8
OS
 62
     2
 10
-222.55318878823221
 20
27.297112766452759
 30
0.0
 11
-198.55318878823221
 21
51.297112766452749
 31
0.0
  0
LINE
  5
1B12D
  8
OS
 62
     2
 10
-212.6536938516204
 20
27.297112766452699
 30
0.0
 11
-188.6536938516204
 21
51.297112766452642
 31
0.0
  0
LINE
  5
1B12E
  8
OS
 62
     2
 10
-202.7541989150088
 20
27.297112766452759
 30
0.0
 11
-178.7541989150088
 21
51.297112766452813
 31
0.0
  0
LINE
  5
1B12F
  8
OS
 62
     2
 10
-192.8547039783972
 20
27.297112766452759
 30
0.0
 11
-174.0000000000002
 21
46.151816744849839
 31
0.0
  0
LINE
  5
1B130
  8
OS
 62
     2
 10
-182.95520904178539
 20
27.297112766452809
 30
0.0
 11
-173.9999999999996
 21
36.252321808238491
 31
0.0
  0
LINE
  5
1B131
  8
KI
 62
     7
 10
69.3944087112951
 20
-139.83595909724261
 30
0.0
 11
53.3944087112951
 21
-139.83595909724261
 31
0.0
  0
LINE
  5
1B132
  8
KI
 62
     7
 10
69.3944087112951
 20
-102.83595909724259
 30
0.0
 11
53.3944087112951
 21
-102.83595909724259
 31
0.0
  0
LINE
  5
1B133
  8
KI
 62
     7
 10
34.3944087112951
 20
-143.33595909724261
 30
0.0
 11
68.8944087112951
 21
-143.33595909724261
 31
0.0
  0
LINE
  5
1B134
  8
KI
 62
     7
 10
34.3944087112951
 20
-99.335959097242664
 30
0.0
 11
68.8944087112951
 21
-99.335959097242664
 31
0.0
  0
LINE
  5
1B135
  8
KI
 62
     7
 10
34.3944087112951
 20
-99.335959097242664
 30
0.0
 11
53.394408711292883
 21
-102.83595909724259
 31
0.0
  0
ARC
  5
1B136
  8
KI
 62
     7
 10
34.394408711295078
 20
-103.33595909724259
 30
0.0
 40
4.0
 50
90.0
 51
180.0
1001
GENIUS_GENODEF_13
1002
{
1000
HIER
1070
     0
1002
}
1002
{
1000
MANEDIT
1070
     0
1002
}
1002
{
1000
NOSEL
1070
     0
1002
}
1002
{
1000
BEHIND
1070
     0
1002
}
1002
{
1000
OTHER
1070
     0
1002
}
1002
{
1000
REACTOR
1002
}
1001
GENIUS_GENOBJ-N-FIL_13
1002
{
1000
OWNER
1000
GEN
1002
}
  0
LINE
  5
1B137
  8
KI
 62
     7
 10
55.3944087112951
 20
-143.33595909724261
 30
0.0
 11
55.3944087112951
 21
-99.335959097242664
 31
0.0
  0
ARC
  5
1B138
  8
KI
 62
     7
 10
37.8944087112951
 20
-133.33595909724261
 30
0.0
 40
4.0
 50
90.0
 51
270.0
  0
ARC
  5
1B139
  8
KI
 62
     7
 10
37.8944087112951
 20
-133.33595909724261
 30
0.0
 40
3.0
 50
90.0
 51
270.0
  0
LINE
  5
1B13A
  8
KI
 62
     7
 10
53.394408711296776
 20
-139.83595909724261
 30
0.0
 11
34.394408611295418
 21
-143.33595909724261
 31
0.0
  0
ARC
  5
1B13B
  8
KI
 62
     7
 10
37.8944087112951
 20
-109.33595909724259
 30
0.0
 40
3.0
 50
90.0
 51
270.0
  0
ARC
  5
1B13C
  8
KI
 62
     7
 10
37.8944087112951
 20
-109.33595909724259
 30
0.0
 40
4.0
 50
90.0
 51
270.0
  0
LINE
  5
1B13D
  8
KI
 62
     7
 10
30.3944087112951
 20
-103.33595909724259
 30
0.0
 11
30.3944087112951
 21
-139.33595909724261
 31
0.0
  0
ARC
  5
1B13E
  8
KI
 62
     7
 10
34.394408711295078
 20
-139.33595909724269
 30
0.0
 40
4.0
 50
179.99999999999841
 51
270.0
1001
GENIUS_GENODEF_13
1002
{
1000
HIER
1070
     0
1002
}
1002
{
1000
MANEDIT
1070
     0
1002
}
1002
{
1000
NOSEL
1070
     0
1002
}
1002
{
1000
BEHIND
1070
     0
1002
}
1002
{
1000
OTHER
1070
     0
1002
}
1002
{
1000
REACTOR
1002
}
1001
GENIUS_GENOBJ-N-FIL_13
1002
{
1000
OWNER
1000
GEN
1002
}
  0
LINE
  5
1B13F
  8
KI
 62
     7
 10
53.3944087112951
 20
-139.83595909724261
 30
0.0
 11
53.3944087112951
 21
-102.83595909724259
 31
0.0
  0
LINE
  5
1B140
  8
KI
 62
     7
 10
37.8944087112951
 20
-129.33595909724261
 30
0.0
 11
46.8944087112951
 21
-129.33595909724261
 31
0.0
  0
LINE
  5
1B141
  8
KI
 62
     7
 10
37.8944087112951
 20
-137.33595909724261
 30
0.0
 11
46.8944087112951
 21
-137.33595909724261
 31
0.0
  0
ARC
  5
1B142
  8
KI
 62
     7
 10
43.794408711295098
 20
-131.93595909724269
 30
0.0
 40
1.150000000000005
 50
180.0
 51
270.0
  0
CIRCLE
  5
1B143
  8
KI
 62
     7
 10
42.394408711295092
 20
-133.33595909724261
 30
0.0
 40
3.5
  0
ARC
  5
1B144
  8
KI
 62
     7
 10
43.794408711295098
 20
-134.73595909724261
 30
0.0
 40
1.149999999999999
 50
90.0
 51
180.0
  0
ARC
  5
1B145
  8
KI
 62
     7
 10
40.994408711295087
 20
-131.93595909724269
 30
0.0
 40
1.149999999999999
 50
270.0
 51
0.0
  0
LINE
  5
1B146
  8
KI
 62
     7
 10
40.394408711295092
 20
-133.08595909724261
 30
0.0
 11
40.994408711295087
 21
-133.08595909724261
 31
0.0
  0
LINE
  5
1B147
  8
KI
 62
     7
 10
40.394408711295092
 20
-133.58595909724261
 30
0.0
 11
40.394408711295092
 21
-133.08595909724261
 31
0.0
  0
LINE
  5
1B148
  8
KI
 62
     7
 10
40.994408711295087
 20
-133.58595909724261
 30
0.0
 11
40.394408711295092
 21
-133.58595909724261
 31
0.0
  0
LINE
  5
1B149
  8
KI
 62
     7
 10
42.1444087112951
 20
-131.33595909724261
 30
0.0
 11
42.1444087112951
 21
-131.93595909724269
 31
0.0
  0
LINE
  5
1B14A
  8
KI
 62
     7
 10
37.894408711295107
 20
-131.58595909724261
 30
0.0
 11
39.363319798049567
 21
-131.58595909724261
 31
0.0
  0
LINE
  5
1B14B
  8
KI
 62
     7
 10
37.8944087112951
 20
-130.33595909724261
 30
0.0
 11
40.591633073563102
 21
-130.33595909724261
 31
0.0
  0
LINE
  5
1B14C
  8
KI
 62
     7
 10
42.1444087112951
 20
-135.33595909724261
 30
0.0
 11
42.1444087112951
 21
-134.73595909724261
 31
0.0
  0
LINE
  5
1B14D
  8
KI
 62
     7
 10
37.8944087112951
 20
-136.33595909724261
 30
0.0
 11
40.591633073563102
 21
-136.33595909724261
 31
0.0
  0
LINE
  5
1B14E
  8
KI
 62
     7
 10
37.8944087112951
 20
-135.08595909724261
 30
0.0
 11
39.363319798049567
 21
-135.08595909724261
 31
0.0
  0
ARC
  5
1B14F
  8
KI
 62
     7
 10
40.994408711295087
 20
-134.73595909724261
 30
0.0
 40
1.150000000000005
 50
0.0
 51
90.0
  0
ARC
  5
1B150
  8
KI
 62
     7
 10
37.8944087112951
 20
-133.33595909724261
 30
0.0
 40
1.75
 50
90.0
 51
270.0
  0
LINE
  5
1B151
  8
KI
 62
     7
 10
42.6444087112951
 20
-131.93595909724269
 30
0.0
 11
42.6444087112951
 21
-131.33595909724261
 31
0.0
  0
LINE
  5
1B152
  8
KI
 62
     7
 10
42.6444087112951
 20
-134.73595909724261
 30
0.0
 11
42.6444087112951
 21
-135.33595909724261
 31
0.0
  0
LINE
  5
1B153
  8
KI
 62
     7
 10
42.6444087112951
 20
-135.33595909724261
 30
0.0
 11
42.1444087112951
 21
-135.33595909724261
 31
0.0
  0
LINE
  5
1B154
  8
KI
 62
     7
 10
42.6444087112951
 20
-131.33595909724261
 30
0.0
 11
42.1444087112951
 21
-131.33595909724261
 31
0.0
  0
LINE
  5
1B155
  8
KI
 62
     7
 10
44.3944087112951
 20
-133.08595909724261
 30
0.0
 11
43.794408711295098
 21
-133.08595909724261
 31
0.0
  0
LINE
  5
1B156
  8
KI
 62
     7
 10
44.3944087112951
 20
-133.58595909724261
 30
0.0
 11
44.3944087112951
 21
-133.08595909724261
 31
0.0
  0
LINE
  5
1B157
  8
KI
 62
     7
 10
43.794408711295098
 20
-133.58595909724261
 30
0.0
 11
44.3944087112951
 21
-133.58595909724261
 31
0.0
  0
LINE
  5
1B158
  8
KI
 62
     7
 10
45.425497624540633
 20
-131.58595909724261
 30
0.0
 11
46.894408711295107
 21
-131.58595909724261
 31
0.0
  0
LINE
  5
1B159
  8
KI
 62
     7
 10
44.19718434902709
 20
-130.33595909724261
 30
0.0
 11
46.8944087112951
 21
-130.33595909724261
 31
0.0
  0
LINE
  5
1B15A
  8
KI
 62
     7
 10
44.19718434902709
 20
-136.33595909724261
 30
0.0
 11
46.8944087112951
 21
-136.33595909724261
 31
0.0
  0
LINE
  5
1B15B
  8
KI
 62
     7
 10
45.425497624540633
 20
-135.08595909724261
 30
0.0
 11
46.8944087112951
 21
-135.08595909724261
 31
0.0
  0
ARC
  5
1B15C
  8
KI
 62
     7
 10
46.8944087112951
 20
-133.33595909724261
 30
0.0
 40
4.0
 50
270.0
 51
90.0
  0
ARC
  5
1B15D
  8
KI
 62
     7
 10
46.8944087112951
 20
-133.33595909724261
 30
0.0
 40
3.0
 50
270.0
 51
90.0
  0
ARC
  5
1B15E
  8
KI
 62
     7
 10
46.8944087112951
 20
-133.33595909724261
 30
0.0
 40
1.75
 50
270.0
 51
90.0
  0
CIRCLE
  5
1B15F
  8
KI
 62
     7
 10
42.394408711295092
 20
-121.33595909724259
 30
0.0
 40
3.5
  0
ARC
  5
1B160
  8
KI
 62
     7
 10
43.794408711295098
 20
-122.7359590972426
 30
0.0
 40
1.149999999999999
 50
90.0
 51
180.0
  0
ARC
  5
1B161
  8
KI
 62
     7
 10
43.794408711295098
 20
-119.9359590972427
 30
0.0
 40
1.150000000000005
 50
180.0
 51
270.0
  0
CIRCLE
  5
1B162
  8
KI
 62
     7
 10
42.394408711295092
 20
-121.33595909724259
 30
0.0
 40
4.0
  0
ARC
  5
1B163
  8
KI
 62
     7
 10
40.994408711295087
 20
-122.7359590972426
 30
0.0
 40
1.150000000000005
 50
0.0
 51
90.0
  0
LINE
  5
1B164
  8
KI
 62
     7
 10
42.1444087112951
 20
-123.33595909724259
 30
0.0
 11
42.1444087112951
 21
-122.7359590972426
 31
0.0
  0
LINE
  5
1B165
  8
KI
 62
     7
 10
42.6444087112951
 20
-122.7359590972426
 30
0.0
 11
42.6444087112951
 21
-123.33595909724259
 31
0.0
  0
LINE
  5
1B166
  8
KI
 62
     7
 10
42.6444087112951
 20
-123.33595909724259
 30
0.0
 11
42.1444087112951
 21
-123.33595909724259
 31
0.0
  0
ARC
  5
1B167
  8
KI
 62
     7
 10
40.994408711295087
 20
-119.9359590972427
 30
0.0
 40
1.149999999999999
 50
270.0
 51
0.0
  0
LINE
  5
1B168
  8
KI
 62
     7
 10
40.394408711295092
 20
-121.08595909724259
 30
0.0
 11
40.994408711295087
 21
-121.08595909724259
 31
0.0
  0
LINE
  5
1B169
  8
KI
 62
     7
 10
40.394408711295092
 20
-121.58595909724259
 30
0.0
 11
40.394408711295092
 21
-121.08595909724259
 31
0.0
  0
LINE
  5
1B16A
  8
KI
 62
     7
 10
40.994408711295087
 20
-121.58595909724259
 30
0.0
 11
40.394408711295092
 21
-121.58595909724259
 31
0.0
  0
LINE
  5
1B16B
  8
KI
 62
     7
 10
42.1444087112951
 20
-119.33595909724259
 30
0.0
 11
42.1444087112951
 21
-119.9359590972427
 31
0.0
  0
LINE
  5
1B16C
  8
KI
 62
     7
 10
42.6444087112951
 20
-119.9359590972427
 30
0.0
 11
42.6444087112951
 21
-119.33595909724259
 31
0.0
  0
LINE
  5
1B16D
  8
KI
 62
     7
 10
42.6444087112951
 20
-119.33595909724259
 30
0.0
 11
42.1444087112951
 21
-119.33595909724259
 31
0.0
  0
LINE
  5
1B16E
  8
KI
 62
     7
 10
44.3944087112951
 20
-121.08595909724259
 30
0.0
 11
43.794408711295098
 21
-121.08595909724259
 31
0.0
  0
LINE
  5
1B16F
  8
KI
 62
     7
 10
44.3944087112951
 20
-121.58595909724259
 30
0.0
 11
44.3944087112951
 21
-121.08595909724259
 31
0.0
  0
LINE
  5
1B170
  8
KI
 62
     7
 10
43.794408711295098
 20
-121.58595909724259
 30
0.0
 11
44.3944087112951
 21
-121.58595909724259
 31
0.0
  0
ARC
  5
1B171
  8
KI
 62
     7
 10
43.794408711295098
 20
-107.9359590972427
 30
0.0
 40
1.150000000000005
 50
180.0
 51
270.0
  0
ARC
  5
1B172
  8
KI
 62
     7
 10
43.794408711295098
 20
-110.7359590972426
 30
0.0
 40
1.149999999999999
 50
90.0
 51
180.0
  0
CIRCLE
  5
1B173
  8
KI
 62
     7
 10
42.394408711295092
 20
-109.33595909724259
 30
0.0
 40
3.5
  0
LINE
  5
1B174
  8
KI
 62
     7
 10
37.8944087112951
 20
-113.33595909724269
 30
0.0
 11
46.8944087112951
 21
-113.33595909724269
 31
0.0
  0
LINE
  5
1B175
  8
KI
 62
     7
 10
37.8944087112951
 20
-105.33595909724259
 30
0.0
 11
46.8944087112951
 21
-105.33595909724259
 31
0.0
  0
LINE
  5
1B176
  8
KI
 62
     7
 10
40.394408711295092
 20
-109.08595909724259
 30
0.0
 11
40.994408711295087
 21
-109.08595909724259
 31
0.0
  0
LINE
  5
1B177
  8
KI
 62
     7
 10
40.394408711295092
 20
-109.58595909724259
 30
0.0
 11
40.394408711295092
 21
-109.08595909724259
 31
0.0
  0
LINE
  5
1B178
  8
KI
 62
     7
 10
40.994408711295087
 20
-109.58595909724259
 30
0.0
 11
40.394408711295092
 21
-109.58595909724259
 31
0.0
  0
LINE
  5
1B179
  8
KI
 62
     7
 10
42.1444087112951
 20
-107.33595909724259
 30
0.0
 11
42.1444087112951
 21
-107.9359590972427
 31
0.0
  0
LINE
  5
1B17A
  8
KI
 62
     7
 10
42.6444087112951
 20
-107.33595909724259
 30
0.0
 11
42.1444087112951
 21
-107.33595909724259
 31
0.0
  0
LINE
  5
1B17B
  8
KI
 62
     7
 10
42.6444087112951
 20
-107.9359590972427
 30
0.0
 11
42.6444087112951
 21
-107.33595909724259
 31
0.0
  0
ARC
  5
1B17C
  8
KI
 62
     7
 10
40.994408711295087
 20
-107.9359590972427
 30
0.0
 40
1.149999999999999
 50
270.0
 51
0.0
  0
LINE
  5
1B17D
  8
KI
 62
     7
 10
42.1444087112951
 20
-111.33595909724259
 30
0.0
 11
42.1444087112951
 21
-110.7359590972426
 31
0.0
  0
LINE
  5
1B17E
  8
KI
 62
     7
 10
42.6444087112951
 20
-111.33595909724259
 30
0.0
 11
42.1444087112951
 21
-111.33595909724259
 31
0.0
  0
LINE
  5
1B17F
  8
KI
 62
     7
 10
42.6444087112951
 20
-110.7359590972426
 30
0.0
 11
42.6444087112951
 21
-111.33595909724259
 31
0.0
  0
ARC
  5
1B180
  8
KI
 62
     7
 10
40.994408711295087
 20
-110.7359590972426
 30
0.0
 40
1.150000000000005
 50
0.0
 51
90.0
  0
ARC
  5
1B181
  8
KI
 62
     7
 10
37.8944087112951
 20
-109.33595909724259
 30
0.0
 40
1.75
 50
90.0
 51
270.0
  0
LINE
  5
1B182
  8
KI
 62
     7
 10
37.894408711295107
 20
-107.58595909724259
 30
0.0
 11
39.363319798049567
 21
-107.58595909724259
 31
0.0
  0
LINE
  5
1B183
  8
KI
 62
     7
 10
37.8944087112951
 20
-106.33595909724259
 30
0.0
 11
40.591633073563102
 21
-106.33595909724259
 31
0.0
  0
LINE
  5
1B184
  8
KI
 62
     7
 10
37.8944087112951
 20
-111.08595909724259
 30
0.0
 11
39.363319798049567
 21
-111.08595909724259
 31
0.0
  0
LINE
  5
1B185
  8
KI
 62
     7
 10
37.8944087112951
 20
-112.33595909724259
 30
0.0
 11
40.591633073563102
 21
-112.33595909724259
 31
0.0
  0
LINE
  5
1B186
  8
KI
 62
     7
 10
44.19718434902709
 20
-106.33595909724259
 30
0.0
 11
46.8944087112951
 21
-106.33595909724259
 31
0.0
  0
LINE
  5
1B187
  8
KI
 62
     7
 10
45.425497624540633
 20
-107.58595909724259
 30
0.0
 11
46.894408711295107
 21
-107.58595909724259
 31
0.0
  0
LINE
  5
1B188
  8
KI
 62
     7
 10
45.425497624540633
 20
-111.08595909724259
 30
0.0
 11
46.8944087112951
 21
-111.08595909724259
 31
0.0
  0
LINE
  5
1B189
  8
KI
 62
     7
 10
44.19718434902709
 20
-112.33595909724259
 30
0.0
 11
46.8944087112951
 21
-112.33595909724259
 31
0.0
  0
LINE
  5
1B18A
  8
KI
 62
     7
 10
44.3944087112951
 20
-109.08595909724259
 30
0.0
 11
43.794408711295098
 21
-109.08595909724259
 31
0.0
  0
LINE
  5
1B18B
  8
KI
 62
     7
 10
44.3944087112951
 20
-109.58595909724259
 30
0.0
 11
44.3944087112951
 21
-109.08595909724259
 31
0.0
  0
LINE
  5
1B18C
  8
KI
 62
     7
 10
43.794408711295098
 20
-109.58595909724259
 30
0.0
 11
44.3944087112951
 21
-109.58595909724259
 31
0.0
  0
ARC
  5
1B18D
  8
KI
 62
     7
 10
46.8944087112951
 20
-109.33595909724259
 30
0.0
 40
1.75
 50
270.0
 51
90.0
  0
ARC
  5
1B18E
  8
KI
 62
     7
 10
46.8944087112951
 20
-109.33595909724259
 30
0.0
 40
3.0
 50
270.0
 51
90.0
  0
ARC
  5
1B18F
  8
KI
 62
     7
 10
46.8944087112951
 20
-109.33595909724259
 30
0.0
 40
4.0
 50
270.0
 51
90.0
  0
LINE
  5
1B190
  8
KI
 62
     7
 10
69.3944087112951
 20
-99.835959097242664
 30
0.0
 11
69.3944087112951
 21
-142.83595909724261
 31
0.0
  0
ARC
  5
1B191
  8
KI
 62
     7
 10
68.894408711295085
 20
-142.83595909724261
 30
0.0
 40
0.5
 50
270.00000000000171
 51
0.0
1001
GENIUS_GENODEF_13
1002
{
1000
HIER
1070
     0
1002
}
1002
{
1000
MANEDIT
1070
     0
1002
}
1002
{
1000
NOSEL
1070
     0
1002
}
1002
{
1000
BEHIND
1070
     0
1002
}
1002
{
1000
OTHER
1070
     0
1002
}
1002
{
1000
REACTOR
1002
}
1001
GENIUS_GENOBJ-N-FIL_13
1002
{
1000
OWNER
1000
GEN
1002
}
  0
ARC
  5
1B192
  8
KI
 62
     7
 10
68.894408711295071
 20
-99.835959097242664
 30
0.0
 40
0.5
 50
0.0
 51
89.999999999996746
1001
GENIUS_GENOBJ-N-FIL_13
1002
{
1000
OWNER
1000
GEN
1002
}
1001
GENIUS_GENODEF_13
1002
{
1000
HIER
1070
     0
1002
}
1002
{
1000
MANEDIT
1070
     0
1002
}
1002
{
1000
NOSEL
1070
     0
1002
}
1002
{
1000
BEHIND
1070
     0
1002
}
1002
{
1000
OTHER
1070
     0
1002
}
1002
{
1000
REACTOR
1002
}
  0
ARC
  5
1B193
  8
KI
  6
DASHED2
 62
     7
 10
-149.5000000000002
 20
-105.20288723538221
 30
0.0
 40
7.9999999999999982
 50
0.0
 51
180.0
  0
LINE
  5
1B194
  8
KI
  6
DASHED2
 62
     7
 10
-157.5000000000002
 20
-145.20288723538221
 30
0.0
 11
-157.5000000000002
 21
-105.20288723538221
 31
0.0
  0
LINE
  5
1B195
  8
KI
  6
DASHED2
 62
     7
 10
-141.5000000000002
 20
-145.20288723538221
 30
0.0
 11
-141.5000000000002
 21
-105.20288723538221
 31
0.0
  0
LINE
  5
1B196
  8
KI
 62
     7
 10
-153.5000000000002
 20
-146.43824775647539
 30
0.0
 11
-151.0000000000002
 21
-149.43824775647539
 31
0.0
  0
LINE
  5
1B197
  8
KI
 62
     7
 10
-151.0000000000002
 20
-149.43824775647539
 30
0.0
 11
-151.0000000000002
 21
-145.20288723538221
 31
0.0
  0
LINE
  5
1B198
  8
KI
 62
     7
 10
-145.5000000000002
 20
-146.43824775647539
 30
0.0
 11
-148.0000000000002
 21
-149.43824775647539
 31
0.0
  0
LINE
  5
1B199
  8
KI
 62
     7
 10
-148.0000000000002
 20
-149.43824775647539
 30
0.0
 11
-148.0000000000002
 21
-145.20288723538221
 31
0.0
  0
LINE
  5
1B19A
  8
KI
 62
     7
 10
-151.0000000000002
 20
-149.43824775647539
 30
0.0
 11
-149.5000000000002
 21
-149.43824775647539
 31
0.0
  0
LINE
  5
1B19B
  8
KI
 62
     7
 10
-148.0000000000002
 20
-149.43824775647539
 30
0.0
 11
-149.5000000000002
 21
-149.43824775647539
 31
0.0
  0
LINE
  5
1B19C
  8
KI
 62
     7
 10
-153.5000000000002
 20
-146.43824775647539
 30
0.0
 11
-153.5000000000002
 21
-145.20288723538221
 31
0.0
  0
LINE
  5
1B19D
  8
KI
 62
     7
 10
-145.5000000000002
 20
-146.43824775647539
 30
0.0
 11
-145.5000000000002
 21
-145.20288723538221
 31
0.0
  0
LINE
  5
1B19E
  8
OS
 62
     2
 10
136.39440871129759
 20
90.172788846069565
 30
0.0
 11
143.3856607679846
 21
97.164040902756597
 31
0.0
  0
LINE
  5
1B19F
  8
OS
 62
     2
 10
136.39440871129759
 20
80.273293909457834
 30
0.0
 11
153.28515570459581
 21
97.164040902756014
 31
0.0
  0
LINE
  5
1B1A0
  8
OS
 62
     2
 10
136.39440871129739
 20
70.373798972846075
 30
0.0
 11
160.39440871129781
 21
94.373798972846416
 31
0.0
  0
LINE
  5
1B1A1
  8
OS
 62
     2
 10
136.39440871129719
 20
60.474304036234223
 30
0.0
 11
160.39440871129759
 21
84.474304036234571
 31
0.0
  0
LINE
  5
1B1A2
  8
OS
 62
     2
 10
136.3944087112971
 20
50.574809099622371
 30
0.0
 11
160.3944087112975
 21
74.574809099622712
 31
0.0
  0
LINE
  5
1B1A3
  8
OS
 62
     2
 10
136.39440871129699
 20
40.675314163010619
 30
0.0
 11
160.39440871129719
 21
64.675314163010967
 31
0.0
  0
LINE
  5
1B1A4
  8
OS
 62
     2
 10
136.39440871129679
 20
30.77581922639877
 30
0.0
 11
160.3944087112971
 21
54.775819226399101
 31
0.0
  0
LINE
  5
1B1A5
  8
OS
 62
     2
 10
136.39440871129671
 20
20.876324289786911
 30
0.0
 11
160.39440871129699
 21
44.876324289787249
 31
0.0
  0
LINE
  5
1B1A6
  8
OS
 62
     2
 10
136.39440871129659
 20
10.976829353175271
 30
0.0
 11
160.39440871129699
 21
34.976829353175617
 31
0.0
  0
LINE
  5
1B1A7
  8
OS
 62
     2
 10
136.39440871129651
 20
1.0773344165634171
 30
0.0
 11
160.39440871129679
 21
25.077334416563762
 31
0.0
  0
LINE
  5
1B1A8
  8
OS
 62
     2
 10
136.39440871129631
 20
-8.8221605200484419
 30
0.0
 11
160.39440871129671
 21
15.177839479951899
 31
0.0
  0
LINE
  5
1B1A9
  8
OS
 62
     2
 10
136.39440871129619
 20
-18.721655456660191
 30
0.0
 11
160.39440871129651
 21
5.278344543340153
 31
0.0
  0
LINE
  5
1B1AA
  8
OS
 62
     2
 10
136.39440871129599
 20
-28.62115039327205
 30
0.0
 11
160.39440871129639
 21
-4.6211503932717051
 31
0.0
  0
LINE
  5
1B1AB
  8
OS
 62
     2
 10
136.39440871129599
 20
-38.520645329883678
 30
0.0
 11
160.39440871129639
 21
-14.52064532988333
 31
0.0
  0
LINE
  5
1B1AC
  8
OS
 62
     2
 10
136.3944087112958
 20
-48.420140266495537
 30
0.0
 11
160.39440871129599
 21
-24.420140266495309
 31
0.0
  0
LINE
  5
1B1AD
  8
OS
 62
     2
 10
136.39440871129571
 20
-58.319635203107403
 30
0.0
 11
160.39440871129599
 21
-34.319635203107062
 31
0.0
  0
LINE
  5
1B1AE
  8
OS
 62
     2
 10
136.39440871129551
 20
-68.219130139719141
 30
0.0
 11
160.3944087112958
 21
-44.2191301397188
 31
0.0
  0
LINE
  5
1B1AF
  8
OS
 62
     2
 10
136.39440871129531
 20
-78.118625076331
 30
0.0
 11
160.39440871129571
 21
-54.118625076330659
 31
0.0
  0
LINE
  5
1B1B0
  8
OS
 62
     2
 10
136.3944087112952
 20
-88.018120012942745
 30
0.0
 11
160.3944087112956
 21
-64.018120012942404
 31
0.0
  0
LINE
  5
1B1B1
  8
OS
 62
     2
 10
136.3944087112952
 20
-97.917614949554505
 30
0.0
 11
160.3944087112954
 21
-73.917614949554263
 31
0.0
  0
LINE
  5
1B1B2
  8
OS
 62
     2
 10
144.37555950021789
 20
-99.835959097243276
 30
0.0
 11
160.3944087112952
 21
-83.817109886166122
 31
0.0
  0
LINE
  5
1B1B3
  8
OS
 62
     2
 10
154.27505443682921
 20
-99.835959097243745
 30
0.0
 11
160.39440871129511
 21
-93.716604822777867
 31
0.0
  0
LINE
  5
1B1B4
  8
OS
 62
     2
 10
-205.5000000000002
 20
108.7852523345821
 30
0.0
 11
-202.98813956812961
 21
111.2971127664527
 31
0.0
1001
GENIUS_GENODEF_13
1002
{
1000
HIER
1070
     0
1002
}
1002
{
1000
MANEDIT
1070
     0
1002
}
1002
{
1000
NOSEL
1070
     0
1002
}
1002
{
1000
BEHIND
1070
     0
1002
}
1002
{
1000
OTHER
1070
     0
1002
}
1002
{
1000
REACTOR
1002
}
1001
GENIUS_GENOBJ-N-HTC_13
1002
{
1000
OWNER
1000
GEN
1002
}
1001
GENIUS_GENHATCH_13
1002
{
1000
DATA
1040
45.0
1042
2.5
1000
_U
1070
     0
1011
-193.24756410252689
1021
0.0
1031
0.0
1021
76.424339524876345
1031
0.0
1002
}
1002
{
1000
UCS
1010
0.0
1020
0.0
1030
0.0
1010
1.0
1020
0.0
1030
0.0
1010
0.0
1020
1.0
1030
0.0
1002
}
  0
LINE
  5
1B1B5
  8
OS
 62
     2
 10
-205.5000000000002
 20
101.71418452271659
 30
0.0
 11
-195.91707175626411
 21
111.2971127664527
 31
0.0
1001
GENIUS_GENODEF_13
1002
{
1000
HIER
1070
     0
1002
}
1002
{
1000
MANEDIT
1070
     0
1002
}
1002
{
1000
NOSEL
1070
     0
1002
}
1002
{
1000
BEHIND
1070
     0
1002
}
1002
{
1000
OTHER
1070
     0
1002
}
1002
{
1000
REACTOR
1002
}
1001
GENIUS_GENOBJ-N-HTC_13
1002
{
1000
OWNER
1000
GEN
1002
}
1001
GENIUS_GENHATCH_13
1002
{
1000
DATA
1040
45.0
1042
2.5
1000
_U
1070
     0
1011
-193.24756410252689
1021
0.0
1031
0.0
1021
76.424339524876345
1031
0.0
1002
}
1002
{
1000
UCS
1010
0.0
1020
0.0
1030
0.0
1010
1.0
1020
0.0
1030
0.0
1010
0.0
1020
1.0
1030
0.0
1002
}
  0
LINE
  5
1B1B6
  8
OS
 62
     2
 10
-205.50000000000011
 20
94.643116710851132
 30
0.0
 11
-188.8460039443986
 21
111.2971127664526
 31
0.0
1001
GENIUS_GENODEF_13
1002
{
1000
HIER
1070
     0
1002
}
1002
{
1000
MANEDIT
1070
     0
1002
}
1002
{
1000
NOSEL
1070
     0
1002
}
1002
{
1000
BEHIND
1070
     0
1002
}
1002
{
1000
OTHER
1070
     0
1002
}
1002
{
1000
REACTOR
1002
}
1001
GENIUS_GENOBJ-N-HTC_13
1002
{
1000
OWNER
1000
GEN
1002
}
1001
GENIUS_GENHATCH_13
1002
{
1000
DATA
1040
45.0
1042
2.5
1000
_U
1070
     0
1011
-193.24756410252689
1021
0.0
1031
0.0
1021
76.424339524876345
1031
0.0
1002
}
1002
{
1000
UCS
1010
0.0
1020
0.0
1030
0.0
1010
1.0
1020
0.0
1030
0.0
1010
0.0
1020
1.0
1030
0.0
1002
}
  0
LINE
  5
1B1B7
  8
OS
 62
     2
 10
-205.5000000000002
 20
87.572048898985585
 30
0.0
 11
-181.77493613253321
 21
111.2971127664525
 31
0.0
1001
GENIUS_GENODEF_13
1002
{
1000
HIER
1070
     0
1002
}
1002
{
1000
MANEDIT
1070
     0
1002
}
1002
{
1000
NOSEL
1070
     0
1002
}
1002
{
1000
BEHIND
1070
     0
1002
}
1002
{
1000
OTHER
1070
     0
1002
}
1002
{
1000
REACTOR
1002
}
1001
GENIUS_GENOBJ-N-HTC_13
1002
{
1000
OWNER
1000
GEN
1002
}
1001
GENIUS_GENHATCH_13
1002
{
1000
DATA
1040
45.0
1042
2.5
1000
_U
1070
     0
1011
-193.24756410252689
1021
0.0
1031
0.0
1021
76.424339524876345
1031
0.0
1002
}
1002
{
1000
UCS
1010
0.0
1020
0.0
1030
0.0
1010
1.0
1020
0.0
1030
0.0
1010
0.0
1020
1.0
1030
0.0
1002
}
  0
LINE
  5
1B1B8
  8
OS
 62
     2
 10
-205.5000000000002
 20
80.500981087120124
 30
0.0
 11
-181.50000000000031
 21
104.50098108712
 31
0.0
1001
GENIUS_GENODEF_13
1002
{
1000
HIER
1070
     0
1002
}
1002
{
1000
MANEDIT
1070
     0
1002
}
1002
{
1000
NOSEL
1070
     0
1002
}
1002
{
1000
BEHIND
1070
     0
1002
}
1002
{
1000
OTHER
1070
     0
1002
}
1002
{
1000
REACTOR
1002
}
1001
GENIUS_GENOBJ-N-HTC_13
1002
{
1000
OWNER
1000
GEN
1002
}
1001
GENIUS_GENHATCH_13
1002
{
1000
DATA
1040
45.0
1042
2.5
1000
_U
1070
     0
1011
-193.24756410252689
1021
0.0
1031
0.0
1021
76.424339524876345
1031
0.0
1002
}
1002
{
1000
UCS
1010
0.0
1020
0.0
1030
0.0
1010
1.0
1020
0.0
1030
0.0
1010
0.0
1020
1.0
1030
0.0
1002
}
  0
LINE
  5
1B1B9
  8
OS
 62
     2
 10
-205.5000000000002
 20
73.429913275254705
 30
0.0
 11
-181.5000000000002
 21
97.429913275254663
 31
0.0
1001
GENIUS_GENODEF_13
1002
{
1000
HIER
1070
     0
1002
}
1002
{
1000
MANEDIT
1070
     0
1002
}
1002
{
1000
NOSEL
1070
     0
1002
}
1002
{
1000
BEHIND
1070
     0
1002
}
1002
{
1000
OTHER
1070
     0
1002
}
1002
{
1000
REACTOR
1002
}
1001
GENIUS_GENOBJ-N-HTC_13
1002
{
1000
OWNER
1000
GEN
1002
}
1001
GENIUS_GENHATCH_13
1002
{
1000
DATA
1040
45.0
1042
2.5
1000
_U
1070
     0
1011
-193.24756410252689
1021
0.0
1031
0.0
1021
76.424339524876345
1031
0.0
1002
}
1002
{
1000
UCS
1010
0.0
1020
0.0
1030
0.0
1010
1.0
1020
0.0
1030
0.0
1010
0.0
1020
1.0
1030
0.0
1002
}
  0
LINE
  5
1B1BA
  8
OS
 62
     2
 10
-205.50000000000011
 20
66.35884546338923
 30
0.0
 11
-181.5000000000002
 21
90.358845463389116
 31
0.0
1001
GENIUS_GENODEF_13
1002
{
1000
HIER
1070
     0
1002
}
1002
{
1000
MANEDIT
1070
     0
1002
}
1002
{
1000
NOSEL
1070
     0
1002
}
1002
{
1000
BEHIND
1070
     0
1002
}
1002
{
1000
OTHER
1070
     0
1002
}
1002
{
1000
REACTOR
1002
}
1001
GENIUS_GENOBJ-N-HTC_13
1002
{
1000
OWNER
1000
GEN
1002
}
1001
GENIUS_GENHATCH_13
1002
{
1000
DATA
1040
45.0
1042
2.5
1000
_U
1070
     0
1011
-193.24756410252689
1021
0.0
1031
0.0
1021
76.424339524876345
1031
0.0
1002
}
1002
{
1000
UCS
1010
0.0
1020
0.0
1030
0.0
1010
1.0
1020
0.0
1030
0.0
1010
0.0
1020
1.0
1030
0.0
1002
}
  0
LINE
  5
1B1BB
  8
OS
 62
     2
 10
-205.5000000000002
 20
59.287777651523697
 30
0.0
 11
-181.5000000000002
 21
83.287777651523697
 31
0.0
1001
GENIUS_GENODEF_13
1002
{
1000
HIER
1070
     0
1002
}
1002
{
1000
MANEDIT
1070
     0
1002
}
1002
{
1000
NOSEL
1070
     0
1002
}
1002
{
1000
BEHIND
1070
     0
1002
}
1002
{
1000
OTHER
1070
     0
1002
}
1002
{
1000
REACTOR
1002
}
1001
GENIUS_GENOBJ-N-HTC_13
1002
{
1000
OWNER
1000
GEN
1002
}
1001
GENIUS_GENHATCH_13
1002
{
1000
DATA
1040
45.0
1042
2.5
1000
_U
1070
     0
1011
-193.24756410252689
1021
0.0
1031
0.0
1021
76.424339524876345
1031
0.0
1002
}
1002
{
1000
UCS
1010
0.0
1020
0.0
1030
0.0
1010
1.0
1020
0.0
1030
0.0
1010
0.0
1020
1.0
1030
0.0
1002
}
  0
LINE
  5
1B1BC
  8
OS
 62
     2
 10
-205.5000000000002
 20
52.216709839658328
 30
0.0
 11
-181.50000000000031
 21
76.216709839658222
 31
0.0
1001
GENIUS_GENODEF_13
1002
{
1000
HIER
1070
     0
1002
}
1002
{
1000
MANEDIT
1070
     0
1002
}
1002
{
1000
NOSEL
1070
     0
1002
}
1002
{
1000
BEHIND
1070
     0
1002
}
1002
{
1000
OTHER
1070
     0
1002
}
1002
{
1000
REACTOR
1002
}
1001
GENIUS_GENOBJ-N-HTC_13
1002
{
1000
OWNER
1000
GEN
1002
}
1001
GENIUS_GENHATCH_13
1002
{
1000
DATA
1040
45.0
1042
2.5
1000
_U
1070
     0
1011
-193.24756410252689
1021
0.0
1031
0.0
1021
76.424339524876345
1031
0.0
1002
}
1002
{
1000
UCS
1010
0.0
1020
0.0
1030
0.0
1010
1.0
1020
0.0
1030
0.0
1010
0.0
1020
1.0
1030
0.0
1002
}
  0
LINE
  5
1B1BD
  8
OS
 62
     2
 10
-199.3485292613403
 20
51.297112766452749
 30
0.0
 11
-181.50000000000011
 21
69.145642027792803
 31
0.0
1001
GENIUS_GENODEF_13
1002
{
1000
HIER
1070
     0
1002
}
1002
{
1000
MANEDIT
1070
     0
1002
}
1002
{
1000
NOSEL
1070
     0
1002
}
1002
{
1000
BEHIND
1070
     0
1002
}
1002
{
1000
OTHER
1070
     0
1002
}
1002
{
1000
REACTOR
1002
}
1001
GENIUS_GENOBJ-N-HTC_13
1002
{
1000
OWNER
1000
GEN
1002
}
1001
GENIUS_GENHATCH_13
1002
{
1000
DATA
1040
45.0
1042
2.5
1000
_U
1070
     0
1011
-193.24756410252689
1021
0.0
1031
0.0
1021
76.424339524876345
1031
0.0
1002
}
1002
{
1000
UCS
1010
0.0
1020
0.0
1030
0.0
1010
1.0
1020
0.0
1030
0.0
1010
0.0
1020
1.0
1030
0.0
1002
}
  0
LINE
  5
1B1BE
  8
OS
 62
     2
 10
-192.2774614494748
 20
51.297112766452642
 30
0.0
 11
-181.50000000000011
 21
62.074574215927321
 31
0.0
1001
GENIUS_GENODEF_13
1002
{
1000
HIER
1070
     0
1002
}
1002
{
1000
MANEDIT
1070
     0
1002
}
1002
{
1000
NOSEL
1070
     0
1002
}
1002
{
1000
BEHIND
1070
     0
1002
}
1002
{
1000
OTHER
1070
     0
1002
}
1002
{
1000
REACTOR
1002
}
1001
GENIUS_GENOBJ-N-HTC_13
1002
{
1000
OWNER
1000
GEN
1002
}
1001
GENIUS_GENHATCH_13
1002
{
1000
DATA
1040
45.0
1042
2.5
1000
_U
1070
     0
1011
-193.24756410252689
1021
0.0
1031
0.0
1021
76.424339524876345
1031
0.0
1002
}
1002
{
1000
UCS
1010
0.0
1020
0.0
1030
0.0
1010
1.0
1020
0.0
1030
0.0
1010
0.0
1020
1.0
1030
0.0
1002
}
  0
LINE
  5
1B1BF
  8
OS
 62
     2
 10
-185.20639363760941
 20
51.297112766452592
 30
0.0
 11
-181.50000000000011
 21
55.003506404061852
 31
0.0
1001
GENIUS_GENODEF_13
1002
{
1000
HIER
1070
     0
1002
}
1002
{
1000
MANEDIT
1070
     0
1002
}
1002
{
1000
NOSEL
1070
     0
1002
}
1002
{
1000
BEHIND
1070
     0
1002
}
1002
{
1000
OTHER
1070
     0
1002
}
1002
{
1000
REACTOR
1002
}
1001
GENIUS_GENOBJ-N-HTC_13
1002
{
1000
OWNER
1000
GEN
1002
}
1001
GENIUS_GENHATCH_13
1002
{
1000
DATA
1040
45.0
1042
2.5
1000
_U
1070
     0
1011
-193.24756410252689
1021
0.0
1031
0.0
1021
76.424339524876345
1031
0.0
1002
}
1002
{
1000
UCS
1010
0.0
1020
0.0
1030
0.0
1010
1.0
1020
0.0
1030
0.0
1010
0.0
1020
1.0
1030
0.0
1002
}
  0
LINE
  5
1DAD0
  8
SU
 62
     3
 10
-382.00000582248992
 20
41.29710858547935
 30
0.0
 11
-394.00000202248998
 21
41.29710858547935
 31
0.0
  0
LINE
  5
1DAD1
  8
SU
 62
     3
 10
-382.12000572248991
 20
41.497108385479343
 30
0.0
 11
-393.88000212249
 21
41.497108385479343
 31
0.0
  0
LINE
  5
1DAD2
  8
SU
 62
     3
 10
-382.24000562249
 20
41.697108185479351
 30
0.0
 11
-393.76000222249002
 21
41.697108185479351
 31
0.0
  0
LINE
  5
1DAD3
  8
SU
 62
     3
 10
-382.36000552248993
 20
41.897107985479352
 30
0.0
 11
-393.64000232248998
 21
41.897107985479352
 31
0.0
  0
LINE
  5
1DAD4
  8
SU
 62
     3
 10
-382.48000542249002
 20
42.097107785479352
 30
0.0
 11
-393.52000252249002
 21
42.097107785479352
 31
0.0
  0
LINE
  5
1DAD5
  8
SU
 62
     3
 10
-382.60000522248993
 20
42.297107585479353
 30
0.0
 11
-393.40000262248998
 21
42.297107585479353
 31
0.0
  0
LINE
  5
1DAD6
  8
SU
 62
     3
 10
-382.72000512249002
 20
42.497107485479347
 30
0.0
 11
-393.28000272248988
 21
42.497107485479347
 31
0.0
  0
LINE
  5
1DAD7
  8
SU
 62
     3
 10
-382.84000412248997
 20
42.697107285479341
 30
0.0
 11
-393.16000282249001
 21
42.697107285479341
 31
0.0
  0
LINE
  5
1DAD8
  8
SU
 62
     3
 10
-382.96000392248988
 20
42.897107085479348
 30
0.0
 11
-393.04000292248998
 21
42.897107085479348
 31
0.0
  0
LINE
  5
1DAD9
  8
SU
 62
     3
 10
-383.08000382249003
 20
43.097106885479349
 30
0.0
 11
-392.92000302248988
 21
43.097106885479349
 31
0.0
  0
LINE
  5
1DADA
  8
SU
 62
     3
 10
-383.20000372249001
 20
43.297106685479342
 30
0.0
 11
-392.80000312249001
 21
43.297106685479342
 31
0.0
  0
LINE
  5
1DADB
  8
SU
 62
     3
 10
-383.32000362248988
 20
43.49710648547935
 30
0.0
 11
-392.68000332248988
 21
43.49710648547935
 31
0.0
  0
LINE
  5
1DADC
  8
SU
 62
     3
 10
-383.44000352248997
 20
43.69710628547935
 30
0.0
 11
-392.56000342249001
 21
43.69710628547935
 31
0.0
  0
LINE
  5
1DADD
  8
SU
 62
     3
 10
-383.56000342249001
 20
43.897106085479351
 30
0.0
 11
-392.44000352248997
 21
43.897106085479351
 31
0.0
  0
LINE
  5
1DADE
  8
SU
 62
     3
 10
-383.80000312249001
 20
44.297105685479337
 30
0.0
 11
-392.20000372249001
 21
44.297105685479337
 31
0.0
  0
LINE
  5
1DADF
  8
SU
 62
     3
 10
-383.68000332248999
 20
44.097105885479351
 30
0.0
 11
-392.32000362248988
 21
44.097105885479351
 31
0.0
  0
LINE
  5
1DAE0
  8
SU
 62
     3
 10
-384.52000252249002
 20
45.497104585479342
 30
0.0
 11
-391.48000442249003
 21
45.497104585479342
 31
0.0
  0
LINE
  5
1DAE1
  8
SU
 62
     3
 10
-384.64000142248989
 20
45.697104385479349
 30
0.0
 11
-391.36000452248999
 21
45.697104385479349
 31
0.0
  0
LINE
  5
1DAE2
  8
SU
 62
     3
 10
-384.76000132248998
 20
45.89710418547935
 30
0.0
 11
-391.24000462249001
 21
45.89710418547935
 31
0.0
  0
LINE
  5
1DAE3
  8
SU
 62
     3
 10
-384.88000122249002
 20
46.097103985479343
 30
0.0
 11
-391.12000472249002
 21
46.097103985479343
 31
0.0
  0
LINE
  5
1DAE4
  8
SU
 62
     3
 10
-385.00000102248998
 20
46.297103785479351
 30
0.0
 11
-391.00000492249001
 21
46.297103785479351
 31
0.0
  0
LINE
  5
1DAE5
  8
SU
 62
     3
 10
-385.12000092249002
 20
46.497103585479351
 30
0.0
 11
-390.88000502249002
 21
46.497103585479351
 31
0.0
  0
LINE
  5
1DAE6
  8
SU
 62
     3
 10
-385.24000082249
 20
46.697103485479339
 30
0.0
 11
-390.76000512248987
 21
46.697103485479339
 31
0.0
  0
LINE
  5
1DAE7
  8
SU
 62
     3
 10
-385.36000072248999
 20
46.897103285479339
 30
0.0
 11
-390.64000522249
 21
46.897103285479339
 31
0.0
  0
LINE
  5
1DAE8
  8
SU
 62
     3
 10
-385.48000062249002
 20
47.097103085479347
 30
0.0
 11
-390.52000532249002
 21
47.097103085479347
 31
0.0
  0
LINE
  5
1DAE9
  8
SU
 62
     3
 10
-385.60000052248989
 20
47.29710288547934
 30
0.0
 11
-390.40000542248993
 21
47.29710288547934
 31
0.0
  0
LINE
  5
1DAEA
  8
SU
 62
     3
 10
-385.72000042248999
 20
47.497102685479348
 30
0.0
 11
-390.28000552249
 21
47.497102685479348
 31
0.0
  0
LINE
  5
1DAEB
  8
SU
 62
     3
 10
-385.83999932248997
 20
47.697102485479348
 30
0.0
 11
-390.16000572248993
 21
47.697102485479348
 31
0.0
  0
LINE
  5
1DAEC
  8
SU
 62
     3
 10
-385.95999922249001
 20
47.897102285479342
 30
0.0
 11
-390.04000582249
 21
47.897102285479342
 31
0.0
  0
LINE
  5
1DAED
  8
SU
 62
     3
 10
-386.07999912248999
 20
48.097102085479349
 30
0.0
 11
-389.92000592249002
 21
48.097102085479349
 31
0.0
  0
LINE
  5
1DAEE
  8
SU
 62
     3
 10
-386.19999892249001
 20
48.297101885479343
 30
0.0
 11
-389.80000602248992
 21
48.297101885479343
 31
0.0
  0
LINE
  5
1DAEF
  8
SU
 62
     3
 10
-386.31999882248999
 20
48.49710168547935
 30
0.0
 11
-389.68000612249
 21
48.49710168547935
 31
0.0
  0
LINE
  5
1DAF0
  8
SU
 62
     3
 10
-386.43999872248997
 20
48.697101485479351
 30
0.0
 11
-389.56000622249002
 21
48.697101485479351
 31
0.0
  0
LINE
  5
1DAF1
  8
SU
 62
     3
 10
-386.55999862249001
 20
48.897101385479338
 30
0.0
 11
-389.44000632248998
 21
48.897101385479338
 31
0.0
  0
LINE
  5
1DAF2
  8
SU
 62
     3
 10
-386.79999842248998
 20
49.297100985479346
 30
0.0
 11
-389.20000662248998
 21
49.297100985479346
 31
0.0
  0
LINE
  5
1DAF3
  8
SU
 62
     3
 10
-386.67999852249
 20
49.097101185479339
 30
0.0
 11
-389.32000652249002
 21
49.097101185479339
 31
0.0
  0
LINE
  5
1DAF4
  8
SU
 62
     3
 10
-386.91999832249002
 20
49.49710078547934
 30
0.0
 11
-389.08000672249
 21
49.49710078547934
 31
0.0
  0
LINE
  5
1DAF5
  8
SU
 62
     3
 10
-387.0399981724899
 20
49.697100585479348
 30
0.0
 11
-388.96000683249002
 21
49.697100585479348
 31
0.0
  0
LINE
  5
1DAF6
  8
SU
 62
     3
 10
-387.15999805248998
 20
49.897100385479348
 30
0.0
 11
-388.84000694248988
 21
49.897100385479348
 31
0.0
  0
LINE
  5
1DAF7
  8
SU
 62
     3
 10
-387.27999698248999
 20
50.097100185479341
 30
0.0
 11
-388.72000706249003
 21
50.097100185479341
 31
0.0
  0
LINE
  5
1DAF8
  8
SU
 62
     3
 10
-387.39999687249002
 20
50.297099985479349
 30
0.0
 11
-388.60000717249
 21
50.297099985479349
 31
0.0
  0
LINE
  5
1DAF9
  8
SU
 62
     3
 10
-387.63999950249001
 20
50.69709962547936
 30
0.0
 11
-388.36000740248988
 21
50.69709962547936
 31
0.0
  0
LINE
  5
1DAFA
  8
SU
 62
     3
 10
-387.51999676249
 20
50.497099815479338
 30
0.0
 11
-388.48000728249002
 21
50.497099815479338
 31
0.0
  0
LINE
  5
1DAFB
  8
SU
 62
     3
 10
-387.75999939248987
 20
50.897099425479347
 30
0.0
 11
-388.24000751249002
 21
50.897099425479347
 31
0.0
  0
LINE
  5
1DAFC
  8
SU
 62
     3
 10
-388.00000000000068
 20
51.297112766452841
 30
0.0
 11
-394.00000192249001
 21
41.297108985479348
 31
0.0
  0
LINE
  5
1DAFD
  8
SU
 62
     3
 10
-387.87999451248999
 20
51.097096375479339
 30
0.0
 11
-388.12000953248997
 21
51.09709637547936
 31
0.0
  0
LINE
  5
1DAFE
  8
SU
 62
     3
 10
-388.00000208429799
 20
51.297108765630178
 30
0.0
 11
-382.00000632248998
 21
41.297108685479337
 31
0.0
  0
LINE
  5
1DAFF
  8
SU
 62
     3
 10
-384.40000162248998
 20
45.297104785479348
 30
0.0
 11
-391.60000432249001
 21
45.297104785479348
 31
0.0
  0
LINE
  5
1DB00
  8
SU
 62
     3
 10
-384.28000172249
 20
45.097104985479341
 30
0.0
 11
-391.72000422248988
 21
45.097104985479341
 31
0.0
  0
LINE
  5
1DB01
  8
SU
 62
     3
 10
-384.16000282249001
 20
44.89710518547934
 30
0.0
 11
-391.84000412248997
 21
44.89710518547934
 31
0.0
  0
LINE
  5
1DB02
  8
SU
 62
     3
 10
-384.04000292248998
 20
44.697105385479347
 30
0.0
 11
-391.96000392248988
 21
44.697105385479347
 31
0.0
  0
LINE
  5
1DB03
  8
SU
 62
     3
 10
-383.92000302248988
 20
44.497105485479352
 30
0.0
 11
-392.08000382249003
 21
44.497105485479352
 31
0.0
  0
LINE
  5
1DB04
  8
SU
 62
     3
 10
-393.99999620000068
 20
-142.20288723538221
 30
0.0
 11
-382.00000000000068
 21
-142.20288723538221
 31
0.0
  0
LINE
  5
1DB05
  8
SU
 62
     3
 10
-393.8799963000007
 20
-142.40288703538221
 30
0.0
 11
-382.11999990000072
 21
-142.40288703538221
 31
0.0
  0
LINE
  5
1DB06
  8
SU
 62
     3
 10
-393.75999640000072
 20
-142.60288683538221
 30
0.0
 11
-382.23999980000059
 21
-142.60288683538221
 31
0.0
  0
LINE
  5
1DB07
  8
SU
 62
     3
 10
-393.63999650000068
 20
-142.80288663538221
 30
0.0
 11
-382.35999970000069
 21
-142.80288663538221
 31
0.0
  0
LINE
  5
1DB08
  8
SU
 62
     3
 10
-393.5199966000007
 20
-143.00288643538221
 30
0.0
 11
-382.47999950000059
 21
-143.00288643538221
 31
0.0
  0
LINE
  5
1DB09
  8
SU
 62
     3
 10
-393.39999680000068
 20
-143.20288623538221
 30
0.0
 11
-382.59999940000068
 21
-143.20288623538221
 31
0.0
  0
LINE
  5
1DB0A
  8
SU
 62
     3
 10
-393.2799969000007
 20
-143.4028861353822
 30
0.0
 11
-382.71999930000072
 21
-143.4028861353822
 31
0.0
  0
LINE
  5
1DB0B
  8
SU
 62
     3
 10
-393.15999790000069
 20
-143.6028859353822
 30
0.0
 11
-382.8399992000007
 21
-143.6028859353822
 31
0.0
  0
LINE
  5
1DB0C
  8
SU
 62
     3
 10
-393.03999810000067
 20
-143.8028857353822
 30
0.0
 11
-382.95999910000069
 21
-143.8028857353822
 31
0.0
  0
LINE
  5
1DB0D
  8
SU
 62
     3
 10
-392.91999820000069
 20
-144.00288553538221
 30
0.0
 11
-383.07999900000073
 21
-144.00288553538221
 31
0.0
  0
LINE
  5
1DB0E
  8
SU
 62
     3
 10
-392.7999983000006
 20
-144.20288533538221
 30
0.0
 11
-383.19999890000059
 21
-144.20288533538221
 31
0.0
  0
LINE
  5
1DB0F
  8
SU
 62
     3
 10
-392.67999840000073
 20
-144.40288513538221
 30
0.0
 11
-383.31999870000072
 21
-144.40288513538221
 31
0.0
  0
LINE
  5
1DB10
  8
SU
 62
     3
 10
-392.55999850000069
 20
-144.60288493538221
 30
0.0
 11
-383.43999860000059
 21
-144.60288493538221
 31
0.0
  0
LINE
  5
1DB11
  8
SU
 62
     3
 10
-392.43999860000071
 20
-144.80288473538221
 30
0.0
 11
-383.55999850000069
 21
-144.80288473538221
 31
0.0
  0
LINE
  5
1DB12
  8
SU
 62
     3
 10
-392.19999890000071
 20
-145.20288433538221
 30
0.0
 11
-383.79999830000071
 21
-145.20288433538221
 31
0.0
  0
LINE
  5
1DB13
  8
SU
 62
     3
 10
-392.31999870000072
 20
-145.00288453538221
 30
0.0
 11
-383.67999840000073
 21
-145.00288453538221
 31
0.0
  0
LINE
  5
1DB14
  8
SU
 62
     3
 10
-391.4799995000007
 20
-146.40288323538221
 30
0.0
 11
-384.51999760000069
 21
-146.40288323538221
 31
0.0
  0
LINE
  5
1DB15
  8
SU
 62
     3
 10
-391.36000060000072
 20
-146.60288303538221
 30
0.0
 11
-384.63999750000067
 21
-146.60288303538221
 31
0.0
  0
LINE
  5
1DB16
  8
SU
 62
     3
 10
-391.24000070000068
 20
-146.80288283538221
 30
0.0
 11
-384.7599974000006
 21
-146.80288283538221
 31
0.0
  0
LINE
  5
1DB17
  8
SU
 62
     3
 10
-391.12000080000058
 20
-147.00288263538221
 30
0.0
 11
-384.8799973000007
 21
-147.00288263538221
 31
0.0
  0
LINE
  5
1DB18
  8
SU
 62
     3
 10
-391.00000100000068
 20
-147.20288243538221
 30
0.0
 11
-384.99999710000071
 21
-147.20288243538221
 31
0.0
  0
LINE
  5
1DB19
  8
SU
 62
     3
 10
-390.8800011000007
 20
-147.40288223538221
 30
0.0
 11
-385.11999700000069
 21
-147.40288223538221
 31
0.0
  0
LINE
  5
1DB1A
  8
SU
 62
     3
 10
-390.76000120000072
 20
-147.6028821353822
 30
0.0
 11
-385.23999690000068
 21
-147.6028821353822
 31
0.0
  0
LINE
  5
1DB1B
  8
SU
 62
     3
 10
-390.64000130000068
 20
-147.8028819353822
 30
0.0
 11
-385.35999680000072
 21
-147.8028819353822
 31
0.0
  0
LINE
  5
1DB1C
  8
SU
 62
     3
 10
-390.52000140000058
 20
-148.0028817353822
 30
0.0
 11
-385.4799967000007
 21
-148.0028817353822
 31
0.0
  0
LINE
  5
1DB1D
  8
SU
 62
     3
 10
-390.40000150000071
 20
-148.2028815353822
 30
0.0
 11
-385.59999660000068
 21
-148.2028815353822
 31
0.0
  0
LINE
  5
1DB1E
  8
SU
 62
     3
 10
-390.28000160000067
 20
-148.4028813353822
 30
0.0
 11
-385.7199965000006
 21
-148.4028813353822
 31
0.0
  0
LINE
  5
1DB1F
  8
SU
 62
     3
 10
-390.16000270000058
 20
-148.60288113538221
 30
0.0
 11
-385.83999630000079
 21
-148.60288113538221
 31
0.0
  0
LINE
  5
1DB20
  8
SU
 62
     3
 10
-390.04000280000071
 20
-148.80288093538221
 30
0.0
 11
-385.9599962000006
 21
-148.80288093538221
 31
0.0
  0
LINE
  5
1DB21
  8
SU
 62
     3
 10
-389.92000290000072
 20
-149.00288073538221
 30
0.0
 11
-386.0799961000007
 21
-149.00288073538221
 31
0.0
  0
LINE
  5
1DB22
  8
SU
 62
     3
 10
-389.80000310000071
 20
-149.20288053538221
 30
0.0
 11
-386.19999600000068
 21
-149.20288053538221
 31
0.0
  0
LINE
  5
1DB23
  8
SU
 62
     3
 10
-389.68000320000073
 20
-149.40288033538221
 30
0.0
 11
-386.31999590000072
 21
-149.40288033538221
 31
0.0
  0
LINE
  5
1DB24
  8
SU
 62
     3
 10
-389.56000330000057
 20
-149.60288013538221
 30
0.0
 11
-386.4399958000007
 21
-149.60288013538221
 31
0.0
  0
LINE
  5
1DB25
  8
SU
 62
     3
 10
-389.44000340000071
 20
-149.8028800353822
 30
0.0
 11
-386.55999570000063
 21
-149.8028800353822
 31
0.0
  0
LINE
  5
1DB26
  8
SU
 62
     3
 10
-389.20000360000063
 20
-150.2028796353822
 30
0.0
 11
-386.79999540000063
 21
-150.2028796353822
 31
0.0
  0
LINE
  5
1DB27
  8
SU
 62
     3
 10
-389.32000350000072
 20
-150.0028798353822
 30
0.0
 11
-386.6799955000007
 21
-150.0028798353822
 31
0.0
  0
LINE
  5
1DB28
  8
SU
 62
     3
 10
-389.0800037000007
 20
-150.4028794353822
 30
0.0
 11
-386.91999530000061
 21
-150.4028794353822
 31
0.0
  0
LINE
  5
1DB29
  8
SU
 62
     3
 10
-388.9600038500007
 20
-150.6028792353822
 30
0.0
 11
-387.0399951900007
 21
-150.6028792353822
 31
0.0
  0
LINE
  5
1DB2A
  8
SU
 62
     3
 10
-388.84000397000068
 20
-150.8028790353822
 30
0.0
 11
-387.15999508000073
 21
-150.8028790353822
 31
0.0
  0
LINE
  5
1DB2B
  8
SU
 62
     3
 10
-388.72000504000067
 20
-151.00287883538221
 30
0.0
 11
-387.27999496000058
 21
-151.00287883538221
 31
0.0
  0
LINE
  5
1DB2C
  8
SU
 62
     3
 10
-388.6000051500007
 20
-151.20287863538221
 30
0.0
 11
-387.39999485000072
 21
-151.20287863538221
 31
0.0
  0
LINE
  5
1DB2D
  8
SU
 62
     3
 10
-388.36000252000059
 20
-151.60287827538221
 30
0.0
 11
-387.63999462000072
 21
-151.60287827538221
 31
0.0
  0
LINE
  5
1DB2E
  8
SU
 62
     3
 10
-388.48000526000072
 20
-151.4028784653822
 30
0.0
 11
-387.5199947400007
 21
-151.4028784653822
 31
0.0
  0
LINE
  5
1DB2F
  8
SU
 62
     3
 10
-388.24000263000079
 20
-151.80287807538221
 30
0.0
 11
-387.75999451000058
 21
-151.80287807538221
 31
0.0
  0
LINE
  5
1DB30
  8
SU
 62
     3
 10
-388.00000202248998
 20
-152.2028914163557
 30
0.0
 11
-382.0000001000007
 21
-142.20288763538221
 31
0.0
  0
LINE
  5
1DB31
  8
SU
 62
     3
 10
-388.12000751000068
 20
-152.0028750253822
 30
0.0
 11
-387.87999249000057
 21
-152.0028750253822
 31
0.0
  0
LINE
  5
1DB32
  8
SU
 62
     3
 10
-387.99999993819267
 20
-152.20288741553301
 30
0.0
 11
-393.99999570000068
 21
-142.2028873353822
 31
0.0
  0
LINE
  5
1DB33
  8
SU
 62
     3
 10
-391.60000040000068
 20
-146.2028834353822
 30
0.0
 11
-384.39999770000071
 21
-146.2028834353822
 31
0.0
  0
LINE
  5
1DB34
  8
SU
 62
     3
 10
-391.72000030000072
 20
-146.0028836353822
 30
0.0
 11
-384.27999780000067
 21
-146.0028836353822
 31
0.0
  0
LINE
  5
1DB35
  8
SU
 62
     3
 10
-391.83999920000059
 20
-145.8028838353822
 30
0.0
 11
-384.15999790000069
 21
-145.8028838353822
 31
0.0
  0
LINE
  5
1DB36
  8
SU
 62
     3
 10
-391.95999910000069
 20
-145.6028840353822
 30
0.0
 11
-384.03999810000079
 21
-145.6028840353822
 31
0.0
  0
LINE
  5
1DB37
  8
SU
 62
     3
 10
-392.07999900000073
 20
-145.40288413538221
 30
0.0
 11
-383.91999820000069
 21
-145.40288413538221
 31
0.0
  0
LINE
  5
1DB38
  8
SU
 62
     3
 10
-73.999994177511098
 20
-142.20288305440869
 30
0.0
 11
-61.999997977511043
 21
-142.20288305440869
 31
0.0
  0
LINE
  5
1DB39
  8
SU
 62
     3
 10
-73.879994277511059
 20
-142.40288285440869
 30
0.0
 11
-62.119997877511082
 21
-142.40288285440869
 31
0.0
  0
LINE
  5
1DB3A
  8
SU
 62
     3
 10
-73.759994377511021
 20
-142.60288265440869
 30
0.0
 11
-62.239997777511
 21
-142.60288265440869
 31
0.0
  0
LINE
  5
1DB3B
  8
SU
 62
     3
 10
-73.639994477511095
 20
-142.80288245440869
 30
0.0
 11
-62.359997677511039
 21
-142.80288245440869
 31
0.0
  0
LINE
  5
1DB3C
  8
SU
 62
     3
 10
-73.519994577511056
 20
-143.00288225440869
 30
0.0
 11
-62.479997477511013
 21
-143.00288225440869
 31
0.0
  0
LINE
  5
1DB3D
  8
SU
 62
     3
 10
-73.399994777511097
 20
-143.20288205440869
 30
0.0
 11
-62.599997377511052
 21
-143.20288205440869
 31
0.0
  0
LINE
  5
1DB3E
  8
SU
 62
     3
 10
-73.279994877511058
 20
-143.40288195440871
 30
0.0
 11
-62.719997277511077
 21
-143.40288195440871
 31
0.0
  0
LINE
  5
1DB3F
  8
SU
 62
     3
 10
-73.159995877511051
 20
-143.60288175440871
 30
0.0
 11
-62.839997177511002
 21
-143.60288175440871
 31
0.0
  0
LINE
  5
1DB40
  8
SU
 62
     3
 10
-73.039996077511091
 20
-143.80288155440871
 30
0.0
 11
-62.959997077511041
 21
-143.80288155440871
 31
0.0
  0
LINE
  5
1DB41
  8
SU
 62
     3
 10
-72.919996177511052
 20
-144.00288135440869
 30
0.0
 11
-63.079996977511087
 21
-144.00288135440869
 31
0.0
  0
LINE
  5
1DB42
  8
SU
 62
     3
 10
-72.799996277511013
 20
-144.20288115440869
 30
0.0
 11
-63.199996877511012
 21
-144.20288115440869
 31
0.0
  0
LINE
  5
1DB43
  8
SU
 62
     3
 10
-72.679996377511088
 20
-144.40288095440869
 30
0.0
 11
-63.319996677511092
 21
-144.40288095440869
 31
0.0
  0
LINE
  5
1DB44
  8
SU
 62
     3
 10
-72.559996477511049
 20
-144.6028807544086
 30
0.0
 11
-63.43999657751101
 21
-144.6028807544086
 31
0.0
  0
LINE
  5
1DB45
  8
SU
 62
     3
 10
-72.43999657751101
 20
-144.80288055440869
 30
0.0
 11
-63.559996477511042
 21
-144.80288055440869
 31
0.0
  0
LINE
  5
1DB46
  8
SU
 62
     3
 10
-72.199996877511012
 20
-145.20288015440869
 30
0.0
 11
-63.799996277511013
 21
-145.20288015440869
 31
0.0
  0
LINE
  5
1DB47
  8
SU
 62
     3
 10
-72.319996677511085
 20
-145.00288035440869
 30
0.0
 11
-63.679996377511081
 21
-145.00288035440869
 31
0.0
  0
LINE
  5
1DB48
  8
SU
 62
     3
 10
-71.479997477511006
 20
-146.40287905440869
 30
0.0
 11
-64.519995577511054
 21
-146.40287905440869
 31
0.0
  0
LINE
  5
1DB49
  8
SU
 62
     3
 10
-71.359998577511078
 20
-146.60287885440869
 30
0.0
 11
-64.639995477511093
 21
-146.60287885440869
 31
0.0
  0
LINE
  5
1DB4A
  8
SU
 62
     3
 10
-71.239998677511039
 20
-146.80287865440869
 30
0.0
 11
-64.759995377511018
 21
-146.80287865440869
 31
0.0
  0
LINE
  5
1DB4B
  8
SU
 62
     3
 10
-71.119998777511
 20
-147.00287845440869
 30
0.0
 11
-64.879995277511057
 21
-147.00287845440869
 31
0.0
  0
LINE
  5
1DB4C
  8
SU
 62
     3
 10
-70.999998977511041
 20
-147.20287825440869
 30
0.0
 11
-64.999995077511016
 21
-147.20287825440869
 31
0.0
  0
LINE
  5
1DB4D
  8
SU
 62
     3
 10
-70.879999077511002
 20
-147.4028780544086
 30
0.0
 11
-65.119994977511055
 21
-147.4028780544086
 31
0.0
  0
LINE
  5
1DB4E
  8
SU
 62
     3
 10
-70.759999177511077
 20
-147.60287795440871
 30
0.0
 11
-65.239994877511094
 21
-147.60287795440871
 31
0.0
  0
LINE
  5
1DB4F
  8
SU
 62
     3
 10
-70.639999277511038
 20
-147.80287775440871
 30
0.0
 11
-65.359994777511019
 21
-147.80287775440871
 31
0.0
  0
LINE
  5
1DB50
  8
SU
 62
     3
 10
-70.519999377510999
 20
-148.00287755440871
 30
0.0
 11
-65.479994677511058
 21
-148.00287755440871
 31
0.0
  0
LINE
  5
1DB51
  8
SU
 62
     3
 10
-70.399999477511074
 20
-148.20287735440871
 30
0.0
 11
-65.599994577511097
 21
-148.20287735440871
 31
0.0
  0
LINE
  5
1DB52
  8
SU
 62
     3
 10
-70.279999577511035
 20
-148.40287715440871
 30
0.0
 11
-65.719994477511023
 21
-148.40287715440871
 31
0.0
  0
LINE
  5
1DB53
  8
SU
 62
     3
 10
-70.160000677510993
 20
-148.60287695440871
 30
0.0
 11
-65.839994277511096
 21
-148.60287695440871
 31
0.0
  0
LINE
  5
1DB54
  8
SU
 62
     3
 10
-70.040000777511068
 20
-148.80287675440869
 30
0.0
 11
-65.959994177511021
 21
-148.80287675440869
 31
0.0
  0
LINE
  5
1DB55
  8
SU
 62
     3
 10
-69.920000877511029
 20
-149.00287655440869
 30
0.0
 11
-66.07999407751106
 21
-149.00287655440869
 31
0.0
  0
LINE
  5
1DB56
  8
SU
 62
     3
 10
-69.80000107751107
 20
-149.20287635440869
 30
0.0
 11
-66.199993977511099
 21
-149.20287635440869
 31
0.0
  0
LINE
  5
1DB57
  8
SU
 62
     3
 10
-69.680001177511031
 20
-149.40287615440869
 30
0.0
 11
-66.319993877511024
 21
-149.40287615440869
 31
0.0
  0
LINE
  5
1DB58
  8
SU
 62
     3
 10
-69.560001277510992
 20
-149.60287595440869
 30
0.0
 11
-66.439993777511063
 21
-149.60287595440869
 31
0.0
  0
LINE
  5
1DB59
  8
SU
 62
     3
 10
-69.440001377511066
 20
-149.8028758544086
 30
0.0
 11
-66.559993677510988
 21
-149.8028758544086
 31
0.0
  0
LINE
  5
1DB5A
  8
SU
 62
     3
 10
-69.200001577510989
 20
-150.20287545440871
 30
0.0
 11
-66.799993377510987
 21
-150.20287545440871
 31
0.0
  0
LINE
  5
1DB5B
  8
SU
 62
     3
 10
-69.320001477511028
 20
-150.00287565440871
 30
0.0
 11
-66.679993477511061
 21
-150.00287565440871
 31
0.0
  0
LINE
  5
1DB5C
  8
SU
 62
     3
 10
-69.080001677511063
 20
-150.40287525440871
 30
0.0
 11
-66.919993277511026
 21
-150.40287525440871
 31
0.0
  0
LINE
  5
1DB5D
  8
SU
 62
     3
 10
-68.960001827511064
 20
-150.60287505440871
 30
0.0
 11
-67.039993167511057
 21
-150.60287505440871
 31
0.0
  0
LINE
  5
1DB5E
  8
SU
 62
     3
 10
-68.840001947511041
 20
-150.80287485440871
 30
0.0
 11
-67.159993057511073
 21
-150.80287485440871
 31
0.0
  0
LINE
  5
1DB5F
  8
SU
 62
     3
 10
-68.72000301751109
 20
-151.00287465440871
 30
0.0
 11
-67.279992937510997
 21
-151.00287465440871
 31
0.0
  0
LINE
  5
1DB60
  8
SU
 62
     3
 10
-68.600003127511059
 20
-151.20287445440869
 30
0.0
 11
-67.399992827511028
 21
-151.20287445440869
 31
0.0
  0
LINE
  5
1DB61
  8
SU
 62
     3
 10
-68.36000049751101
 20
-151.60287409440869
 30
0.0
 11
-67.639992597511082
 21
-151.60287409440869
 31
0.0
  0
LINE
  5
1DB62
  8
SU
 62
     3
 10
-68.480003237511028
 20
-151.40287428440871
 30
0.0
 11
-67.519992717511059
 21
-151.40287428440871
 31
0.0
  0
LINE
  5
1DB63
  8
SU
 62
     3
 10
-68.240000607511092
 20
-151.80287389440869
 30
0.0
 11
-67.759992487510999
 21
-151.80287389440869
 31
0.0
  0
LINE
  5
1DB64
  8
SU
 62
     3
 10
-68.000000000000341
 20
-152.20288723538209
 30
0.0
 11
-61.999998077511009
 21
-142.20288345440869
 31
0.0
  0
LINE
  5
1DB65
  8
SU
 62
     3
 10
-68.120005487511094
 20
-152.0028708444087
 30
0.0
 11
-67.879990467510993
 21
-152.0028708444087
 31
0.0
  0
LINE
  5
1DB66
  8
SU
 62
     3
 10
-67.999997915703034
 20
-152.20288323455949
 30
0.0
 11
-73.999993677511043
 21
-142.2028831544086
 31
0.0
  0
LINE
  5
1DB67
  8
SU
 62
     3
 10
-71.599998377511042
 20
-146.20287925440871
 30
0.0
 11
-64.399995677511015
 21
-146.20287925440871
 31
0.0
  0
LINE
  5
1DB68
  8
SU
 62
     3
 10
-71.719998277511081
 20
-146.00287945440871
 30
0.0
 11
-64.279995777511076
 21
-146.00287945440871
 31
0.0
  0
LINE
  5
1DB69
  8
SU
 62
     3
 10
-71.839997177511009
 20
-145.80287965440871
 30
0.0
 11
-64.159995877511051
 21
-145.80287965440871
 31
0.0
  0
LINE
  5
1DB6A
  8
SU
 62
     3
 10
-71.959997077511048
 20
-145.60287985440871
 30
0.0
 11
-64.039996077511091
 21
-145.60287985440871
 31
0.0
  0
LINE
  5
1DB6B
  8
SU
 62
     3
 10
-72.079996977511087
 20
-145.40287995440869
 30
0.0
 11
-63.919996177511052
 21
-145.40287995440869
 31
0.0
  0
LINE
  5
1DB6C
  8
SU
 62
     3
 10
-62.000001777510988
 20
73.297116945591824
 30
0.0
 11
-73.999997977511043
 21
73.297116945591824
 31
0.0
  0
LINE
  5
1DB6D
  8
SU
 62
     3
 10
-62.120001677511027
 20
73.497116745591825
 30
0.0
 11
-73.879998077511004
 21
73.497116745591825
 31
0.0
  0
LINE
  5
1DB6E
  8
SU
 62
     3
 10
-62.240001577511059
 20
73.697116545591825
 30
0.0
 11
-73.759998177511065
 21
73.697116545591825
 31
0.0
  0
LINE
  5
1DB6F
  8
SU
 62
     3
 10
-62.360001477510991
 20
73.897116345591826
 30
0.0
 11
-73.63999827751104
 21
73.897116345591826
 31
0.0
  0
LINE
  5
1DB70
  8
SU
 62
     3
 10
-62.48000137751103
 20
74.097116145591826
 30
0.0
 11
-73.519998477511081
 21
74.097116145591826
 31
0.0
  0
LINE
  5
1DB71
  8
SU
 62
     3
 10
-62.60000117751099
 20
74.297115945591827
 30
0.0
 11
-73.399998577511042
 21
74.297115945591827
 31
0.0
  0
LINE
  5
1DB72
  8
SU
 62
     3
 10
-62.720001077511029
 20
74.497115845591821
 30
0.0
 11
-73.279998677511003
 21
74.497115845591821
 31
0.0
  0
LINE
  5
1DB73
  8
SU
 62
     3
 10
-62.840000077511029
 20
74.697115645591822
 30
0.0
 11
-73.159998777511063
 21
74.697115645591822
 31
0.0
  0
LINE
  5
1DB74
  8
SU
 62
     3
 10
-62.959999877510988
 20
74.897115445591822
 30
0.0
 11
-73.039998877511024
 21
74.897115445591822
 31
0.0
  0
LINE
  5
1DB75
  8
SU
 62
     3
 10
-63.079999777511027
 20
75.097115245591823
 30
0.0
 11
-72.919998977511
 21
75.097115245591823
 31
0.0
  0
LINE
  5
1DB76
  8
SU
 62
     3
 10
-63.199999677511073
 20
75.297115045591823
 30
0.0
 11
-72.799999077511075
 21
75.297115045591823
 31
0.0
  0
LINE
  5
1DB77
  8
SU
 62
     3
 10
-63.319999577510998
 20
75.497114845591824
 30
0.0
 11
-72.679999277511001
 21
75.497114845591824
 31
0.0
  0
LINE
  5
1DB78
  8
SU
 62
     3
 10
-63.439999477511037
 20
75.697114645591824
 30
0.0
 11
-72.559999377511076
 21
75.697114645591824
 31
0.0
  0
LINE
  5
1DB79
  8
SU
 62
     3
 10
-63.559999377511069
 20
75.897114445591825
 30
0.0
 11
-72.439999477511023
 21
75.897114445591825
 31
0.0
  0
LINE
  5
1DB7A
  8
SU
 62
     3
 10
-63.799999077511067
 20
76.297114045591826
 30
0.0
 11
-72.199999677511073
 21
76.297114045591826
 31
0.0
  0
LINE
  5
1DB7B
  8
SU
 62
     3
 10
-63.679999277511001
 20
76.097114245591825
 30
0.0
 11
-72.319999577510984
 21
76.097114245591825
 31
0.0
  0
LINE
  5
1DB7C
  8
SU
 62
     3
 10
-64.519998477511081
 20
77.497112945591823
 30
0.0
 11
-71.480000377511033
 21
77.497112945591823
 31
0.0
  0
LINE
  5
1DB7D
  8
SU
 62
     3
 10
-64.639997377511008
 20
77.697112745591824
 30
0.0
 11
-71.360000477510994
 21
77.697112745591824
 31
0.0
  0
LINE
  5
1DB7E
  8
SU
 62
     3
 10
-64.759997277511047
 20
77.897112545591824
 30
0.0
 11
-71.240000577511069
 21
77.897112545591824
 31
0.0
  0
LINE
  5
1DB7F
  8
SU
 62
     3
 10
-64.879997177511086
 20
78.097112345591825
 30
0.0
 11
-71.12000067751103
 21
78.097112345591825
 31
0.0
  0
LINE
  5
1DB80
  8
SU
 62
     3
 10
-64.999996977511046
 20
78.297112145591825
 30
0.0
 11
-71.00000087751107
 21
78.297112145591825
 31
0.0
  0
LINE
  5
1DB81
  8
SU
 62
     3
 10
-65.119996877511085
 20
78.497111945591826
 30
0.0
 11
-70.880000977511031
 21
78.497111945591826
 31
0.0
  0
LINE
  5
1DB82
  8
SU
 62
     3
 10
-65.23999677751101
 20
78.69711184559182
 30
0.0
 11
-70.760001077510992
 21
78.69711184559182
 31
0.0
  0
LINE
  5
1DB83
  8
SU
 62
     3
 10
-65.359996677511049
 20
78.897111645591821
 30
0.0
 11
-70.640001177511067
 21
78.897111645591821
 31
0.0
  0
LINE
  5
1DB84
  8
SU
 62
     3
 10
-65.479996577511088
 20
79.097111445591821
 30
0.0
 11
-70.520001277511028
 21
79.097111445591821
 31
0.0
  0
LINE
  5
1DB85
  8
SU
 62
     3
 10
-65.599996477511013
 20
79.297111245591822
 30
0.0
 11
-70.400001377510989
 21
79.297111245591822
 31
0.0
  0
LINE
  5
1DB86
  8
SU
 62
     3
 10
-65.719996377511052
 20
79.497111045591822
 30
0.0
 11
-70.280001477511064
 21
79.497111045591822
 31
0.0
  0
LINE
  5
1DB87
  8
SU
 62
     3
 10
-65.839995277511093
 20
79.697110845591823
 30
0.0
 11
-70.160001677510991
 21
79.697110845591823
 31
0.0
  0
LINE
  5
1DB88
  8
SU
 62
     3
 10
-65.959995177511018
 20
79.897110645591823
 30
0.0
 11
-70.040001777511065
 21
79.897110645591823
 31
0.0
  0
LINE
  5
1DB89
  8
SU
 62
     3
 10
-66.079995077511057
 20
80.097110445591824
 30
0.0
 11
-69.920001877511027
 21
80.097110445591824
 31
0.0
  0
LINE
  5
1DB8A
  8
SU
 62
     3
 10
-66.199994877511017
 20
80.297110245591824
 30
0.0
 11
-69.800001977510988
 21
80.297110245591824
 31
0.0
  0
LINE
  5
1DB8B
  8
SU
 62
     3
 10
-66.319994777511056
 20
80.497110045591825
 30
0.0
 11
-69.680002077511062
 21
80.497110045591825
 31
0.0
  0
LINE
  5
1DB8C
  8
SU
 62
     3
 10
-66.439994677511095
 20
80.697109845591825
 30
0.0
 11
-69.560002177511024
 21
80.697109845591825
 31
0.0
  0
LINE
  5
1DB8D
  8
SU
 62
     3
 10
-66.55999457751102
 20
80.897109745591806
 30
0.0
 11
-69.440002277511098
 21
80.897109745591806
 31
0.0
  0
LINE
  5
1DB8E
  8
SU
 62
     3
 10
-66.799994377511098
 20
81.297109345591835
 30
0.0
 11
-69.2000025775111
 21
81.297109345591835
 31
0.0
  0
LINE
  5
1DB8F
  8
SU
 62
     3
 10
-66.679994477511059
 20
81.097109545591806
 30
0.0
 11
-69.320002477511025
 21
81.097109545591806
 31
0.0
  0
LINE
  5
1DB90
  8
SU
 62
     3
 10
-66.919994277511023
 20
81.497109145591821
 30
0.0
 11
-69.080002677511061
 21
81.497109145591821
 31
0.0
  0
LINE
  5
1DB91
  8
SU
 62
     3
 10
-67.039994127511022
 20
81.697108945591822
 30
0.0
 11
-68.960002787511016
 21
81.697108945591822
 31
0.0
  0
LINE
  5
1DB92
  8
SU
 62
     3
 10
-67.159994007511045
 20
81.897108745591822
 30
0.0
 11
-68.840002897510985
 21
81.897108745591822
 31
0.0
  0
LINE
  5
1DB93
  8
SU
 62
     3
 10
-67.279992937510997
 20
82.097108545591809
 30
0.0
 11
-68.72000301751109
 21
82.097108545591809
 31
0.0
  0
LINE
  5
1DB94
  8
SU
 62
     3
 10
-67.399992827511028
 20
82.297108345591823
 30
0.0
 11
-68.600003127511059
 21
82.297108345591823
 31
0.0
  0
LINE
  5
1DB95
  8
SU
 62
     3
 10
-67.639995457511077
 20
82.697107985591828
 30
0.0
 11
-68.360003357511005
 21
82.697107985591828
 31
0.0
  0
LINE
  5
1DB96
  8
SU
 62
     3
 10
-67.519992717511059
 20
82.497108175591805
 30
0.0
 11
-68.480003237511028
 21
82.497108175591805
 31
0.0
  0
LINE
  5
1DB97
  8
SU
 62
     3
 10
-67.759995347510994
 20
82.897107785591814
 30
0.0
 11
-68.240003467511087
 21
82.897107785591814
 31
0.0
  0
LINE
  5
1DB98
  8
SU
 62
     3
 10
-67.999995955021745
 20
83.297121126565315
 30
0.0
 11
-73.999997877511078
 21
73.297117345591815
 31
0.0
  0
LINE
  5
1DB99
  8
SU
 62
     3
 10
-67.879990467510993
 20
83.097104735591813
 30
0.0
 11
-68.120005487511094
 21
83.097104735591827
 31
0.0
  0
LINE
  5
1DB9A
  8
SU
 62
     3
 10
-67.999998039319053
 20
83.297117125742645
 30
0.0
 11
-62.000002277511037
 21
73.297117045591818
 31
0.0
  0
LINE
  5
1DB9B
  8
SU
 62
     3
 10
-64.399997577511044
 20
77.297113145591823
 30
0.0
 11
-71.600000277511072
 21
77.297113145591823
 31
0.0
  0
LINE
  5
1DB9C
  8
SU
 62
     3
 10
-64.279997677511005
 20
77.097113345591822
 30
0.0
 11
-71.720000177510997
 21
77.097113345591822
 31
0.0
  0
LINE
  5
1DB9D
  8
SU
 62
     3
 10
-64.159998777511078
 20
76.897113545591822
 30
0.0
 11
-71.840000077511036
 21
76.897113545591822
 31
0.0
  0
LINE
  5
1DB9E
  8
SU
 62
     3
 10
-64.039998877511039
 20
76.697113745591821
 30
0.0
 11
-71.959999877510995
 21
76.697113745591821
 31
0.0
  0
LINE
  5
1DB9F
  8
SU
 62
     3
 10
-63.919998977511
 20
76.497113845591826
 30
0.0
 11
-72.079999777511034
 21
76.497113845591826
 31
0.0
  0
LINE
  5
1DBA0
  8
SU
 62
     3
 10
170.3944091549439
 20
123.164036882659
 30
0.0
 11
170.3944091549439
 21
111.1640409826591
 31
0.0
  0
LINE
  5
1DBA1
  8
SU
 62
     3
 10
170.1944093549439
 20
123.044037422659
 30
0.0
 11
170.1944093549439
 21
111.284041022659
 31
0.0
  0
LINE
  5
1DBA2
  8
SU
 62
     3
 10
169.9944095549439
 20
122.92403752265901
 30
0.0
 11
169.9944095549439
 21
111.40404092265899
 31
0.0
  0
LINE
  5
1DBA3
  8
SU
 62
     3
 10
169.7944097549439
 20
122.804037622659
 30
0.0
 11
169.7944097549439
 21
111.524040822659
 31
0.0
  0
LINE
  5
1DBA4
  8
SU
 62
     3
 10
169.5944099549439
 20
122.684037722659
 30
0.0
 11
169.5944099549439
 21
111.64404062265901
 31
0.0
  0
LINE
  5
1DBA5
  8
SU
 62
     3
 10
169.3944101549439
 20
122.564037922659
 30
0.0
 11
169.3944101549439
 21
111.764040522659
 31
0.0
  0
LINE
  5
1DBA6
  8
SU
 62
     3
 10
169.1944102549439
 20
122.444038022659
 30
0.0
 11
169.1944102549439
 21
111.884040422659
 31
0.0
  0
LINE
  5
1DBA7
  8
SU
 62
     3
 10
168.9944104549439
 20
122.32403902265899
 30
0.0
 11
168.9944104549439
 21
112.00404032265899
 31
0.0
  0
LINE
  5
1DBA8
  8
SU
 62
     3
 10
168.7944106549439
 20
122.20403922265901
 30
0.0
 11
168.7944106549439
 21
112.124040222659
 31
0.0
  0
LINE
  5
1DBA9
  8
SU
 62
     3
 10
168.5944108549439
 20
122.084039322659
 30
0.0
 11
168.5944108549439
 21
112.244040122659
 31
0.0
  0
LINE
  5
1DBAA
  8
SU
 62
     3
 10
168.3944110549439
 20
121.964039422659
 30
0.0
 11
168.3944110549439
 21
112.364040022659
 31
0.0
  0
LINE
  5
1DBAB
  8
SU
 62
     3
 10
168.1944112549439
 20
121.844039522659
 30
0.0
 11
168.1944112549439
 21
112.484039822659
 31
0.0
  0
LINE
  5
1DBAC
  8
SU
 62
     3
 10
167.9944114549439
 20
121.72403962265901
 30
0.0
 11
167.9944114549439
 21
112.604039722659
 31
0.0
  0
LINE
  5
1DBAD
  8
SU
 62
     3
 10
167.7944116549439
 20
121.604039722659
 30
0.0
 11
167.7944116549439
 21
112.72403962265901
 31
0.0
  0
LINE
  5
1DBAE
  8
SU
 62
     3
 10
167.3944120549439
 20
121.364040022659
 30
0.0
 11
167.3944120549439
 21
112.964039422659
 31
0.0
  0
LINE
  5
1DBAF
  8
SU
 62
     3
 10
167.5944118549439
 20
121.484039822659
 30
0.0
 11
167.5944118549439
 21
112.844039522659
 31
0.0
  0
LINE
  5
1DBB0
  8
SU
 62
     3
 10
166.19441315494379
 20
120.64404062265901
 30
0.0
 11
166.19441315494379
 21
113.684038722659
 31
0.0
  0
LINE
  5
1DBB1
  8
SU
 62
     3
 10
165.99441335494379
 20
120.52404172265901
 30
0.0
 11
165.99441335494379
 21
113.80403862265899
 31
0.0
  0
LINE
  5
1DBB2
  8
SU
 62
     3
 10
165.79441355494399
 20
120.404041822659
 30
0.0
 11
165.79441355494399
 21
113.924038522659
 31
0.0
  0
LINE
  5
1DBB3
  8
SU
 62
     3
 10
165.5944137549439
 20
120.284041922659
 30
0.0
 11
165.5944137549439
 21
114.044038422659
 31
0.0
  0
LINE
  5
1DBB4
  8
SU
 62
     3
 10
165.39441395494401
 20
120.164042122659
 30
0.0
 11
165.39441395494401
 21
114.164038222659
 31
0.0
  0
LINE
  5
1DBB5
  8
SU
 62
     3
 10
165.19441415494401
 20
120.044042222659
 30
0.0
 11
165.19441415494401
 21
114.2840381226591
 31
0.0
  0
LINE
  5
1DBB6
  8
SU
 62
     3
 10
164.99441425494391
 20
119.92404232265901
 30
0.0
 11
164.99441425494391
 21
114.40403802265899
 31
0.0
  0
LINE
  5
1DBB7
  8
SU
 62
     3
 10
164.7944144549439
 20
119.80404242265899
 30
0.0
 11
164.7944144549439
 21
114.52403792265901
 31
0.0
  0
LINE
  5
1DBB8
  8
SU
 62
     3
 10
164.5944146549439
 20
119.684042522659
 30
0.0
 11
164.5944146549439
 21
114.644037822659
 31
0.0
  0
LINE
  5
1DBB9
  8
SU
 62
     3
 10
164.3944148549439
 20
119.564042622659
 30
0.0
 11
164.3944148549439
 21
114.764037722659
 31
0.0
  0
LINE
  5
1DBBA
  8
SU
 62
     3
 10
164.1944150549439
 20
119.44404272265901
 30
0.0
 11
164.1944150549439
 21
114.88403762265899
 31
0.0
  0
LINE
  5
1DBBB
  8
SU
 62
     3
 10
163.9944152549439
 20
119.32404382265899
 30
0.0
 11
163.9944152549439
 21
115.004037422659
 31
0.0
  0
LINE
  5
1DBBC
  8
SU
 62
     3
 10
163.7944154549439
 20
119.204043922659
 30
0.0
 11
163.7944154549439
 21
115.12403732265901
 31
0.0
  0
LINE
  5
1DBBD
  8
SU
 62
     3
 10
163.5944156549439
 20
119.084044022659
 30
0.0
 11
163.5944156549439
 21
115.244037222659
 31
0.0
  0
LINE
  5
1DBBE
  8
SU
 62
     3
 10
163.3944158549439
 20
118.964044222659
 30
0.0
 11
163.3944158549439
 21
115.364037122659
 31
0.0
  0
LINE
  5
1DBBF
  8
SU
 62
     3
 10
163.1944160549439
 20
118.844044322659
 30
0.0
 11
163.1944160549439
 21
115.484037022659
 31
0.0
  0
LINE
  5
1DBC0
  8
SU
 62
     3
 10
162.9944162549439
 20
118.72404442265901
 30
0.0
 11
162.9944162549439
 21
115.60403692265901
 31
0.0
  0
LINE
  5
1DBC1
  8
SU
 62
     3
 10
162.79441635494391
 20
118.604044522659
 30
0.0
 11
162.79441635494391
 21
115.724036822659
 31
0.0
  0
LINE
  5
1DBC2
  8
SU
 62
     3
 10
162.3944167549439
 20
118.364044722659
 30
0.0
 11
162.3944167549439
 21
115.964036522659
 31
0.0
  0
LINE
  5
1DBC3
  8
SU
 62
     3
 10
162.5944165549439
 20
118.484044622659
 30
0.0
 11
162.5944165549439
 21
115.844036622659
 31
0.0
  0
LINE
  5
1DBC4
  8
SU
 62
     3
 10
162.1944169549439
 20
118.24404482265901
 30
0.0
 11
162.1944169549439
 21
116.084036422659
 31
0.0
  0
LINE
  5
1DBC5
  8
SU
 62
     3
 10
161.9944171549439
 20
118.12404497265899
 30
0.0
 11
161.9944171549439
 21
116.204036312659
 31
0.0
  0
LINE
  5
1DBC6
  8
SU
 62
     3
 10
161.7944173549439
 20
118.004045092659
 30
0.0
 11
161.7944173549439
 21
116.324036202659
 31
0.0
  0
LINE
  5
1DBC7
  8
SU
 62
     3
 10
161.5944175549439
 20
117.884046162659
 30
0.0
 11
161.5944175549439
 21
116.444036082659
 31
0.0
  0
LINE
  5
1DBC8
  8
SU
 62
     3
 10
161.3944177549439
 20
117.764046272659
 30
0.0
 11
161.3944177549439
 21
116.564035972659
 31
0.0
  0
LINE
  5
1DBC9
  8
SU
 62
     3
 10
160.9944181149439
 20
117.524043642659
 30
0.0
 11
160.9944181149439
 21
116.804035742659
 31
0.0
  0
LINE
  5
1DBCA
  8
SU
 62
     3
 10
161.19441792494391
 20
117.644046382659
 30
0.0
 11
161.19441792494391
 21
116.684035862659
 31
0.0
  0
LINE
  5
1DBCB
  8
SU
 62
     3
 10
160.7944183149439
 20
117.40404375265901
 30
0.0
 11
160.7944183149439
 21
116.924035632659
 31
0.0
  0
LINE
  5
1DBCC
  8
SU
 62
     3
 10
160.39440871129619
 20
117.164040902753
 30
0.0
 11
170.3944091549439
 21
111.1640409826591
 31
0.0
  0
LINE
  5
1DBCD
  8
SU
 62
     3
 10
160.59442136494391
 20
117.28404863265899
 30
0.0
 11
160.59442136494391
 21
117.04403361265901
 31
0.0
  0
LINE
  5
1DBCE
  8
SU
 62
     3
 10
160.39440871129619
 20
117.164040902753
 30
0.0
 11
170.3944091549439
 21
123.164036882659
 31
0.0
  0
LINE
  5
1DBCF
  8
SU
 62
     3
 10
166.3944129549439
 20
120.764041522659
 30
0.0
 11
166.3944129549439
 21
113.564038822659
 31
0.0
  0
LINE
  5
1DBD0
  8
SU
 62
     3
 10
166.5944127549439
 20
120.884041422659
 30
0.0
 11
166.5944127549439
 21
113.444038922659
 31
0.0
  0
LINE
  5
1DBD1
  8
SU
 62
     3
 10
166.79441255494379
 20
121.00404032265899
 30
0.0
 11
166.79441255494379
 21
113.32403902265899
 31
0.0
  0
LINE
  5
1DBD2
  8
SU
 62
     3
 10
166.9944123549439
 20
121.124040222659
 30
0.0
 11
166.9944123549439
 21
113.20403922265901
 31
0.0
  0
LINE
  5
1DBD3
  8
SU
 62
     3
 10
167.1944122549439
 20
121.244040122659
 30
0.0
 11
167.1944122549439
 21
113.084039322659
 31
0.0
  0
LINE
  5
1DBD4
  8
SU
 62
     3
 10
285.39440826764832
 20
111.1640449228469
 30
0.0
 11
285.39440826764832
 21
123.1640408228468
 31
0.0
  0
LINE
  5
1DBD5
  8
SU
 62
     3
 10
285.59440806764832
 20
111.2840443828469
 30
0.0
 11
285.59440806764832
 21
123.04404078284681
 31
0.0
  0
LINE
  5
1DBD6
  8
SU
 62
     3
 10
285.79440786764832
 20
111.4040442828469
 30
0.0
 11
285.79440786764832
 21
122.9240408828469
 31
0.0
  0
LINE
  5
1DBD7
  8
SU
 62
     3
 10
285.99440766764832
 20
111.52404418284689
 30
0.0
 11
285.99440766764832
 21
122.8040409828469
 31
0.0
  0
LINE
  5
1DBD8
  8
SU
 62
     3
 10
286.19440746764832
 20
111.6440440828469
 30
0.0
 11
286.19440746764832
 21
122.6840411828469
 31
0.0
  0
LINE
  5
1DBD9
  8
SU
 62
     3
 10
286.39440726764832
 20
111.76404388284691
 30
0.0
 11
286.39440726764832
 21
122.5640412828469
 31
0.0
  0
LINE
  5
1DBDA
  8
SU
 62
     3
 10
286.59440716764828
 20
111.8840437828469
 30
0.0
 11
286.59440716764828
 21
122.4440413828469
 31
0.0
  0
LINE
  5
1DBDB
  8
SU
 62
     3
 10
286.79440696764829
 20
112.00404278284689
 30
0.0
 11
286.79440696764829
 21
122.32404148284689
 31
0.0
  0
LINE
  5
1DBDC
  8
SU
 62
     3
 10
286.99440676764829
 20
112.1240425828469
 30
0.0
 11
286.99440676764829
 21
122.2040415828469
 31
0.0
  0
LINE
  5
1DBDD
  8
SU
 62
     3
 10
287.19440656764829
 20
112.24404248284679
 30
0.0
 11
287.19440656764829
 21
122.0840416828469
 31
0.0
  0
LINE
  5
1DBDE
  8
SU
 62
     3
 10
287.39440636764829
 20
112.3640423828469
 30
0.0
 11
287.39440636764829
 21
121.96404178284691
 31
0.0
  0
LINE
  5
1DBDF
  8
SU
 62
     3
 10
287.59440616764829
 20
112.4840422828469
 30
0.0
 11
287.59440616764829
 21
121.8440419828469
 31
0.0
  0
LINE
  5
1DBE0
  8
SU
 62
     3
 10
287.79440596764829
 20
112.6040421828468
 30
0.0
 11
287.79440596764829
 21
121.72404208284691
 31
0.0
  0
LINE
  5
1DBE1
  8
SU
 62
     3
 10
287.99440576764829
 20
112.72404208284691
 30
0.0
 11
287.99440576764829
 21
121.6040421828469
 31
0.0
  0
LINE
  5
1DBE2
  8
SU
 62
     3
 10
288.39440536764829
 20
112.96404178284691
 30
0.0
 11
288.39440536764829
 21
121.3640423828469
 31
0.0
  0
LINE
  5
1DBE3
  8
SU
 62
     3
 10
288.19440556764829
 20
112.8440419828468
 30
0.0
 11
288.19440556764829
 21
121.4840422828469
 31
0.0
  0
LINE
  5
1DBE4
  8
SU
 62
     3
 10
289.59440426764837
 20
113.6840411828469
 30
0.0
 11
289.59440426764837
 21
120.64404308284691
 31
0.0
  0
LINE
  5
1DBE5
  8
SU
 62
     3
 10
289.79440406764837
 20
113.8040400828469
 30
0.0
 11
289.79440406764837
 21
120.5240431828469
 31
0.0
  0
LINE
  5
1DBE6
  8
SU
 62
     3
 10
289.9944038676482
 20
113.92403998284691
 30
0.0
 11
289.9944038676482
 21
120.4040432828469
 31
0.0
  0
LINE
  5
1DBE7
  8
SU
 62
     3
 10
290.19440366764837
 20
114.0440398828469
 30
0.0
 11
290.19440366764837
 21
120.2840433828469
 31
0.0
  0
LINE
  5
1DBE8
  8
SU
 62
     3
 10
290.39440346764832
 20
114.16403968284691
 30
0.0
 11
290.39440346764832
 21
120.1640435828469
 31
0.0
  0
LINE
  5
1DBE9
  8
SU
 62
     3
 10
290.59440326764832
 20
114.2840395828469
 30
0.0
 11
290.59440326764832
 21
120.04404368284681
 31
0.0
  0
LINE
  5
1DBEA
  8
SU
 62
     3
 10
290.79440316764828
 20
114.4040394828468
 30
0.0
 11
290.79440316764828
 21
119.92404378284689
 31
0.0
  0
LINE
  5
1DBEB
  8
SU
 62
     3
 10
290.99440296764828
 20
114.52403938284689
 30
0.0
 11
290.99440296764828
 21
119.8040438828469
 31
0.0
  0
LINE
  5
1DBEC
  8
SU
 62
     3
 10
291.19440276764828
 20
114.6440392828468
 30
0.0
 11
291.19440276764828
 21
119.6840439828469
 31
0.0
  0
LINE
  5
1DBED
  8
SU
 62
     3
 10
291.39440256764829
 20
114.7640391828469
 30
0.0
 11
291.39440256764829
 21
119.56404408284691
 31
0.0
  0
LINE
  5
1DBEE
  8
SU
 62
     3
 10
291.5944023676484
 20
114.8840390828469
 30
0.0
 11
291.5944023676484
 21
119.44404418284689
 31
0.0
  0
LINE
  5
1DBEF
  8
SU
 62
     3
 10
291.7944021676484
 20
115.0040379828469
 30
0.0
 11
291.7944021676484
 21
119.32404438284691
 31
0.0
  0
LINE
  5
1DBF0
  8
SU
 62
     3
 10
291.9944019676484
 20
115.12403788284691
 30
0.0
 11
291.9944019676484
 21
119.2040444828469
 31
0.0
  0
LINE
  5
1DBF1
  8
SU
 62
     3
 10
292.1944017676484
 20
115.2440377828469
 30
0.0
 11
292.1944017676484
 21
119.0840445828469
 31
0.0
  0
LINE
  5
1DBF2
  8
SU
 62
     3
 10
292.39440156764829
 20
115.3640375828469
 30
0.0
 11
292.39440156764829
 21
118.9640446828469
 31
0.0
  0
LINE
  5
1DBF3
  8
SU
 62
     3
 10
292.59440136764829
 20
115.4840374828469
 30
0.0
 11
292.59440136764829
 21
118.84404478284689
 31
0.0
  0
LINE
  5
1DBF4
  8
SU
 62
     3
 10
292.79440116764829
 20
115.6040373828469
 30
0.0
 11
292.79440116764829
 21
118.7240448828469
 31
0.0
  0
LINE
  5
1DBF5
  8
SU
 62
     3
 10
292.99440106764831
 20
115.72403728284689
 30
0.0
 11
292.99440106764831
 21
118.6040449828469
 31
0.0
  0
LINE
  5
1DBF6
  8
SU
 62
     3
 10
293.39440066764831
 20
115.9640370828469
 30
0.0
 11
293.39440066764831
 21
118.3640452828469
 31
0.0
  0
LINE
  5
1DBF7
  8
SU
 62
     3
 10
293.19440086764831
 20
115.8440371828469
 30
0.0
 11
293.19440086764831
 21
118.4840451828469
 31
0.0
  0
LINE
  5
1DBF8
  8
SU
 62
     3
 10
293.59440046764831
 20
116.0840369828469
 30
0.0
 11
293.59440046764831
 21
118.24404538284681
 31
0.0
  0
LINE
  5
1DBF9
  8
SU
 62
     3
 10
293.79440026764831
 20
116.2040368328469
 30
0.0
 11
293.79440026764831
 21
118.1240454928468
 31
0.0
  0
LINE
  5
1DBFA
  8
SU
 62
     3
 10
293.99440006764831
 20
116.3240367128469
 30
0.0
 11
293.99440006764831
 21
118.0040456028469
 31
0.0
  0
LINE
  5
1DBFB
  8
SU
 62
     3
 10
294.19439986764831
 20
116.4440356428469
 30
0.0
 11
294.19439986764831
 21
117.88404572284681
 31
0.0
  0
LINE
  5
1DBFC
  8
SU
 62
     3
 10
294.39439966764832
 20
116.5640355328469
 30
0.0
 11
294.39439966764832
 21
117.7640458328468
 31
0.0
  0
LINE
  5
1DBFD
  8
SU
 62
     3
 10
294.7943993076484
 20
116.80403816284689
 30
0.0
 11
294.7943993076484
 21
117.52404606284681
 31
0.0
  0
LINE
  5
1DBFE
  8
SU
 62
     3
 10
294.5943994976484
 20
116.6840354228469
 30
0.0
 11
294.5943994976484
 21
117.6440459428469
 31
0.0
  0
LINE
  5
1DBFF
  8
SU
 62
     3
 10
294.99439910764841
 20
116.9240380528469
 30
0.0
 11
294.99439910764841
 21
117.4040461728468
 31
0.0
  0
LINE
  5
1DC00
  8
SU
 62
     3
 10
295.39440871129602
 20
117.1640409027529
 30
0.0
 11
285.39440826764832
 21
123.1640408228468
 31
0.0
  0
LINE
  5
1DC01
  8
SU
 62
     3
 10
295.19439605764842
 20
117.04403317284689
 30
0.0
 11
295.19439605764842
 21
117.2840481928469
 31
0.0
  0
LINE
  5
1DC02
  8
SU
 62
     3
 10
295.39440871129602
 20
117.1640409027529
 30
0.0
 11
285.39440826764832
 21
111.1640449228469
 31
0.0
  0
LINE
  5
1DC03
  8
SU
 62
     3
 10
289.39440446764843
 20
113.5640402828469
 30
0.0
 11
289.39440446764843
 21
120.7640429828469
 31
0.0
  0
LINE
  5
1DC04
  8
SU
 62
     3
 10
289.19440466764831
 20
113.44404038284689
 30
0.0
 11
289.19440466764831
 21
120.8840428828469
 31
0.0
  0
LINE
  5
1DC05
  8
SU
 62
     3
 10
288.99440486764843
 20
113.32404148284689
 30
0.0
 11
288.99440486764843
 21
121.00404278284689
 31
0.0
  0
LINE
  5
1DC06
  8
SU
 62
     3
 10
288.79440506764843
 20
113.2040415828469
 30
0.0
 11
288.79440506764843
 21
121.1240425828469
 31
0.0
  0
LINE
  5
1DC07
  8
SU
 62
     3
 10
288.59440516764829
 20
113.0840416828469
 30
0.0
 11
288.59440516764829
 21
121.24404248284689
 31
0.0
  0
LINE
  5
1DC08
  8
SU
 62
     3
 10
-291.25115677903142
 20
27.297112766452759
 30
0.0
 11
-289.77820716258651
 21
25.377527453384548
 31
0.0
  0
LINE
  5
1DC09
  8
SU
 62
     3
 10
-291.25115677903142
 20
27.297112766452759
 30
0.0
 11
-289.33104466297709
 21
25.82375891985852
 31
0.0
  0
LINE
  5
1DC0A
  8
SU
 62
     3
 10
-196.2072952219761
 20
51.297112766452642
 30
0.0
 11
-197.68024483842089
 21
49.377527453384431
 31
0.0
  0
LINE
  5
1DC0B
  8
SU
 62
     3
 10
-196.2072952219761
 20
51.297112766452642
 30
0.0
 11
-198.12740733803031
 21
49.823758919858399
 31
0.0
  0
LINE
  5
1DC4A
  8
SU
 62
     3
 10
160.39440871129511
 20
-96.335959097243858
 30
0.0
 11
160.39440871129511
 21
-51.335959097242672
 31
0.0
  0
LINE
  5
1DC4B
  8
SU
 62
     3
 10
250.39440871129511
 20
-103.83595909724259
 30
0.0
 11
250.39440871129511
 21
-51.335959097242672
 31
0.0
  0
LINE
  5
1DC4C
  8
SU
 62
     3
 10
160.39440871129511
 20
-54.335959097242657
 30
0.0
 11
250.39440871129511
 21
-54.335959097242657
 31
0.0
  0
LINE
  5
1DC50
  8
SU
 62
     3
 10
135.3944087112977
 20
97.164040902755985
 30
0.0
 11
113.394408711298
 21
97.164040902755985
 31
0.0
  0
LINE
  5
1DC51
  8
SU
 62
     3
 10
135.39440871129511
 20
-99.835959097242949
 30
0.0
 11
113.3944087112979
 21
-99.835959097242949
 31
0.0
  0
LINE
  5
1DC52
  8
SU
 62
     3
 10
116.394408711298
 20
97.164040902755985
 30
0.0
 11
116.3944087112979
 21
-99.835959097242949
 31
0.0
  0
LINE
  5
1DC56
  8
SU
 62
     3
 10
-166.000000001834
 20
36.797112764604663
 30
0.0
 11
-166.000000001834
 21
4.2971127664527771
 31
0.0
  0
LINE
  5
1DC58
  8
SU
 62
     3
 10
-166.000000001834
 20
7.2971127664527771
 30
0.0
 11
-171.0000000000002
 21
7.2971127664527771
 31
0.0
  0
LINE
  5
1DC59
  8
SU
 62
     3
 10
-168.50000000091711
 20
7.2971127664527771
 30
0.0
 11
-161.05529022255979
 21
-7.702887233547222
 31
0.0
  0
LINE
  5
1DC5A
  8
SU
 62
     3
 10
-161.05529022255979
 20
-7.702887233547222
 30
0.0
 11
-148.9695759368455
 21
-7.702887233547222
 31
0.0
  0
LINE
  5
1DC5E
  8
SU
 62
     3
 10
-137.0000000000002
 20
43.297112766452763
 30
0.0
 11
-137.0000000000002
 21
4.2971127664527842
 31
0.0
  0
LINE
  5
1DC60
  8
SU
 62
     3
 10
-137.0000000000002
 20
7.2971127664527868
 30
0.0
 11
-166.000000001834
 21
7.2971127664527868
 31
0.0
  0
TEXT
  5
1DC64
  8
SU
 62
     3
 10
-259.68220224040078
 20
19.066327324029729
 30
0.0
 40
4.0
  1
補強材（躯体）
 41
0.8299999999999999
  0
TEXT
  5
1DC65
  8
SU
 62
     3
 10
-264.01401176421041
 20
12.399660657363061
 30
0.0
 40
4.0
  1
24\U+00D760mm以上
 41
0.8299999999999999
  0
LINE
  5
1DC66
  8
SU
 62
     3
 10
-132.0000000000002
 20
83.297112766452756
 30
0.0
 11
-65.000000000000171
 21
83.297112766452756
 31
0.0
  0
LINE
  5
1DC67
  8
SU
 62
     3
 10
-109.5000000000002
 20
-152.20288723538221
 30
0.0
 11
-65.000000000000213
 21
-152.20288723538221
 31
0.0
  0
LINE
  5
1DC68
  8
SU
 62
     3
 10
-68.000000000000171
 20
83.297112766452756
 30
0.0
 11
-68.000000000000213
 21
-152.20288723538221
 31
0.0
  0
LINE
  5
1DC6A
  8
SU
 62
     3
 10
-132.0000000000002
 20
-145.20288723538221
 30
0.0
 11
-95.000000000000256
 21
-145.20288723538221
 31
0.0
  0
LINE
  5
1DC6C
  8
SU
 62
     3
 10
-98.00000000000027
 20
-145.20288723538221
 30
0.0
 11
-98.000000000000227
 21
44.297112766452742
 31
0.0
  0
LINE
  5
1DC70
  8
SU
 62
     3
 10
-369.00000000000068
 20
51.297112766452749
 30
0.0
 11
-391.00000000000063
 21
51.297112766452749
 31
0.0
  0
LINE
  5
1DC71
  8
SU
 62
     3
 10
-369.00000000000068
 20
-152.20288723538221
 30
0.0
 11
-391.00000000000068
 21
-152.20288723538221
 31
0.0
  0
LINE
  5
1DC72
  8
SU
 62
     3
 10
-388.00000000000063
 20
51.297112766452749
 30
0.0
 11
-388.00000000000068
 21
-152.20288723538221
 31
0.0
  0
LINE
  5
1DC74
  8
SU
 62
     3
 10
7.5640578663187421
 20
82.664040902757165
 30
0.0
 11
-29.43594213368122
 21
82.664040902757165
 31
0.0
  0
LINE
  5
1DC75
  8
SU
 62
     3
 10
7.5640578663187412
 20
-89.335959097242693
 30
0.0
 11
-29.435942133681259
 21
-89.335959097242693
 31
0.0
  0
LINE
  5
1DC76
  8
SU
 62
     3
 10
-26.43594213368122
 20
82.664040902757165
 30
0.0
 11
-26.435942133681259
 21
-89.335959097242693
 31
0.0
  0
LINE
  5
1DC7A
  8
SU
 62
     3
 10
7.5640578663187412
 20
49.164040902757279
 30
0.0
 11
-14.435942133681239
 21
49.164040902757279
 31
0.0
  0
LINE
  5
1DC7B
  8
SU
 62
     3
 10
7.5640578663187412
 20
-55.835959097242799
 30
0.0
 11
-14.435942133681261
 21
-55.835959097242799
 31
0.0
  0
LINE
  5
1DC7C
  8
SU
 62
     3
 10
-11.43594213368123
 20
49.164040902757279
 30
0.0
 11
-11.435942133681261
 21
-55.835959097242799
 31
0.0
  0
LINE
  5
1DC81
  8
SU
 62
     3
 10
29.3944087112951
 20
-121.33595909724259
 30
0.0
 11
-29.435942133681259
 21
-121.33595909724259
 31
0.0
  0
LINE
  5
1DC82
  8
SU
 62
     3
 10
-26.435942133681252
 20
-89.335959097242807
 30
0.0
 11
-26.435942133681259
 21
-121.33595909724259
 31
0.0
  0
LINE
  5
1DC86
  8
SU
 62
     3
 10
-149.5000000000002
 20
-153.20288723538221
 30
0.0
 11
-149.5000000000002
 21
-202.20288723538229
 31
0.0
  0
LINE
  5
1DC87
  8
SU
 62
     3
 10
-181.50000000000031
 20
-153.20288723538221
 30
0.0
 11
-181.50000000000031
 21
-202.20288723538229
 31
0.0
  0
LINE
  5
1DC88
  8
SU
 62
     3
 10
-149.5000000000002
 20
-199.20288723538221
 30
0.0
 11
-181.50000000000031
 21
-199.20288723538221
 31
0.0
  0
LINE
  5
1DC8C
  8
SU
 62
     3
 10
-169.5000000000002
 20
-153.20288723538221
 30
0.0
 11
-169.5000000000002
 21
-187.20288723538229
 31
0.0
  0
LINE
  5
1DC8D
  8
SU
 62
     3
 10
-129.5000000000002
 20
-153.20288723538221
 30
0.0
 11
-129.5000000000002
 21
-187.20288723538229
 31
0.0
  0
LINE
  5
1DC8E
  8
SU
 62
     3
 10
-169.5000000000002
 20
-184.20288723538221
 30
0.0
 11
-129.5000000000002
 21
-184.20288723538221
 31
0.0
  0
LINE
  5
1DC94
  8
SU
 62
     3
 10
-98.000000000000227
 20
-152.20288723538221
 30
0.0
 11
-98.000000000000227
 21
-145.20288723538221
 31
0.0
  0
TEXT
  5
1DC98
  8
SU
 62
     3
 10
-261.63195362999909
 20
1.412813364521639
 30
0.0
 40
4.0
  1
無目枠（別途）
 41
0.8299999999999999
  0
LINE
  5
1DC99
  8
SU
 62
     3
 10
302.39440871129523
 20
-151.3359590972438
 30
0.0
 11
302.39440871129523
 21
-205.83595909724269
 31
0.0
  0
LINE
  5
1DC9A
  8
SU
 62
     3
 10
322.39440871129727
 20
-151.33595909724269
 30
0.0
 11
322.39440871129727
 21
-205.83595909724269
 31
0.0
  0
LINE
  5
1DC9B
  8
SU
 62
     3
 10
302.39440871129523
 20
-202.83595909724269
 30
0.0
 11
322.39440871129727
 21
-202.83595909724269
 31
0.0
  0
LINE
  5
1DC9F
  8
SU
 62
     3
 10
217.39440871129511
 20
-129.13595909724259
 30
0.0
 11
217.39440871129511
 21
-160.83595909724261
 31
0.0
  0
LINE
  5
1DCA0
  8
SU
 62
     3
 10
169.39440871129511
 20
-129.13595909724259
 30
0.0
 11
169.39440871129511
 21
-160.83595909724261
 31
0.0
  0
LINE
  5
1DCA1
  8
SU
 62
     3
 10
217.39440871129511
 20
-157.83595909724261
 30
0.0
 11
169.39440871129511
 21
-157.83595909724261
 31
0.0
  0
LINE
  5
1DCA6
  8
SU
 62
     3
 10
250.39440871129511
 20
-138.83595909724261
 30
0.0
 11
250.39440871129511
 21
-175.83595909724269
 31
0.0
  0
LINE
  5
1DCA7
  8
SU
 62
     3
 10
136.39440871129511
 20
-172.83595909724261
 30
0.0
 11
250.39440871129511
 21
-172.83595909724261
 31
0.0
  0
LINE
  5
1DCAB
  8
SU
 62
     3
 10
136.39440871129511
 20
-138.83595909724261
 30
0.0
 11
136.39440871129511
 21
-190.83595909724269
 31
0.0
  0
LINE
  5
1DCAD
  8
SU
 62
     3
 10
136.39440871129511
 20
-187.83595909724261
 30
0.0
 11
302.39440871129523
 21
-187.83595909724261
 31
0.0
  0
LINE
  5
1DCB1
  8
SU
 62
     3
 10
69.3944087112951
 20
-143.83595909724261
 30
0.0
 11
69.3944087112951
 21
-205.83595909724269
 31
0.0
  0
LINE
  5
1DCB3
  8
SU
 62
     3
 10
69.3944087112951
 20
-202.83595909724269
 30
0.0
 11
302.39440871129523
 21
-202.83595909724269
 31
0.0
  0
LINE
  5
1DCB7
  8
SU
 62
     3
 10
7.5640578663187421
 20
-76.835959097242835
 30
0.0
 11
-14.435942133681261
 21
-76.835959097242835
 31
0.0
  0
LINE
  5
1DCB9
  8
SU
 62
     3
 10
-11.435942133681261
 20
-76.835959097242835
 30
0.0
 11
-11.435942133681261
 21
-89.335959097242807
 31
0.0
  0
LINE
  5
1DCBF
  8
SU
 62
     3
 10
116.3944087112979
 20
-99.835959097243844
 30
0.0
 11
116.3944087112979
 21
-104.83595910130489
 31
0.0
  0
LINE
  5
1DCC0
  8
SU
 62
     3
 10
116.3944087112979
 20
-102.3359590992744
 30
0.0
 11
107.6970264982433
 21
-101.67419688944329
 31
0.0
  0
LINE
  5
1DCC1
  8
SU
 62
     3
 10
107.6970264982433
 20
-101.67419688944329
 30
0.0
 11
107.6970264982434
 21
-89.588482603729005
 31
0.0
  0
LINE
  5
1DCC5
  8
SU
 62
     3
 10
323.39440871129727
 20
-150.33595909724269
 30
0.0
 11
364.89440871129472
 21
-150.33595909724269
 31
0.0
  0
LINE
  5
1DCC6
  8
SU
 62
     3
 10
218.39440871129511
 20
-119.33595909724259
 30
0.0
 11
364.89440871129477
 21
-119.33595909724269
 31
0.0
  0
LINE
  5
1DCC7
  8
SU
 62
     3
 10
361.89440871129472
 20
-150.33595909724269
 30
0.0
 11
361.89440871129477
 21
-119.33595909724269
 31
0.0
  0
LINE
  5
1DCCB
  8
SU
 62
     3
 10
-353.5
 20
162.29711276461811
 30
0.0
 11
-353.5
 21
191.7971127664525
 31
0.0
  0
LINE
  5
1DCCC
  8
SU
 62
     3
 10
-181.5000000000002
 20
162.29711276461811
 30
0.0
 11
-181.5000000000002
 21
191.7971127664525
 31
0.0
  0
LINE
  5
1DCCD
  8
SU
 62
     3
 10
-353.5
 20
188.7971127664525
 30
0.0
 11
-181.5000000000002
 21
188.7971127664525
 31
0.0
  0
LINE
  5
1DCD1
  8
SU
 62
     3
 10
-341.0
 20
162.29711276461811
 30
0.0
 11
-341.0
 21
176.7971127664525
 31
0.0
  0
LINE
  5
1DCD3
  8
SU
 62
     3
 10
-341.0
 20
173.7971127664525
 30
0.0
 11
-353.5
 21
173.7971127664525
 31
0.0
  0
LINE
  5
1DCD8
  8
SU
 62
     3
 10
-170.0000000000002
 20
51.297112766452749
 30
0.0
 11
-95.000000000000227
 21
51.297112766452742
 31
0.0
  0
LINE
  5
1DCD9
  8
SU
 62
     3
 10
-98.000000000000227
 20
44.297112766452742
 30
0.0
 11
-98.000000000000227
 21
51.297112766452742
 31
0.0
  0
LINE
  5
1DCDF
  8
SU
 62
     3
 10
-98.000000000000227
 20
51.297112766452742
 30
0.0
 11
-98.000000000000227
 21
83.297112766452756
 31
0.0
  0
LINE
  5
1DCE4
  8
SU
 62
     3
 10
-136.0000000000002
 20
44.297112766452749
 30
0.0
 11
-80.000000000000227
 21
44.297112766452742
 31
0.0
  0
LINE
  5
1DCE5
  8
SU
 62
     3
 10
-83.000000000000227
 20
83.297112766452756
 30
0.0
 11
-83.000000000000227
 21
44.297112766452742
 31
0.0
  0
LINE
  5
1DCE9
  8
SU
 62
     3
 10
-194.0000000000002
 20
162.29711276461811
 30
0.0
 11
-194.0000000000002
 21
176.7971127664525
 31
0.0
  0
LINE
  5
1DCEB
  8
SU
 62
     3
 10
-194.0000000000002
 20
173.7971127664525
 30
0.0
 11
-181.5000000000002
 21
173.7971127664525
 31
0.0
  0
LINE
  5
1DCEF
  8
SU
 62
     3
 10
-320.00000000000023
 20
162.29711276461799
 30
0.0
 11
-320.00000000000023
 21
176.7971127664525
 31
0.0
  0
LINE
  5
1DCF0
  8
SU
 62
     3
 10
-215.0000000000002
 20
162.29711276461811
 30
0.0
 11
-215.0000000000002
 21
176.7971127664525
 31
0.0
  0
LINE
  5
1DCF1
  8
SU
 62
     3
 10
-320.00000000000023
 20
173.7971127664525
 30
0.0
 11
-215.0000000000002
 21
173.7971127664525
 31
0.0
  0
LINE
  5
1DCF6
  8
SU
 62
     3
 10
-151.5000000000002
 20
106.2971127664527
 30
0.0
 11
-151.5000000000002
 21
176.7971127664525
 31
0.0
  0
LINE
  5
1DCF7
  8
SU
 62
     3
 10
-181.5000000000002
 20
173.7971127664525
 30
0.0
 11
-151.5000000000002
 21
173.7971127664525
 31
0.0
  0
LINE
  5
1DCFB
  8
SU
 62
     3
 10
295.39440871129727
 20
97.664040902756994
 30
0.0
 11
295.39440871129727
 21
120.1640409027529
 31
0.0
  0
LINE
  5
1DCFC
  8
SU
 62
     3
 10
160.3944087112975
 20
98.164040902756895
 30
0.0
 11
160.3944087112975
 21
120.1640409027529
 31
0.0
  0
LINE
  5
1DCFD
  8
SU
 62
     3
 10
295.39440871129727
 20
117.164040902753
 30
0.0
 11
160.3944087112975
 21
117.164040902753
 31
0.0
  0
LINE
  5
1DCFF
  8
SU
 62
     3
 10
136.3944087112975
 20
98.164040902756895
 30
0.0
 11
136.3944087112975
 21
120.1640409027529
 31
0.0
  0
LINE
  5
1DD01
  8
SU
 62
     3
 10
136.3944087112975
 20
117.164040902753
 30
0.0
 11
160.3944087112975
 21
117.164040902753
 31
0.0
  0
LINE
  5
1DD04
  8
SU
 62
     3
 10
7.5640578663187412
 20
70.164040902757165
 30
0.0
 11
-14.435942133681261
 21
70.164040902757165
 31
0.0
  0
LINE
  5
1DD06
  8
SU
 62
     3
 10
-11.435942133681261
 20
70.164040902757165
 30
0.0
 11
-11.435942133681261
 21
82.664040902757165
 31
0.0
  0
LINE
  5
1DD0A
  8
SU
 62
     3
 10
322.39440871129727
 20
97.664040902756994
 30
0.0
 11
322.39440871129727
 21
120.1640409027529
 31
0.0
  0
LINE
  5
1DD0C
  8
SU
 62
     3
 10
322.39440871129727
 20
117.164040902753
 30
0.0
 11
295.39440871129727
 21
117.164040902753
 31
0.0
  0
LINE
  5
1DD11
  8
SU
 62
     3
 10
-11.43594213368131
 20
70.164040902757165
 30
0.0
 11
-11.435942133681319
 21
49.164040902757279
 31
0.0
  0
LINE
  5
1DD17
  8
SU
 62
     3
 10
-11.43594213368125
 20
-55.835959097242799
 30
0.0
 11
-11.43594213368125
 21
-76.835959097242835
 31
0.0
  0
LINE
  5
1DD1C
  8
SU
 62
     3
 10
218.39440871129511
 20
-104.83595909724259
 30
0.0
 11
240.39440871129511
 21
-104.83595909724269
 31
0.0
  0
LINE
  5
1DD1D
  8
SU
 62
     3
 10
237.39440871129511
 20
-119.33595909724269
 30
0.0
 11
237.39440871129511
 21
-104.83595909724269
 31
0.0
  0
LINE
  5
1DD22
  8
SU
 62
     3
 10
218.39440871129511
 20
-137.83595909724261
 30
0.0
 11
240.39440871129511
 21
-137.83595909724261
 31
0.0
  0
LINE
  5
1DD23
  8
SU
 62
     3
 10
237.39440871129511
 20
-119.33595909724269
 30
0.0
 11
237.39440871129511
 21
-137.83595909724261
 31
0.0
  0
LINE
  5
1DD28
  8
SU
 62
     3
 10
193.39440871129511
 20
-88.335959097242593
 30
0.0
 11
193.39440871129511
 21
-66.335959097242664
 31
0.0
  0
LINE
  5
1DD29
  8
SU
 62
     3
 10
160.39440871129511
 20
-69.335959097242664
 30
0.0
 11
193.39440871129511
 21
-69.335959097242664
 31
0.0
  0
LINE
  5
1DD2E
  8
SU
 62
     3
 10
226.39440871129511
 20
-88.335959097242664
 30
0.0
 11
226.39440871129511
 21
-66.335959097242664
 31
0.0
  0
LINE
  5
1DD2F
  8
SU
 62
     3
 10
193.39440871129511
 20
-69.335959097242664
 30
0.0
 11
226.39440871129511
 21
-69.335959097242664
 31
0.0
  0
LINE
  5
1DD35
  8
SU
 62
     3
 10
226.39440871129511
 20
-69.335959097242664
 30
0.0
 11
250.39440871129511
 21
-69.335959097242664
 31
0.0
  0
LINE
  5
1DD39
  8
SU
 62
     3
 10
294.39440871129727
 20
96.664040902755985
 30
0.0
 11
272.39440871129358
 21
96.664040902755985
 31
0.0
  0
LINE
  5
1DD3A
  8
SU
 62
     3
 10
294.39440871130279
 20
-100.3359590972438
 30
0.0
 11
272.39440871129358
 21
-100.3359590972438
 31
0.0
  0
LINE
  5
1DD3B
  8
SU
 62
     3
 10
275.39440871129358
 20
96.664040902755985
 30
0.0
 11
275.39440871129358
 21
-100.3359590972438
 31
0.0
  0
LINE
  5
1DD40
  8
SU
 62
     3
 10
301.39440871129523
 20
-150.3359590972438
 30
0.0
 11
272.39440871129352
 21
-150.3359590972438
 31
0.0
  0
LINE
  5
1DD41
  8
SU
 62
     3
 10
275.39440871129358
 20
-100.3359590972438
 30
0.0
 11
275.39440871129352
 21
-150.3359590972438
 31
0.0
  0
LINE
  5
1DD47
  8
SU
 62
     3
 10
-194.0000000000002
 20
173.79711276645261
 30
0.0
 11
-215.0000000000002
 21
173.79711276645261
 31
0.0
  0
LINE
  5
1DD4D
  8
SU
 62
     3
 10
-320.00000000000023
 20
173.7971127664527
 30
0.0
 11
-341.0
 21
173.7971127664527
 31
0.0
  0
LINE
  5
1DD51
  8
SU
 62
     3
 10
-171.0000000000002
 20
50.297112766452763
 30
0.0
 11
-171.0000000000002
 21
4.2971127664527549
 31
0.0
  0
LINE
  5
1DD52
  8
SU
 62
     3
 10
-181.5000000000002
 20
50.297112766452763
 30
0.0
 11
-181.5000000000002
 21
4.2971127664527549
 31
0.0
  0
LINE
  5
1DD53
  8
SU
 62
     3
 10
-171.0000000000002
 20
7.2971127664527557
 30
0.0
 11
-181.5000000000002
 21
7.2971127664527557
 31
0.0
  0
LINE
  5
1DD54
  8
SU
 62
     3
 10
-181.5000000000002
 20
7.2971127664527557
 30
0.0
 11
-196.14380952380969
 21
7.2971127664527557
 31
0.0
  0
LINE
  5
1DD59
  8
SU
 62
     3
 10
-133.0000000000002
 20
43.297112766452763
 30
0.0
 11
-133.0000000000002
 21
4.297112766452627
 31
0.0
  0
LINE
  5
1DD5A
  8
SU
 62
     3
 10
-137.0000000000002
 20
7.2971127664526261
 30
0.0
 11
-133.0000000000002
 21
7.2971127664526261
 31
0.0
  0
LINE
  5
1DD5B
  8
SU
 62
     3
 10
-133.0000000000002
 20
7.2971127664526261
 30
0.0
 11
-125.6285714285716
 21
7.2971127664526261
 31
0.0
  0
LINE
  5
1DD60
  8
SU
 62
     3
 10
81.3944087112951
 20
-138.83595909724261
 30
0.0
 11
81.3944087112951
 21
-190.83595909724249
 31
0.0
  0
LINE
  5
1DD61
  8
SU
 62
     3
 10
69.394408711295085
 20
-187.83595909724249
 30
0.0
 11
81.3944087112951
 21
-187.83595909724249
 31
0.0
  0
LINE
  5
1DD65
  8
SU
 62
     3
 10
135.39440871129639
 20
-104.83595910130489
 30
0.0
 11
113.394408711298
 21
-104.83595910130489
 31
0.0
  0
LINE
  5
1DD66
  8
SU
 62
     3
 10
135.39440871129511
 20
-137.83595909724261
 30
0.0
 11
113.394408711298
 21
-137.83595909724261
 31
0.0
  0
LINE
  5
1DD67
  8
SU
 62
     3
 10
116.394408711298
 20
-104.83595910130489
 30
0.0
 11
116.394408711298
 21
-137.83595909724261
 31
0.0
  0
LINE
  5
1DD6B
  8
SU
 62
     3
 10
320.39440871129477
 20
-89.335959097242693
 30
0.0
 11
364.8944087112946
 21
-89.335959097242707
 31
0.0
  0
LINE
  5
1DD6D
  8
SU
 62
     3
 10
361.8944087112946
 20
-89.335959097242707
 30
0.0
 11
361.8944087112946
 21
-119.33595909724269
 31
0.0
  0
LINE
  5
1DD71
  8
SU
 62
     3
 10
30.394408711295078
 20
-144.33595909724261
 30
0.0
 11
30.394408711295078
 21
-205.83595909724269
 31
0.0
  0
LINE
  5
1DD73
  8
SU
 62
     3
 10
30.394408711295078
 20
-202.83595909724269
 30
0.0
 11
69.3944087112951
 21
-202.83595909724269
 31
0.0
  0
TEXT
  5
1DD79
  8
SU
 62
     3
 10
194.50164680653319
 20
-53.035959097242667
 30
0.0
 40
4.0
  1
引残し＝90
 41
0.8299999999999999
  0
TEXT
  5
1DD7C
  8
SU
 62
     3
 10
115.0944087112979
 20
-6.3159590972434581
 30
0.0
 40
4.0
  1
197
 50
90.0
 41
0.8299999999999999
  0
TEXT
  5
1DD7D
  8
SU
 62
     3
 10
-160.38767117494069
 20
-6.4028872335472231
 30
0.0
 40
4.0
  1
D=5
 41
0.8299999999999999
  0
TEXT
  5
1DD82
  8
SU
 62
     3
 10
-154.58285714377419
 20
8.5971127664527884
 30
0.0
 40
4.0
  1
29
 41
0.8299999999999999
  0
TEXT
  5
1DD83
  8
SU
 62
     3
 10
-69.300000000000182
 20
-36.191934853512372
 30
0.0
 40
4.0
  1
H
 50
90.0
 41
0.8299999999999999
  0
TEXT
  5
1DD86
  8
SU
 62
     3
 10
-99.300000000000239
 20
-72.19098247255998
 30
0.0
 40
4.0
  1
障子H（SH）＝H-46
 50
90.0
 41
0.8299999999999999
  0
TEXT
  5
1DD87
  8
SU
 62
     3
 10
-389.30000000000058
 20
-64.997649139226695
 30
0.0
 40
4.0
  1
開口H≦H-32
 50
90.0
 41
0.8299999999999999
  0
TEXT
  5
1DD8A
  8
SU
 62
     3
 10
-27.735942133681242
 20
-8.3159590972427608
 30
0.0
 40
4.0
  1
172
 50
90.0
 41
0.8299999999999999
  0
TEXT
  5
1DD8D
  8
SU
 62
     3
 10
-12.73594213368124
 20
-8.3159590972427626
 30
0.0
 40
4.0
  1
105
 50
90.0
 41
0.8299999999999999
  0
TEXT
  5
1DD90
  8
SU
 62
     3
 10
-27.735942133681242
 20
-108.4978638591475
 30
0.0
 40
4.0
  1
32
 50
90.0
 41
0.8299999999999999
  0
TEXT
  5
1DD93
  8
SU
 62
     3
 10
-168.66190476190499
 20
-197.9028872353822
 30
0.0
 40
4.0
  1
32
 41
0.8299999999999999
  0
TEXT
  5
1DD96
  8
SU
 62
     3
 10
-147.9473317535267
 20
-182.9028872353822
 30
0.0
 40
4.0
  1
40
 41
0.8299999999999999
  0
TEXT
  5
1DD99
  8
SU
 62
     3
 10
-99.30000000000021
 20
-150.2838396163346
 30
0.0
 40
4.0
  1
7
 50
90.0
 41
0.8299999999999999
  0
TEXT
  5
1DD9C
  8
SU
 62
     3
 10
309.23250394939151
 20
-201.53595909724271
 30
0.0
 40
4.0
  1
20
 41
0.8299999999999999
  0
TEXT
  5
1DD9F
  8
SU
 62
     3
 10
190.23250394939029
 20
-156.5359590972426
 30
0.0
 40
4.0
  1
48
 41
0.8299999999999999
  0
TEXT
  5
1DDA2
  8
SU
 62
     3
 10
188.3353610922475
 20
-171.5359590972426
 30
0.0
 40
4.0
  1
114
 41
0.8299999999999999
  0
TEXT
  5
1DDA5
  8
SU
 62
     3
 10
197.6563134731999
 20
-186.5359590972426
 30
0.0
 40
4.0
  1
障子W（SW）＝W+31
 41
0.8299999999999999
  0
TEXT
  5
1DDA8
  8
SU
 62
     3
 10
170.4010753779618
 20
-201.53595909724271
 30
0.0
 40
4.0
  1
下レール切断寸法
 41
0.8299999999999999
  0
TEXT
  5
1DDAB
  8
SU
 62
     3
 10
-12.73594213368124
 20
-88.856435287718995
 30
0.0
 40
4.0
  1
12.5
 50
90.0
 41
0.8299999999999999
  0
TEXT
  5
1DDAC
  8
SU
 62
     3
 10
106.39702649824341
 20
-101.0065778418242
 30
0.0
 40
4.0
  1
D=5
 50
90.0
 41
0.8299999999999999
  0
TEXT
  5
1DDB1
  8
SU
 62
     3
 10
360.59440871129482
 20
-137.52357814486169
 30
0.0
 40
4.0
  1
31
 50
90.0
 41
0.8299999999999999
  0
TEXT
  5
1DDB4
  8
SU
 62
     3
 10
-272.48000000000008
 20
190.09711276645251
 30
0.0
 40
4.0
  1
172
 41
0.8299999999999999
  0
TEXT
  5
1DDB7
  8
SU
 62
     3
 10
-353.02047619047619
 20
175.09711276645251
 30
0.0
 40
4.0
  1
12.5
 41
0.8299999999999999
  0
TEXT
  5
1DDB8
  8
SU
 62
     3
 10
-99.300000000000225
 20
46.216160385500359
 30
0.0
 40
4.0
  1
7
 50
90.0
 41
0.8299999999999999
  0
TEXT
  5
1DDBD
  8
SU
 62
     3
 10
-99.300000000000239
 20
64.135208004547962
 30
0.0
 40
4.0
  1
32
 50
90.0
 41
0.8299999999999999
  0
TEXT
  5
1DDC0
  8
SU
 62
     3
 10
-84.300000000000239
 20
60.714255623595591
 30
0.0
 40
4.0
  1
39
 50
90.0
 41
0.8299999999999999
  0
TEXT
  5
1DDC3
  8
SU
 62
     3
 10
-193.52047619047639
 20
175.09711276645251
 30
0.0
 40
4.0
  1
12.5
 41
0.8299999999999999
  0
TEXT
  5
1DDC6
  8
SU
 62
     3
 10
-272.48000000000019
 20
175.09711276645251
 30
0.0
 40
4.0
  1
105
 41
0.8299999999999999
  0
TEXT
  5
1DDC9
  8
SU
 62
     3
 10
-169.66190476190499
 20
175.09711276645251
 30
0.0
 40
4.0
  1
30
 41
0.8299999999999999
  0
TEXT
  5
1DDCA
  8
SU
 62
     3
 10
225.99726585415459
 20
118.4640409027529
 30
0.0
 40
4.0
  1
W
 41
0.8299999999999999
  0
TEXT
  5
1DDCC
  8
SU
 62
     3
 10
141.58050394939269
 20
118.4640409027529
 30
0.0
 40
4.0
  1
24≦B
 41
0.8299999999999999
  0
TEXT
  5
1DDCF
  8
SU
 62
     3
 10
-12.73594213368127
 20
70.643564712280977
 30
0.0
 40
4.0
  1
12.5
 50
90.0
 41
0.8299999999999999
  0
TEXT
  5
1DDD1
  8
SU
 62
     3
 10
302.0172658541544
 20
118.4640409027529
 30
0.0
 40
4.0
  1
C=27
 41
0.8299999999999999
  0
TEXT
  5
1DDD4
  8
SU
 62
     3
 10
-12.735942133681331
 20
56.97642185513817
 30
0.0
 40
4.0
  1
21
 50
90.0
 41
0.8299999999999999
  0
TEXT
  5
1DDD7
  8
SU
 62
     3
 10
-12.73594213368124
 20
-69.023578144861872
 30
0.0
 40
4.0
  1
21
 50
90.0
 41
0.8299999999999999
  0
TEXT
  5
1DDDA
  8
SU
 62
     3
 10
236.0944087112951
 20
-117.8564352877188
 30
0.0
 40
4.0
  1
14.5
 50
90.0
 41
0.8299999999999999
  0
TEXT
  5
1DDDD
  8
SU
 62
     3
 10
236.0944087112951
 20
-134.3564352877188
 30
0.0
 40
4.0
  1
18.5
 50
90.0
 41
0.8299999999999999
  0
TEXT
  5
1DDE0
  8
SU
 62
     3
 10
173.73250394939029
 20
-68.035959097242667
 30
0.0
 40
4.0
  1
33
 41
0.8299999999999999
  0
TEXT
  5
1DDE3
  8
SU
 62
     3
 10
206.73250394939041
 20
-68.035959097242667
 30
0.0
 40
4.0
  1
33
 41
0.8299999999999999
  0
TEXT
  5
1DDE6
  8
SU
 62
     3
 10
235.15345633034269
 20
-68.035959097242667
 30
0.0
 40
4.0
  1
24
 41
0.8299999999999999
  0
TEXT
  5
1DDE9
  8
SU
 62
     3
 10
274.09440871129362
 20
-6.815959097243895
 30
0.0
 40
4.0
  1
197
 50
90.0
 41
0.8299999999999999
  0
TEXT
  5
1DDEC
  8
SU
 62
     3
 10
274.09440871129362
 20
-128.49786385914851
 30
0.0
 40
4.0
  1
50
 50
90.0
 41
0.8299999999999999
  0
TEXT
  5
1DDEF
  8
SU
 62
     3
 10
-207.18761904761931
 20
175.0971127664526
 30
0.0
 40
4.0
  1
21
 41
0.8299999999999999
  0
TEXT
  5
1DDF2
  8
SU
 62
     3
 10
-333.18761904761908
 20
175.09711276645271
 30
0.0
 40
4.0
  1
21
 41
0.8299999999999999
  0
TEXT
  5
1DDF5
  8
SU
 62
     3
 10
-195.79238095238111
 20
8.5971127664527565
 30
0.0
 40
4.0
  1
10.5
 41
0.8299999999999999
  0
TEXT
  5
1DDF8
  8
SU
 62
     3
 10
-129.7742857142859
 20
8.5971127664526268
 30
0.0
 40
4.0
  1
4
 41
0.8299999999999999
  0
TEXT
  5
1DDFB
  8
SU
 62
     3
 10
71.995361092247464
 20
-186.5359590972424
 30
0.0
 40
4.0
  1
12
 41
0.8299999999999999
  0
TEXT
  5
1DDFE
  8
SU
 62
     3
 10
115.094408711298
 20
-124.4978638611785
 30
0.0
 40
4.0
  1
33
 50
90.0
 41
0.8299999999999999
  0
TEXT
  5
1DE01
  8
SU
 62
     3
 10
360.59440871129459
 20
-107.4978638591474
 30
0.0
 40
4.0
  1
30
 50
90.0
 41
0.8299999999999999
  0
TEXT
  5
1DE04
  8
SU
 62
     3
 10
46.811551568437942
 20
-201.53595909724271
 30
0.0
 40
4.0
  1
39
 41
0.8299999999999999
  0
ARC
  5
1DE96
  8
SU
 62
     3
 10
30.394408711295078
 20
-202.83595909724269
 30
0.0
 40
0.3000000000000007
 50
0.0
 51
180.0
  0
ARC
  5
1DE97
  8
SU
 62
     3
 10
30.394408711295078
 20
-202.83595909724269
 30
0.0
 40
0.3000000000000007
 50
180.0
 51
0.0
  0
ARC
  5
1DE98
  8
SU
 62
     3
 10
361.8944087112946
 20
-89.335959097242707
 30
0.0
 40
0.2999999999999971
 50
270.0
 51
90.0
  0
ARC
  5
1DE99
  8
SU
 62
     3
 10
361.8944087112946
 20
-89.335959097242707
 30
0.0
 40
0.2999999999999971
 50
90.0
 51
270.0
  0
ARC
  5
1DE9A
  8
SU
 62
     3
 10
116.394408711298
 20
-137.83595909724261
 30
0.0
 40
0.3000000000000114
 50
90.0
 51
270.0
  0
ARC
  5
1DE9B
  8
SU
 62
     3
 10
116.394408711298
 20
-137.83595909724261
 30
0.0
 40
0.3000000000000114
 50
270.0
 51
90.0
  0
ARC
  5
1DE9C
  8
SU
 62
     3
 10
81.3944087112951
 20
-187.83595909724249
 30
0.0
 40
0.2999999999999971
 50
180.0
 51
0.0
  0
ARC
  5
1DE9D
  8
SU
 62
     3
 10
81.3944087112951
 20
-187.83595909724249
 30
0.0
 40
0.2999999999999971
 50
0.0
 51
180.0
  0
ARC
  5
1DE9E
  8
SU
 62
     3
 10
69.394408711295085
 20
-187.83595909724249
 30
0.0
 40
0.2999999999999971
 50
0.0
 51
180.0
  0
ARC
  5
1DE9F
  8
SU
 62
     3
 10
69.394408711295085
 20
-187.83595909724249
 30
0.0
 40
0.2999999999999971
 50
180.0
 51
0.0
  0
ARC
  5
1DEA0
  8
SU
 62
     3
 10
-133.0000000000002
 20
7.2971127664526261
 30
0.0
 40
0.3000000000000114
 50
180.0
 51
0.0
  0
ARC
  5
1DEA1
  8
SU
 62
     3
 10
-133.0000000000002
 20
7.2971127664526261
 30
0.0
 40
0.3000000000000114
 50
0.0
 51
180.0
  0
ARC
  5
1DEA2
  8
SU
 62
     3
 10
-181.5000000000002
 20
7.2971127664527557
 30
0.0
 40
0.3000000000000114
 50
0.0
 51
180.0
  0
ARC
  5
1DEA3
  8
SU
 62
     3
 10
-181.5000000000002
 20
7.2971127664527557
 30
0.0
 40
0.3000000000000114
 50
180.0
 51
0.0
  0
ARC
  5
1DEA4
  8
SU
 62
     3
 10
-341.0
 20
173.7971127664527
 30
0.0
 40
0.3000000000000114
 50
0.0
 51
180.0
  0
ARC
  5
1DEA5
  8
SU
 62
     3
 10
-341.0
 20
173.7971127664527
 30
0.0
 40
0.3000000000000114
 50
180.0
 51
0.0
  0
ARC
  5
1DEA6
  8
SU
 62
     3
 10
275.39440871129352
 20
-150.3359590972438
 30
0.0
 40
0.3000000000000114
 50
90.0
 51
270.0
  0
ARC
  5
1DEA7
  8
SU
 62
     3
 10
275.39440871129352
 20
-150.3359590972438
 30
0.0
 40
0.3000000000000114
 50
270.0
 51
90.0
  0
ARC
  5
1DEA8
  8
SU
 62
     3
 10
275.39440871129358
 20
-100.3359590972438
 30
0.0
 40
0.2999999999999971
 50
90.0
 51
270.0
  0
ARC
  5
1DEA9
  8
SU
 62
     3
 10
275.39440871129358
 20
-100.3359590972438
 30
0.0
 40
0.2999999999999971
 50
270.0
 51
90.0
  0
ARC
  5
1DEAA
  8
SU
 62
     3
 10
275.39440871129358
 20
96.664040902755985
 30
0.0
 40
0.2999999999999971
 50
270.0
 51
90.0
  0
ARC
  5
1DEAB
  8
SU
 62
     3
 10
275.39440871129358
 20
96.664040902755985
 30
0.0
 40
0.2999999999999971
 50
90.0
 51
270.0
  0
ARC
  5
1DEAC
  8
SU
 62
     3
 10
250.39440871129511
 20
-69.335959097242664
 30
0.0
 40
0.3000000000000114
 50
180.0
 51
0.0
  0
ARC
  5
1DEAD
  8
SU
 62
     3
 10
250.39440871129511
 20
-69.335959097242664
 30
0.0
 40
0.3000000000000114
 50
0.0
 51
180.0
  0
ARC
  5
1DEAE
  8
SU
 62
     3
 10
226.39440871129511
 20
-69.335959097242664
 30
0.0
 40
0.3000000000000114
 50
180.0
 51
0.0
  0
ARC
  5
1DEAF
  8
SU
 62
     3
 10
226.39440871129511
 20
-69.335959097242664
 30
0.0
 40
0.3000000000000114
 50
0.0
 51
180.0
  0
ARC
  5
1DEB0
  8
SU
 62
     3
 10
193.39440871129511
 20
-69.335959097242664
 30
0.0
 40
0.3000000000000114
 50
180.0
 51
0.0
  0
ARC
  5
1DEB1
  8
SU
 62
     3
 10
193.39440871129511
 20
-69.335959097242664
 30
0.0
 40
0.3000000000000114
 50
0.0
 51
180.0
  0
ARC
  5
1DEB2
  8
SU
 62
     3
 10
160.39440871129511
 20
-69.335959097242664
 30
0.0
 40
0.3000000000000114
 50
0.0
 51
180.0
  0
ARC
  5
1DEB3
  8
SU
 62
     3
 10
160.39440871129511
 20
-69.335959097242664
 30
0.0
 40
0.3000000000000114
 50
180.0
 51
0.0
  0
ARC
  5
1DEB4
  8
SU
 62
     3
 10
237.39440871129511
 20
-137.83595909724261
 30
0.0
 40
0.3000000000000114
 50
90.0
 51
270.0
  0
ARC
  5
1DEB5
  8
SU
 62
     3
 10
237.39440871129511
 20
-137.83595909724261
 30
0.0
 40
0.3000000000000114
 50
270.0
 51
90.0
  0
ARC
  5
1DEB6
  8
SU
 62
     3
 10
237.39440871129511
 20
-104.83595909724269
 30
0.0
 40
0.2999999999999971
 50
270.0
 51
90.0
  0
ARC
  5
1DEB7
  8
SU
 62
     3
 10
237.39440871129511
 20
-104.83595909724269
 30
0.0
 40
0.2999999999999971
 50
90.0
 51
270.0
  0
ARC
  5
1DEB8
  8
SU
 62
     3
 10
237.39440871129511
 20
-119.33595909724269
 30
0.0
 40
0.2999999999999971
 50
90.0
 51
270.0
  0
ARC
  5
1DEB9
  8
SU
 62
     3
 10
237.39440871129511
 20
-119.33595909724269
 30
0.0
 40
0.2999999999999971
 50
270.0
 51
90.0
  0
ARC
  5
1DEBA
  8
SU
 62
     3
 10
322.39440871129727
 20
117.164040902753
 30
0.0
 40
0.3000000000000114
 50
180.0
 51
0.0
  0
ARC
  5
1DEBB
  8
SU
 62
     3
 10
322.39440871129727
 20
117.164040902753
 30
0.0
 40
0.3000000000000114
 50
0.0
 51
180.0
  0
ARC
  5
1DEBC
  8
SU
 62
     3
 10
-11.435942133681261
 20
82.664040902757165
 30
0.0
 40
0.2999999999999971
 50
270.0
 51
90.0
  0
ARC
  5
1DEBD
  8
SU
 62
     3
 10
-11.435942133681261
 20
82.664040902757165
 30
0.0
 40
0.2999999999999971
 50
90.0
 51
270.0
  0
ARC
  5
1DEBE
  8
SU
 62
     3
 10
-11.435942133681261
 20
70.164040902757165
 30
0.0
 40
0.2999999999999971
 50
90.0
 51
270.0
  0
ARC
  5
1DEBF
  8
SU
 62
     3
 10
-11.435942133681261
 20
70.164040902757165
 30
0.0
 40
0.2999999999999971
 50
270.0
 51
90.0
  0
ARC
  5
1DEC0
  8
SU
 62
     3
 10
136.3944087112975
 20
117.164040902753
 30
0.0
 40
0.3000000000000114
 50
0.0
 51
180.0
  0
ARC
  5
1DEC1
  8
SU
 62
     3
 10
136.3944087112975
 20
117.164040902753
 30
0.0
 40
0.3000000000000114
 50
180.0
 51
0.0
  0
ARC
  5
1DEC2
  8
SU
 62
     3
 10
-151.5000000000002
 20
173.7971127664525
 30
0.0
 40
0.3000000000000114
 50
180.0
 51
0.0
  0
ARC
  5
1DEC3
  8
SU
 62
     3
 10
-151.5000000000002
 20
173.7971127664525
 30
0.0
 40
0.3000000000000114
 50
0.0
 51
180.0
  0
ARC
  5
1DEC4
  8
SU
 62
     3
 10
-215.0000000000002
 20
173.7971127664525
 30
0.0
 40
0.3000000000000114
 50
180.0
 51
0.0
  0
ARC
  5
1DEC5
  8
SU
 62
     3
 10
-215.0000000000002
 20
173.7971127664525
 30
0.0
 40
0.3000000000000114
 50
0.0
 51
180.0
  0
ARC
  5
1DEC6
  8
SU
 62
     3
 10
-320.00000000000023
 20
173.7971127664525
 30
0.0
 40
0.3000000000000114
 50
0.0
 51
180.0
  0
ARC
  5
1DEC7
  8
SU
 62
     3
 10
-320.00000000000023
 20
173.7971127664525
 30
0.0
 40
0.3000000000000114
 50
180.0
 51
0.0
  0
ARC
  5
1DEC8
  8
SU
 62
     3
 10
-181.5000000000002
 20
173.7971127664525
 30
0.0
 40
0.3000000000000114
 50
180.0
 51
0.0
  0
ARC
  5
1DEC9
  8
SU
 62
     3
 10
-181.5000000000002
 20
173.7971127664525
 30
0.0
 40
0.3000000000000114
 50
0.0
 51
180.0
  0
ARC
  5
1DECA
  8
SU
 62
     3
 10
-194.0000000000002
 20
173.7971127664525
 30
0.0
 40
0.3000000000000114
 50
0.0
 51
180.0
  0
ARC
  5
1DECB
  8
SU
 62
     3
 10
-194.0000000000002
 20
173.7971127664525
 30
0.0
 40
0.3000000000000114
 50
180.0
 51
0.0
  0
ARC
  5
1DECC
  8
SU
 62
     3
 10
-83.000000000000227
 20
44.297112766452742
 30
0.0
 40
0.2999999999999971
 50
90.0
 51
270.0
  0
ARC
  5
1DECD
  8
SU
 62
     3
 10
-83.000000000000227
 20
44.297112766452742
 30
0.0
 40
0.2999999999999971
 50
270.0
 51
90.0
  0
ARC
  5
1DECE
  8
SU
 62
     3
 10
-83.000000000000227
 20
83.297112766452756
 30
0.0
 40
0.2999999999999971
 50
270.0
 51
90.0
  0
ARC
  5
1DECF
  8
SU
 62
     3
 10
-83.000000000000227
 20
83.297112766452756
 30
0.0
 40
0.2999999999999971
 50
90.0
 51
270.0
  0
ARC
  5
1DED0
  8
SU
 62
     3
 10
-98.000000000000227
 20
83.297112766452756
 30
0.0
 40
0.2999999999999971
 50
270.0
 51
90.0
  0
ARC
  5
1DED1
  8
SU
 62
     3
 10
-98.000000000000227
 20
83.297112766452756
 30
0.0
 40
0.2999999999999971
 50
90.0
 51
270.0
  0
ARC
  5
1DED2
  8
SU
 62
     3
 10
-98.000000000000227
 20
51.297112766452742
 30
0.0
 40
0.2999999999999971
 50
270.0
 51
90.0
  0
ARC
  5
1DED3
  8
SU
 62
     3
 10
-98.000000000000227
 20
51.297112766452742
 30
0.0
 40
0.2999999999999971
 50
90.0
 51
270.0
  0
ARC
  5
1DED4
  8
SU
 62
     3
 10
-353.5
 20
173.7971127664525
 30
0.0
 40
0.3000000000000114
 50
0.0
 51
180.0
  0
ARC
  5
1DED5
  8
SU
 62
     3
 10
-353.5
 20
173.7971127664525
 30
0.0
 40
0.3000000000000114
 50
180.0
 51
0.0
  0
ARC
  5
1DED6
  8
SU
 62
     3
 10
-181.5000000000002
 20
188.7971127664525
 30
0.0
 40
0.3000000000000114
 50
180.0
 51
0.0
  0
ARC
  5
1DED7
  8
SU
 62
     3
 10
-181.5000000000002
 20
188.7971127664525
 30
0.0
 40
0.3000000000000114
 50
0.0
 51
180.0
  0
ARC
  5
1DED8
  8
SU
 62
     3
 10
-353.5
 20
188.7971127664525
 30
0.0
 40
0.3000000000000114
 50
0.0
 51
180.0
  0
ARC
  5
1DED9
  8
SU
 62
     3
 10
-353.5
 20
188.7971127664525
 30
0.0
 40
0.3000000000000114
 50
180.0
 51
0.0
  0
ARC
  5
1DEDA
  8
SU
 62
     3
 10
361.89440871129477
 20
-119.33595909724269
 30
0.0
 40
0.2999999999999971
 50
270.0
 51
90.0
  0
ARC
  5
1DEDB
  8
SU
 62
     3
 10
361.89440871129477
 20
-119.33595909724269
 30
0.0
 40
0.2999999999999971
 50
90.0
 51
270.0
  0
ARC
  5
1DEDC
  8
SU
 62
     3
 10
361.89440871129472
 20
-150.33595909724269
 30
0.0
 40
0.3000000000000114
 50
90.0
 51
270.0
  0
ARC
  5
1DEDD
  8
SU
 62
     3
 10
361.89440871129472
 20
-150.33595909724269
 30
0.0
 40
0.3000000000000114
 50
270.0
 51
90.0
  0
ARC
  5
1DEDE
  8
SU
 62
     3
 10
116.3944087112979
 20
-104.83595910130489
 30
0.0
 40
0.2999999999999971
 50
90.0
 51
270.0
  0
ARC
  5
1DEDF
  8
SU
 62
     3
 10
116.3944087112979
 20
-104.83595910130489
 30
0.0
 40
0.2999999999999971
 50
270.0
 51
90.0
  0
ARC
  5
1DEE0
  8
SU
 62
     3
 10
-11.435942133681261
 20
-89.335959097242807
 30
0.0
 40
0.2999999999999971
 50
90.0
 51
270.0
  0
ARC
  5
1DEE1
  8
SU
 62
     3
 10
-11.435942133681261
 20
-89.335959097242807
 30
0.0
 40
0.2999999999999971
 50
270.0
 51
90.0
  0
ARC
  5
1DEE2
  8
SU
 62
     3
 10
-11.435942133681261
 20
-76.835959097242835
 30
0.0
 40
0.2999999999999971
 50
270.0
 51
90.0
  0
ARC
  5
1DEE3
  8
SU
 62
     3
 10
-11.435942133681261
 20
-76.835959097242835
 30
0.0
 40
0.2999999999999971
 50
90.0
 51
270.0
  0
ARC
  5
1DEE4
  8
SU
 62
     3
 10
69.3944087112951
 20
-202.83595909724269
 30
0.0
 40
0.2999999999999971
 50
0.0
 51
180.0
  0
ARC
  5
1DEE5
  8
SU
 62
     3
 10
69.3944087112951
 20
-202.83595909724269
 30
0.0
 40
0.2999999999999971
 50
180.0
 51
0.0
  0
ARC
  5
1DEE6
  8
SU
 62
     3
 10
302.39440871129523
 20
-187.83595909724261
 30
0.0
 40
0.3000000000000114
 50
180.0
 51
0.0
  0
ARC
  5
1DEE7
  8
SU
 62
     3
 10
302.39440871129523
 20
-187.83595909724261
 30
0.0
 40
0.3000000000000114
 50
0.0
 51
180.0
  0
ARC
  5
1DEE8
  8
SU
 62
     3
 10
136.39440871129511
 20
-187.83595909724261
 30
0.0
 40
0.3000000000000114
 50
0.0
 51
180.0
  0
ARC
  5
1DEE9
  8
SU
 62
     3
 10
136.39440871129511
 20
-187.83595909724261
 30
0.0
 40
0.3000000000000114
 50
180.0
 51
0.0
  0
ARC
  5
1DEEA
  8
SU
 62
     3
 10
250.39440871129511
 20
-172.83595909724261
 30
0.0
 40
0.3000000000000114
 50
180.0
 51
0.0
  0
ARC
  5
1DEEB
  8
SU
 62
     3
 10
250.39440871129511
 20
-172.83595909724261
 30
0.0
 40
0.3000000000000114
 50
0.0
 51
180.0
  0
ARC
  5
1DEEC
  8
SU
 62
     3
 10
136.39440871129511
 20
-172.83595909724261
 30
0.0
 40
0.3000000000000114
 50
0.0
 51
180.0
  0
ARC
  5
1DEED
  8
SU
 62
     3
 10
136.39440871129511
 20
-172.83595909724261
 30
0.0
 40
0.3000000000000114
 50
180.0
 51
0.0
  0
ARC
  5
1DEEE
  8
SU
 62
     3
 10
169.39440871129511
 20
-157.83595909724261
 30
0.0
 40
0.3000000000000114
 50
0.0
 51
180.0
  0
ARC
  5
1DEEF
  8
SU
 62
     3
 10
169.39440871129511
 20
-157.83595909724261
 30
0.0
 40
0.3000000000000114
 50
180.0
 51
0.0
  0
ARC
  5
1DEF0
  8
SU
 62
     3
 10
217.39440871129511
 20
-157.83595909724261
 30
0.0
 40
0.3000000000000114
 50
180.0
 51
0.0
  0
ARC
  5
1DEF1
  8
SU
 62
     3
 10
217.39440871129511
 20
-157.83595909724261
 30
0.0
 40
0.3000000000000114
 50
0.0
 51
180.0
  0
ARC
  5
1DEF2
  8
SU
 62
     3
 10
322.39440871129727
 20
-202.83595909724269
 30
0.0
 40
0.3000000000000114
 50
180.0
 51
0.0
  0
ARC
  5
1DEF3
  8
SU
 62
     3
 10
322.39440871129727
 20
-202.83595909724269
 30
0.0
 40
0.3000000000000114
 50
0.0
 51
180.0
  0
ARC
  5
1DEF4
  8
SU
 62
     3
 10
302.39440871129523
 20
-202.83595909724269
 30
0.0
 40
0.3000000000000114
 50
0.0
 51
180.0
  0
ARC
  5
1DEF5
  8
SU
 62
     3
 10
302.39440871129523
 20
-202.83595909724269
 30
0.0
 40
0.3000000000000114
 50
180.0
 51
0.0
  0
ARC
  5
1DEF6
  8
SU
 62
     3
 10
-98.000000000000227
 20
-152.20288723538221
 30
0.0
 40
0.3000000000000114
 50
90.0
 51
270.0
  0
ARC
  5
1DEF7
  8
SU
 62
     3
 10
-98.000000000000227
 20
-152.20288723538221
 30
0.0
 40
0.3000000000000114
 50
270.0
 51
90.0
  0
ARC
  5
1DEF8
  8
SU
 62
     3
 10
-129.5000000000002
 20
-184.20288723538221
 30
0.0
 40
0.3000000000000114
 50
180.0
 51
0.0
  0
ARC
  5
1DEF9
  8
SU
 62
     3
 10
-129.5000000000002
 20
-184.20288723538221
 30
0.0
 40
0.3000000000000114
 50
0.0
 51
180.0
  0
ARC
  5
1DEFA
  8
SU
 62
     3
 10
-169.5000000000002
 20
-184.20288723538221
 30
0.0
 40
0.3000000000000114
 50
0.0
 51
180.0
  0
ARC
  5
1DEFB
  8
SU
 62
     3
 10
-169.5000000000002
 20
-184.20288723538221
 30
0.0
 40
0.3000000000000114
 50
180.0
 51
0.0
  0
ARC
  5
1DEFC
  8
SU
 62
     3
 10
-181.50000000000031
 20
-199.20288723538221
 30
0.0
 40
0.3000000000000114
 50
0.0
 51
180.0
  0
ARC
  5
1DEFD
  8
SU
 62
     3
 10
-181.50000000000031
 20
-199.20288723538221
 30
0.0
 40
0.3000000000000114
 50
180.0
 51
0.0
  0
ARC
  5
1DEFE
  8
SU
 62
     3
 10
-149.5000000000002
 20
-199.20288723538221
 30
0.0
 40
0.3000000000000114
 50
180.0
 51
0.0
  0
ARC
  5
1DEFF
  8
SU
 62
     3
 10
-149.5000000000002
 20
-199.20288723538221
 30
0.0
 40
0.3000000000000114
 50
0.0
 51
180.0
  0
ARC
  5
1DF00
  8
SU
 62
     3
 10
-26.435942133681259
 20
-121.33595909724259
 30
0.0
 40
0.2999999999999971
 50
90.0
 51
270.0
  0
ARC
  5
1DF01
  8
SU
 62
     3
 10
-26.435942133681259
 20
-121.33595909724259
 30
0.0
 40
0.2999999999999971
 50
270.0
 51
90.0
  0
ARC
  5
1DF02
  8
SU
 62
     3
 10
-11.435942133681261
 20
-55.835959097242799
 30
0.0
 40
0.2999999999999971
 50
90.0
 51
270.0
  0
ARC
  5
1DF03
  8
SU
 62
     3
 10
-11.435942133681261
 20
-55.835959097242799
 30
0.0
 40
0.2999999999999971
 50
270.0
 51
90.0
  0
ARC
  5
1DF04
  8
SU
 62
     3
 10
-11.43594213368123
 20
49.164040902757279
 30
0.0
 40
0.2999999999999971
 50
270.0
 51
90.0
  0
ARC
  5
1DF05
  8
SU
 62
     3
 10
-11.43594213368123
 20
49.164040902757279
 30
0.0
 40
0.2999999999999971
 50
90.0
 51
270.0
  0
ARC
  5
1DF06
  8
SU
 62
     3
 10
-26.435942133681259
 20
-89.335959097242693
 30
0.0
 40
0.2999999999999971
 50
90.0
 51
270.0
  0
ARC
  5
1DF07
  8
SU
 62
     3
 10
-26.435942133681259
 20
-89.335959097242693
 30
0.0
 40
0.2999999999999971
 50
270.0
 51
90.0
  0
ARC
  5
1DF08
  8
SU
 62
     3
 10
-26.43594213368122
 20
82.664040902757165
 30
0.0
 40
0.2999999999999971
 50
270.0
 51
90.0
  0
ARC
  5
1DF09
  8
SU
 62
     3
 10
-26.43594213368122
 20
82.664040902757165
 30
0.0
 40
0.2999999999999971
 50
90.0
 51
270.0
  0
ARC
  5
1DF0A
  8
SU
 62
     3
 10
-98.000000000000227
 20
44.297112766452742
 30
0.0
 40
0.2999999999999971
 50
270.0
 51
90.0
  0
ARC
  5
1DF0B
  8
SU
 62
     3
 10
-98.000000000000227
 20
44.297112766452742
 30
0.0
 40
0.2999999999999971
 50
90.0
 51
270.0
  0
ARC
  5
1DF0C
  8
SU
 62
     3
 10
-98.00000000000027
 20
-145.20288723538221
 30
0.0
 40
0.3000000000000114
 50
90.0
 51
270.0
  0
ARC
  5
1DF0D
  8
SU
 62
     3
 10
-98.00000000000027
 20
-145.20288723538221
 30
0.0
 40
0.3000000000000114
 50
270.0
 51
90.0
  0
ARC
  5
1DF0E
  8
SU
 62
     3
 10
-137.0000000000002
 20
7.2971127664527868
 30
0.0
 40
0.3000000000000114
 50
180.0
 51
0.0
  0
ARC
  5
1DF0F
  8
SU
 62
     3
 10
-137.0000000000002
 20
7.2971127664527868
 30
0.0
 40
0.3000000000000114
 50
0.0
 51
180.0
  0
ARC
  5
1DF10
  8
SU
 62
     3
 10
-171.0000000000002
 20
7.2971127664527771
 30
0.0
 40
0.3000000000000114
 50
0.0
 51
180.0
  0
ARC
  5
1DF11
  8
SU
 62
     3
 10
-171.0000000000002
 20
7.2971127664527771
 30
0.0
 40
0.3000000000000114
 50
180.0
 51
0.0
  0
ARC
  5
1DF12
  8
SU
 62
     3
 10
-166.000000001834
 20
7.2971127664527771
 30
0.0
 40
0.3000000000000114
 50
180.0
 51
0.0
  0
ARC
  5
1DF13
  8
SU
 62
     3
 10
-166.000000001834
 20
7.2971127664527771
 30
0.0
 40
0.3000000000000114
 50
0.0
 51
180.0
  0
ARC
  5
1DF14
  8
SU
 62
     3
 10
116.3944087112979
 20
-99.835959097242949
 30
0.0
 40
0.2999999999999971
 50
90.0
 51
270.0
  0
ARC
  5
1DF15
  8
SU
 62
     3
 10
116.3944087112979
 20
-99.835959097242949
 30
0.0
 40
0.2999999999999971
 50
270.0
 51
90.0
  0
ARC
  5
1DF16
  8
SU
 62
     3
 10
116.394408711298
 20
97.164040902755985
 30
0.0
 40
0.2999999999999971
 50
270.0
 51
90.0
  0
ARC
  5
1DF17
  8
SU
 62
     3
 10
116.394408711298
 20
97.164040902755985
 30
0.0
 40
0.2999999999999971
 50
90.0
 51
270.0
  0
ARC
  5
1DF18
  8
SU
 62
     3
 10
250.39440871129511
 20
-54.335959097242657
 30
0.0
 40
0.3000000000000114
 50
180.0
 51
0.0
  0
ARC
  5
1DF19
  8
SU
 62
     3
 10
250.39440871129511
 20
-54.335959097242657
 30
0.0
 40
0.3000000000000114
 50
0.0
 51
180.0
  0
ARC
  5
1DF1A
  8
SU
 62
     3
 10
160.39440871129511
 20
-54.335959097242657
 30
0.0
 40
0.3000000000000114
 50
0.0
 51
180.0
  0
ARC
  5
1DF1B
  8
SU
 62
     3
 10
160.39440871129511
 20
-54.335959097242657
 30
0.0
 40
0.3000000000000114
 50
180.0
 51
0.0
  0
ENDSEC
  0
EOF
