  0
SECTION
  2
HEADER
  9
$ACADVER
  1
AC1009
  9
$INSBASE
 10
0.0
 20
0.0
 30
0.0
  9
$EXTMIN
 10
19.287462307707749
 20
16.20593401906762
 30
-0.0000000000000153
  9
$EXTMAX
 10
817.54193308314041
 20
583.77612441798692
 30
0.0
  9
$LIMMIN
 10
0.0
 20
0.0
  9
$LIMMAX
 10
841.0
 20
594.0
  9
$ORTHOMODE
 70
     1
  9
$REGENMODE
 70
     1
  9
$FILLMODE
 70
     1
  9
$QTEXTMODE
 70
     0
  9
$MIRRTEXT
 70
     0
  9
$DRAGMODE
 70
     2
  9
$LTSCALE
 40
1.0
  9
$OSMODE
 70
  3071
  9
$ATTMODE
 70
     1
  9
$TEXTSIZE
 40
12.5
  9
$TRACEWID
 40
1.0
  9
$TEXTSTYLE
  7
STANDARD
  9
$CLAYER
  8
WK
  9
$CELTYPE
  6
BYLAYER
  9
$CECOLOR
 62
   256
  9
$DIMSCALE
 40
1.0
  9
$DIMASZ
 40
4.7999999999999989
  9
$DIMEXO
 40
1.0
  9
$DIMDLI
 40
7.0
  9
$DIMRND
 40
0.0
  9
$DIMDLE
 40
0.0
  9
$DIMEXE
 40
3.0
  9
$DIMTP
 40
0.1
  9
$DIMTM
 40
0.1
  9
$DIMTXT
 40
7.0
  9
$DIMCEN
 40
0.0
  9
$DIMTSZ
 40
0.0
  9
$DIMTOL
 70
     0
  9
$DIMLIM
 70
     0
  9
$DIMTIH
 70
     0
  9
$DIMTOH
 70
     0
  9
$DIMSE1
 70
     0
  9
$DIMSE2
 70
     0
  9
$DIMTAD
 70
     1
  9
$DIMZIN
 70
     8
  9
$DIMBLK
  1
DOTSMALL
  9
$DIMASO
 70
     1
  9
$DIMSHO
 70
     1
  9
$DIMPOST
  1

  9
$DIMAPOST
  1
"
  9
$DIMALT
 70
     0
  9
$DIMALTD
 70
     2
  9
$DIMALTF
 40
0.0393701
  9
$DIMLFAC
 40
1.0
  9
$DIMTOFL
 70
     1
  9
$DIMTVP
 40
0.0
  9
$DIMTIX
 70
     0
  9
$DIMSOXD
 70
     0
  9
$DIMSAH
 70
     0
  9
$DIMBLK1
  1

  9
$DIMBLK2
  1

  9
$DIMSTYLE
  2
SANKYO
  9
$DIMCLRD
 70
   256
  9
$DIMCLRE
 70
   256
  9
$DIMCLRT
 70
   256
  9
$DIMTFAC
 40
0.71
  9
$DIMGAP
 40
1.3
  9
$LUNITS
 70
     2
  9
$LUPREC
 70
     4
  9
$SKETCHINC
 40
1.0
  9
$FILLETRAD
 40
0.0
  9
$AUNITS
 70
     0
  9
$AUPREC
 70
     0
  9
$MENU
  1
.
  9
$ELEVATION
 40
0.0
  9
$PELEVATION
 40
0.0
  9
$THICKNESS
 40
0.0
  9
$LIMCHECK
 70
     0
  9
$BLIPMODE
 70
     0
  9
$CHAMFERA
 40
10.0
  9
$CHAMFERB
 40
10.0
  9
$SKPOLY
 70
     0
  9
$TDCREATE
 40
2455110.561913426
  9
$TDUPDATE
 40
2459031.5828057169
  9
$TDINDWG
 40
1.7968621874999999
  9
$TDUSRTIMER
 40
1.7966665394000001
  9
$USRTIMER
 70
     1
  9
$ANGBASE
 50
0.0
  9
$ANGDIR
 70
     0
  9
$PDMODE
 70
     0
  9
$PDSIZE
 40
0.0
  9
$PLINEWID
 40
0.0
  9
$COORDS
 70
     2
  9
$SPLFRAME
 70
     0
  9
$SPLINETYPE
 70
     6
  9
$SPLINESEGS
 70
     8
  9
$ATTDIA
 70
     1
  9
$ATTREQ
 70
     1
  9
$HANDLING
 70
     1
  9
$HANDSEED
  5
12057
  9
$SURFTAB1
 70
     6
  9
$SURFTAB2
 70
     6
  9
$SURFTYPE
 70
     6
  9
$SURFU
 70
     6
  9
$SURFV
 70
     6
  9
$UCSNAME
  2

  9
$UCSORG
 10
0.0
 20
0.0
 30
0.0
  9
$UCSXDIR
 10
1.0
 20
0.0
 30
0.0
  9
$UCSYDIR
 10
0.0
 20
1.0
 30
0.0
  9
$PUCSNAME
  2

  9
$PUCSORG
 10
0.0
 20
0.0
 30
0.0
  9
$PUCSXDIR
 10
1.0
 20
0.0
 30
0.0
  9
$PUCSYDIR
 10
0.0
 20
1.0
 30
0.0
  9
$USERI1
 70
     0
  9
$USERI2
 70
     0
  9
$USERI3
 70
     0
  9
$USERI4
 70
     0
  9
$USERI5
 70
     0
  9
$USERR1
 40
0.0
  9
$USERR2
 40
0.0
  9
$USERR3
 40
0.0
  9
$USERR4
 40
0.0
  9
$USERR5
 40
0.0
  9
$WORLDVIEW
 70
     1
  9
$SHADEDGE
 70
     3
  9
$SHADEDIF
 70
    70
  9
$TILEMODE
 70
     1
  9
$MAXACTVP
 70
    48
  9
$PLIMCHECK
 70
     0
  9
$PEXTMIN
 10
1.0000000000000000E+020
 20
1.0000000000000000E+020
 30
1.0000000000000000E+020
  9
$PEXTMAX
 10
-1.0000000000000000E+020
 20
-1.0000000000000000E+020
 30
-1.0000000000000000E+020
  9
$PLIMMIN
 10
0.0
 20
0.0
  9
$PLIMMAX
 10
420.0
 20
297.0
  9
$UNITMODE
 70
     0
  9
$VISRETAIN
 70
     1
  9
$PLINEGEN
 70
     0
  9
$PSLTSCALE
 70
     1
  0
ENDSEC
  0
SECTION
  2
TABLES
  0
TABLE
  2
VPORT
 70
     1
  0
VPORT
  2
*ACTIVE
 70
     0
 10
0.0
 20
0.0
 11
1.0
 21
1.0
 12
418.41469769542408
 22
299.99102921852727
 13
0.0
 23
0.0
 14
2.5
 24
2.5
 15
10.0
 25
10.0
 16
0.0
 26
0.0
 36
1.0
 17
0.0
 27
0.0
 37
0.0
 40
572.3290550730037
 41
2.096730245231607
 42
50.0
 43
0.0
 44
0.0
 50
0.0
 51
0.0
 71
     0
 72
   100
 73
     1
 74
     1
 75
     0
 76
     0
 77
     0
 78
     0
  0
ENDTAB
  0
TABLE
  2
LTYPE
 70
    21
  0
LTYPE
  2
CONTINUOUS
 70
     0
  3
Solid line
 72
    65
 73
     0
 40
0.0
  0
LTYPE
  2
CENTER
 70
     0
  3
Center ____ _ ____ _ ____ _ ____ _ ____ _ ____
 72
    65
 73
     4
 40
50.799999999999997
 49
31.75
 49
-6.3499999999999988
 49
6.3499999999999988
 49
-6.3499999999999988
  0
LTYPE
  2
CENTER2
 70
     0
  3
Center (.5x) ___ _ ___ _ ___ _ ___ _ ___ _ ___
 72
    65
 73
     4
 40
28.574999999999999
 49
19.050000000000001
 49
-3.1749999999999989
 49
3.1749999999999989
 49
-3.1749999999999989
  0
LTYPE
  2
PHANTOM
 70
     0
  3
Phantom ______  __  __  ______  __  __  ______
 72
    65
 73
     6
 40
63.5
 49
31.75
 49
-6.3499999999999988
 49
6.3499999999999988
 49
-6.3499999999999988
 49
6.3499999999999988
 49
-6.3499999999999988
  0
LTYPE
  2
PHANTOM2
 70
     0
  3
Phantom (.5x) ___ _ _ ___ _ _ ___ _ _ ___ _ _
 72
    65
 73
     6
 40
31.75
 49
15.875
 49
-3.1749999999999989
 49
3.1749999999999989
 49
-3.1749999999999989
 49
3.1749999999999989
 49
-3.1749999999999989
  0
LTYPE
  2
DASHED
 70
     0
  3
Dashed __ __ __ __ __ __ __ __ __ __ __ __ __ _
 72
    65
 73
     2
 40
19.050000000000001
 49
12.699999999999999
 49
-6.3499999999999988
  0
LTYPE
  2
DASHED2
 70
     0
  3
Dashed (.5x) _ _ _ _ _ _ _ _ _ _ _ _ _ _ _ _ _
 72
    65
 73
     2
 40
9.5249999999999986
 49
6.3499999999999988
 49
-3.1749999999999989
  0
LTYPE
  2
ZIGZAG
 70
     0
  3
Zig zag /\/\/\/\/\/\/\/\/\/\/\/\/\/\/\/\/\/\/\/
 72
    65
 73
     4
 40
20.32254
 49
0.00254
 49
-5.0800000000000001
 49
-10.16
 49
-5.0800000000000001
  0
LTYPE
  2
AM_ISO02W050
 70
     0
  3
__ __ __ __ __ __ __ __ __ __ __ __ __ __ __
 72
    65
 73
     2
 40
7.5
 49
6.0
 49
-1.5
  0
LTYPE
  2
AMCONSTR
 70
     0
  3
_______________________
 72
    65
 73
     2
 40
9999.0
 49
9999.0
 49
0.0
  0
LTYPE
  2
AMZIGZAG
 70
     0
  3
/\/-/\/-/\/-/\/-/\/-/\/
 72
    65
 73
     2
 40
11.0001
 49
0.0001
 49
-11.0
  0
LTYPE
  2
ACJISTGB
 70
     0
  3
__ . . __ . .
 72
    65
 73
     6
 40
9.0
 49
4.0
 49
-1.0
 49
1.0
 49
-1.0
 49
1.0
 49
-1.0
  0
LTYPE
  2
ACJISTGL
 70
     0
  3
_ _ _ _ _
 72
    65
 73
     2
 40
3.0
 49
2.0
 49
-1.0
  0
LTYPE
  2
ACISOWELD
 70
     0
  3
_ _ _ _ _
 72
    65
 73
     2
 40
2.0
 49
2.0
 49
-1.0
  0
LTYPE
  2
ACISOTGB
 70
     0
  3
__ . . __ . .
 72
    65
 73
     6
 40
9.0
 49
4.0
 49
-1.0
 49
1.0
 49
-1.0
 49
1.0
 49
-1.0
  0
LTYPE
  2
ACISOTGL
 70
     0
  3
_ _ _ _ _
 72
    65
 73
     2
 40
3.0
 49
2.0
 49
-1.0
  0
LTYPE
  2
HIDDEN
 70
     0
  3
Hidden __ __ __ __ __ __ __ __ __ __ __ __ __ _
 72
    65
 73
     2
 40
9.5249999999999986
 49
6.3499999999999988
 49
-3.1749999999999989
  0
LTYPE
  2
AM_ISO08W050
 70
     0
  3
____ . ____ . ____ . ____ . ____ . ____ . ____
 72
    65
 73
     4
 40
18.0
 49
12.0
 49
-1.5
 49
3.0
 49
-1.5
  0
LTYPE
  2
AM_ISO09W050
 70
     0
  3
_____ . . _____ . . _____ . . ____ .. ____
 72
    65
 73
     6
 40
22.5
 49
12.0
 49
-1.5
 49
3.0
 49
-1.5
 49
3.0
 49
-1.5
  0
LTYPE
  2
AM_ISO08W050X2
 70
     0
  3
__ . __ . __ . __ . __ . __
 72
    65
 73
     4
 40
9.0
 49
6.0
 49
-0.75
 49
1.5
 49
-0.75
  0
LTYPE
  2
AM_ISO02W050X2
 70
     0
  3
 _ _ _ _ _ _ _ _ _ _ _ _
 72
    65
 73
     2
 40
3.75
 49
3.0
 49
-0.75
  0
ENDTAB
  0
TABLE
  2
LAYER
 70
    11
  0
LAYER
  2
0
 70
     0
 62
     7
  6
CONTINUOUS
  0
LAYER
  2
KI1
 70
     0
 62
     7
  6
CONTINUOUS
  0
LAYER
  2
TS
 70
     0
 62
     6
  6
DASHED2
  0
LAYER
  2
SU
 70
     0
 62
     3
  6
CONTINUOUS
  0
LAYER
  2
MJ
 70
     0
 62
     2
  6
CONTINUOUS
  0
LAYER
  2
OS
 70
     0
 62
     2
  6
CONTINUOUS
  0
LAYER
  2
KI2
 70
     0
 62
     4
  6
CONTINUOUS
  0
LAYER
  2
TE
 70
     0
 62
     6
  6
CONTINUOUS
  0
LAYER
  2
PH
 70
     0
 62
     6
  6
PHANTOM2
  0
LAYER
  2
WK
 70
     4
 62
     7
  6
CONTINUOUS
  0
LAYER
  2
CL
 70
     0
 62
     4
  6
CENTER2
  0
ENDTAB
  0
TABLE
  2
STYLE
 70
     7
  0
STYLE
  2
STANDARD
 70
     0
 40
0.0
 41
0.8299999999999999
 50
0.0
 71
     0
 42
12.5
  3
romans.shx
  4
extfont.shx
  0
STYLE
  2

 70
     1
 40
0.0
 41
1.0
 50
0.0
 71
     0
 42
2.5
  3
ltypeshp.shx
  4

  0
STYLE
  2
ACJISTS
 70
     0
 40
1.0
 41
1.0
 50
0.0
 71
     0
 42
2.5
  3
isocp.shx
  4
extfont.shx
  0
STYLE
  2
ACJISGDT
 70
     0
 40
0.0
 41
1.0
 50
0.0
 71
     0
 42
2.5
  3
amgdt.shx
  4

  0
STYLE
  2
ACISOTS
 70
     0
 40
1.0
 41
1.0
 50
0.0
 71
     0
 42
2.5
  3
isocp.shx
  4
extfont.shx
  0
STYLE
  2
ACISOGDT
 70
     0
 40
0.0
 41
1.0
 50
0.0
 71
     0
 42
2.5
  3
amgdt.shx
  4

  0
STYLE
  2
CONVERT
 70
     0
 40
0.0
 41
1.0
 50
0.0
 71
     0
 42
2.5
  3
monotxt.shx
  4
extfont.shx
  0
ENDTAB
  0
TABLE
  2
VIEW
 70
     6
  0
VIEW
  2
AM_VIEW1
 70
     0
 40
297.5
 10
-194.33547008547001
 20
148.25
 41
457.32905982905982
 11
0.0
 21
0.0
 31
1.0
 12
0.0
 22
0.0
 32
0.0
 42
50.0
 43
0.0
 44
0.0
 50
0.0
 71
     0
  0
VIEW
  2
AM_VIEW2
 70
     0
 40
297.5
 10
189.33547008547001
 20
148.25
 41
457.32905982905982
 11
0.0
 21
0.0
 31
1.0
 12
0.0
 22
0.0
 32
0.0
 42
50.0
 43
0.0
 44
0.0
 50
0.0
 71
     0
  0
VIEW
  2
AM_VIEW3
 70
     0
 40
297.5
 10
-194.33547008547001
 20
-149.25
 41
457.32905982905982
 11
0.0
 21
0.0
 31
1.0
 12
0.0
 22
0.0
 32
0.0
 42
50.0
 43
0.0
 44
0.0
 50
0.0
 71
     0
  0
VIEW
  2
AM_VIEW4
 70
     0
 40
297.5
 10
189.33547008547001
 20
-149.25
 41
457.32905982905982
 11
0.0
 21
0.0
 31
1.0
 12
0.0
 22
0.0
 32
0.0
 42
50.0
 43
0.0
 44
0.0
 50
0.0
 71
     0
  0
VIEW
  2
AM_VIEW5
 70
     0
 40
297.5
 10
-2.5
 20
-0.5
 41
457.32905982905982
 11
0.0
 21
0.0
 31
1.0
 12
0.0
 22
0.0
 32
0.0
 42
50.0
 43
0.0
 44
0.0
 50
0.0
 71
     0
  0
VIEW
  2
AM_VIEW6
 70
     0
 40
594.99405000000002
 10
-2.5
 20
-0.5
 41
914.6489730769232
 11
0.0
 21
0.0
 31
1.0
 12
0.0
 22
0.0
 32
0.0
 42
50.0
 43
0.0
 44
0.0
 50
0.0
 71
     0
  0
ENDTAB
  0
TABLE
  2
UCS
 70
     0
  0
ENDTAB
  0
TABLE
  2
APPID
 70
    45
  0
APPID
  2
ACAD
 70
     0
  0
APPID
  2
MCAD_NO_VIS
 70
     0
  0
APPID
  2
ACAD_TEMP_GRAPHIC
 70
     0
  0
APPID
  2
ACATTRIBSERVICES
 70
     0
  0
APPID
  2
GENIUS_GENDIMSH_14
 70
     0
  0
APPID
  2
GENIUS_GENODEF_13
 70
     0
  0
APPID
  2
GENIUS_GENOENT_13
 70
     0
  0
APPID
  2
GENIUS_GENOBJ-N-TIT_13
 70
     0
  0
APPID
  2
GENIUS_GENOLIS_13
 70
     0
  0
APPID
  2
GENIUS_GENTITLE_13
 70
     0
  0
APPID
  2
GENIUS_GENOREF_13
 70
     0
  0
APPID
  2
GENIUS_GENSCREG_15
 70
     0
  0
APPID
  2
GENIUS_GENOBJ-N-SDF_13
 70
     0
  0
APPID
  2
GENIUS_GENOBJ-N-REV_13
 70
     0
  0
APPID
  2
GENIUS_GENOBJ-N-RSSYM_13
 70
     0
  0
APPID
  2
GENIUS_GENSYMENT_13
 70
     0
  0
APPID
  2
GENIUS_GENSCSYM_13
 70
     0
  0
APPID
  2
GENIUS_GENOBJ-N-CEN_13
 70
     0
  0
APPID
  2
GENIUS_GENOBJ-N-FIL_13
 70
     0
  0
APPID
  2
GENIUS_GENBH_13
 70
     0
  0
APPID
  2
GENIUS_GENOBJ-NBEHI-BHF_13
 70
     0
  0
APPID
  2
GENIUS_GENFIL_13
 70
     0
  0
APPID
  2
GENIUS_GENOBJ-N-CHA_13
 70
     0
  0
APPID
  2
GENIUS_GENOBJ-NBEHI-BHB_13
 70
     0
  0
APPID
  2
GENIUS_GENOBJ-N-CRS_13
 70
     0
  0
APPID
  2
GENIUS_GENDTOL_13
 70
     0
  0
APPID
  2
AD_DRAW
 70
     0
  0
APPID
  2
DESIGNERASSEMBLIES
 70
     0
  0
APPID
  2
ACADM_DIM_EDIT
 70
     0
  0
APPID
  2
AMDT_DM_ADJ
 70
     0
  0
APPID
  2
ACAD_PSEXT
 70
     0
  0
APPID
  2
ACAECLAYERSTANDARD
 70
     0
  0
APPID
  2
DCO15
 70
     0
  0
APPID
  2
GENIUS_GENREC_14
 70
     0
  0
APPID
  2
GENIUS_GENOBJ-N-REC_13
 70
     0
  0
APPID
  2
GENIUS_GENOBJ-N-HTC_13
 70
     0
  0
APPID
  2
GENIUS_GENHATCH_13
 70
     0
  0
APPID
  2
ACAD_DSTYLE_DIMARC_LENGTH_
 70
     0
  0
APPID
  2
ACAD_DSTYLE_DIMFLIPARROW_W
 70
     0
  0
APPID
  2
ACAD_EXEMPT_FROM_CAD_STANDARDS
 70
     0
  0
APPID
  2
ACAD_DSTYLE_DIMBREAK
 70
     0
  0
APPID
  2
ACAD_DSTYLE_DIMJAG
 70
     0
  0
APPID
  2
ACAD_NAV_VCDISPLAY
 70
     0
  0
APPID
  2
CONTENTBLOCKICON
 70
     0
  0
APPID
  2
ACAD_MLEADERVER
 70
     0
  0
ENDTAB
  0
TABLE
  2
DIMSTYLE
 70
    27
  0
DIMSTYLE
  2
AM_JIS
 70
     0
  3

  4
"
  5
OPEN
  6

  7

 40
1.0
 41
1.6000000000000001
 42
1.0
 43
7.0
 44
1.0
 45
0.0
 46
0.0
 47
0.1
 48
0.1
140
2.5
141
0.0
142
0.0
143
0.0393701
144
1.0
145
0.0
146
0.71
147
0.625
 71
     0
 72
     0
 73
     0
 74
     0
 75
     0
 76
     0
 77
     1
 78
     8
170
     0
171
     2
172
     1
173
     0
174
     0
175
     0
176
   256
177
   256
178
   256
  0
DIMSTYLE
  2
AM_JIS$3
 70
     0
  3

  4
"
  5
OPEN
  6

  7

 40
1.0
 41
1.6000000000000001
 42
1.0
 43
7.0
 44
1.0
 45
0.0
 46
0.0
 47
0.1
 48
0.1
140
2.5
141
0.0
142
0.0
143
0.0393701
144
1.0
145
0.0
146
0.71
147
0.625
 71
     0
 72
     0
 73
     0
 74
     0
 75
     0
 76
     0
 77
     1
 78
     8
170
     0
171
     2
172
     1
173
     0
174
     0
175
     0
176
   256
177
   256
178
   256
  0
DIMSTYLE
  2
AM_JIS$4
 70
     0
  3

  4
"
  5
OPEN
  6

  7

 40
1.0
 41
1.6000000000000001
 42
1.0
 43
7.0
 44
1.0
 45
0.0
 46
0.0
 47
0.1
 48
0.1
140
2.5
141
0.0
142
0.0
143
0.0393701
144
1.0
145
0.0
146
0.71
147
0.625
 71
     0
 72
     0
 73
     0
 74
     0
 75
     0
 76
     0
 77
     1
 78
     8
170
     0
171
     2
172
     1
173
     0
174
     0
175
     0
176
   256
177
   256
178
   256
  0
DIMSTYLE
  2
AM_JIS$6
 70
     0
  3

  4
"
  5
OPEN
  6

  7

 40
1.0
 41
1.6000000000000001
 42
1.0
 43
7.0
 44
1.0
 45
0.0
 46
0.0
 47
0.1
 48
0.1
140
2.5
141
0.0
142
0.0
143
0.0393701
144
1.0
145
0.0
146
0.71
147
0.625
 71
     0
 72
     0
 73
     0
 74
     0
 75
     0
 76
     0
 77
     0
 78
     8
170
     0
171
     2
172
     1
173
     0
174
     0
175
     0
176
   256
177
   256
178
   256
  0
DIMSTYLE
  2
AM_JIS$7
 70
     0
  3

  4
"
  5
OPEN
  6

  7

 40
1.0
 41
1.6000000000000001
 42
1.0
 43
7.0
 44
1.0
 45
0.0
 46
0.0
 47
0.1
 48
0.1
140
2.5
141
0.0
142
0.0
143
0.0393701
144
1.0
145
0.0
146
0.71
147
0.625
 71
     0
 72
     0
 73
     0
 74
     0
 75
     0
 76
     0
 77
     1
 78
     8
170
     0
171
     2
172
     1
173
     0
174
     0
175
     0
176
   256
177
   256
178
   256
  0
DIMSTYLE
  2
AM_JIS$SF
 70
     0
  3

  4
"
  5
OPEN30
  6
OPEN30
  7
OPEN30
 40
1.0
 41
2.5
 42
1.0
 43
10.0
 44
1.0
 45
0.0
 46
0.0
 47
0.1
 48
0.1
140
3.5
141
0.0
142
0.0
143
0.0393701
144
1.0
145
0.0
146
0.71
147
1.5
 71
     0
 72
     0
 73
     0
 74
     0
 75
     1
 76
     1
 77
     3
 78
     8
170
     0
171
     2
172
     1
173
     0
174
     0
175
     0
176
   256
177
   256
178
     2
  0
DIMSTYLE
  2
AM_JIS$SH
 70
     0
  3

  4
"
  5
OPEN30
  6
GENAXEH
  7
OPEN30
 40
1.0
 41
2.5
 42
1.0
 43
10.0
 44
1.0
 45
0.0
 46
0.0
 47
0.1
 48
0.1
140
3.5
141
0.0
142
0.0
143
0.0393701
144
2.0
145
0.0
146
0.71
147
1.5
 71
     0
 72
     0
 73
     0
 74
     0
 75
     1
 76
     1
 77
     3
 78
     8
170
     0
171
     2
172
     1
173
     1
174
     0
175
     0
176
   256
177
   256
178
     2
  0
DIMSTYLE
  2
AM_JIS$2
 70
     0
  3

  4
"
  5
OPEN
  6

  7

 40
1.0
 41
1.6000000000000001
 42
1.0
 43
7.0
 44
1.0
 45
0.0
 46
0.0
 47
0.1
 48
0.1
140
2.5
141
0.0
142
0.0
143
0.0393701
144
1.0
145
0.0
146
0.71
147
0.625
 71
     0
 72
     0
 73
     0
 74
     0
 75
     0
 76
     0
 77
     1
 78
     8
170
     0
171
     2
172
     1
173
     0
174
     0
175
     0
176
   256
177
   256
178
   256
  0
DIMSTYLE
  2
AM_JIS$0
 70
     0
  3

  4
"
  5
OPEN
  6

  7

 40
1.0
 41
1.6000000000000001
 42
1.0
 43
7.0
 44
1.0
 45
0.0
 46
0.0
 47
0.1
 48
0.1
140
2.5
141
0.0
142
0.0
143
0.0393701
144
1.0
145
0.0
146
0.71
147
0.625
 71
     0
 72
     0
 73
     0
 74
     0
 75
     0
 76
     0
 77
     1
 78
     8
170
     0
171
     2
172
     1
173
     0
174
     0
175
     0
176
   256
177
   256
178
   256
  0
DIMSTYLE
  2
SANKYO
 70
     0
  3

  4
"
  5
DOTSMALL
  6

  7

 40
1.0
 41
4.7999999999999989
 42
1.0
 43
7.0
 44
3.0
 45
0.0
 46
0.0
 47
0.1
 48
0.1
140
7.0
141
0.0
142
0.0
143
0.0393701
144
1.0
145
0.0
146
0.71
147
1.3
 71
     0
 72
     0
 73
     0
 74
     0
 75
     0
 76
     0
 77
     1
 78
     8
170
     0
171
     2
172
     1
173
     0
174
     0
175
     0
176
   256
177
   256
178
   256
  0
DIMSTYLE
  2
SANKYO$3
 70
     0
  3

  4
"
  5
DOTSMALL
  6

  7

 40
1.0
 41
4.7999999999999989
 42
1.0
 43
10.0
 44
3.0
 45
0.0
 46
0.0
 47
0.1
 48
0.1
140
7.0
141
0.0
142
0.0
143
0.0393701
144
1.0
145
0.0
146
0.71
147
1.3
 71
     0
 72
     0
 73
     0
 74
     0
 75
     0
 76
     0
 77
     1
 78
     8
170
     0
171
     2
172
     1
173
     0
174
     0
175
     0
176
   256
177
   256
178
   256
  0
DIMSTYLE
  2
SANKYO$4
 70
     0
  3

  4
"
  5

  6
OPEN30
  7
OPEN
 40
1.0
 41
4.7999999999999989
 42
1.0
 43
10.0
 44
3.0
 45
0.0
 46
0.0
 47
0.1
 48
0.1
140
7.0
141
0.0
142
0.0
143
0.0393701
144
1.0
145
0.0
146
0.71
147
1.3
 71
     0
 72
     0
 73
     0
 74
     0
 75
     0
 76
     0
 77
     1
 78
     8
170
     0
171
     2
172
     1
173
     1
174
     0
175
     0
176
   256
177
   256
178
   256
  0
DIMSTYLE
  2
SANKYO$6
 70
     0
  3

  4
"
  5
OPEN30
  6

  7

 40
1.0
 41
4.7999999999999989
 42
1.0
 43
7.0
 44
3.0
 45
0.0
 46
0.0
 47
0.1
 48
0.1
140
7.0
141
0.0
142
0.0
143
0.0393701
144
1.0
145
0.0
146
0.71
147
1.3
 71
     0
 72
     0
 73
     0
 74
     0
 75
     0
 76
     0
 77
     0
 78
     8
170
     0
171
     2
172
     1
173
     0
174
     0
175
     0
176
   256
177
   256
178
   256
  0
DIMSTYLE
  2
SANKYO$7
 70
     0
  3

  4
"
  5
DOTSMALL
  6

  7

 40
1.0
 41
4.7999999999999989
 42
1.0
 43
7.0
 44
3.0
 45
0.0
 46
0.0
 47
0.1
 48
0.1
140
7.0
141
0.0
142
0.0
143
0.0393701
144
1.0
145
0.0
146
0.71
147
1.3
 71
     0
 72
     0
 73
     0
 74
     0
 75
     0
 76
     0
 77
     1
 78
     8
170
     0
171
     2
172
     1
173
     0
174
     0
175
     0
176
   256
177
   256
178
   256
  0
DIMSTYLE
  2
SANKYO$SF
 70
     0
  3

  4
"
  5
OPEN30
  6
OPEN30
  7
OPEN30
 40
1.0
 41
2.5
 42
1.0
 43
10.0
 44
1.0
 45
0.0
 46
0.0
 47
0.1
 48
0.1
140
3.5
141
0.0
142
0.0
143
0.0393701
144
1.0
145
0.0
146
0.71
147
1.5
 71
     0
 72
     0
 73
     0
 74
     0
 75
     1
 76
     1
 77
     3
 78
     8
170
     0
171
     2
172
     1
173
     0
174
     0
175
     0
176
   256
177
   256
178
     2
  0
DIMSTYLE
  2
SANKYO$SH
 70
     0
  3

  4
"
  5
OPEN30
  6
GENAXEH
  7
OPEN30
 40
1.0
 41
2.5
 42
1.0
 43
10.0
 44
1.0
 45
0.0
 46
0.0
 47
0.1
 48
0.1
140
3.5
141
0.0
142
0.0
143
0.0393701
144
2.0
145
0.0
146
0.71
147
1.5
 71
     0
 72
     0
 73
     0
 74
     0
 75
     1
 76
     1
 77
     3
 78
     8
170
     0
171
     2
172
     1
173
     1
174
     0
175
     0
176
   256
177
   256
178
     2
  0
DIMSTYLE
  2
SANKYO$2
 70
     0
  3

  4
"
  5
DOTSMALL
  6

  7

 40
1.0
 41
4.7999999999999989
 42
1.0
 43
7.0
 44
3.0
 45
0.0
 46
0.0
 47
0.1
 48
0.1
140
7.0
141
0.0
142
0.0
143
0.0393701
144
1.0
145
0.0
146
0.71
147
1.3
 71
     0
 72
     0
 73
     0
 74
     0
 75
     0
 76
     0
 77
     1
 78
     8
170
     0
171
     2
172
     1
173
     0
174
     0
175
     0
176
   256
177
   256
178
   256
  0
DIMSTYLE
  2
SANKYO$0
 70
     0
  3

  4
"
  5
DOTSMALL
  6

  7

 40
1.0
 41
4.7999999999999989
 42
1.0
 43
7.0
 44
3.0
 45
0.0
 46
0.0
 47
0.1
 48
0.1
140
7.0
141
0.0
142
0.0
143
0.0393701
144
1.0
145
0.0
146
0.71
147
1.3
 71
     0
 72
     0
 73
     0
 74
     0
 75
     0
 76
     0
 77
     1
 78
     8
170
     0
171
     2
172
     1
173
     0
174
     0
175
     0
176
   256
177
   256
178
   256
  0
DIMSTYLE
  2
AM_ISO
 70
     0
  3

  4
"
  5

  6

  7

 40
1.0
 41
1.6000000000000001
 42
1.0
 43
7.0
 44
1.0
 45
0.0
 46
0.0
 47
0.1
 48
0.1
140
2.5
141
0.0
142
0.0
143
0.0393701
144
1.0
145
0.0
146
0.71
147
0.625
 71
     0
 72
     0
 73
     0
 74
     0
 75
     0
 76
     0
 77
     1
 78
     8
170
     0
171
     2
172
     1
173
     0
174
     0
175
     0
176
   256
177
   256
178
   256
  0
DIMSTYLE
  2
AM_ISO$3
 70
     0
  3

  4
"
  5

  6

  7

 40
1.0
 41
1.6000000000000001
 42
1.0
 43
7.0
 44
1.0
 45
0.0
 46
0.0
 47
0.1
 48
0.1
140
2.5
141
0.0
142
0.0
143
0.0393701
144
1.0
145
0.0
146
0.71
147
0.625
 71
     0
 72
     0
 73
     0
 74
     0
 75
     0
 76
     0
 77
     1
 78
     8
170
     0
171
     2
172
     1
173
     0
174
     0
175
     0
176
   256
177
   256
178
   256
  0
DIMSTYLE
  2
AM_ISO$4
 70
     0
  3

  4
"
  5

  6

  7

 40
1.0
 41
1.6000000000000001
 42
1.0
 43
7.0
 44
1.0
 45
0.0
 46
0.0
 47
0.1
 48
0.1
140
2.5
141
0.0
142
0.0
143
0.0393701
144
1.0
145
0.0
146
0.71
147
0.625
 71
     0
 72
     0
 73
     0
 74
     0
 75
     0
 76
     0
 77
     1
 78
     8
170
     0
171
     2
172
     1
173
     0
174
     0
175
     0
176
   256
177
   256
178
   256
  0
DIMSTYLE
  2
AM_ISO$6
 70
     0
  3

  4
"
  5

  6

  7

 40
1.0
 41
1.6000000000000001
 42
1.0
 43
7.0
 44
1.0
 45
0.0
 46
0.0
 47
0.1
 48
0.1
140
2.5
141
0.0
142
0.0
143
0.0393701
144
1.0
145
0.0
146
0.71
147
0.625
 71
     0
 72
     0
 73
     0
 74
     0
 75
     0
 76
     0
 77
     0
 78
     8
170
     0
171
     2
172
     1
173
     0
174
     0
175
     0
176
   256
177
   256
178
   256
  0
DIMSTYLE
  2
AM_ISO$7
 70
     0
  3

  4
"
  5

  6

  7

 40
1.0
 41
1.6000000000000001
 42
1.0
 43
7.0
 44
1.0
 45
0.0
 46
0.0
 47
0.1
 48
0.1
140
2.5
141
0.0
142
0.0
143
0.0393701
144
1.0
145
0.0
146
0.71
147
0.625
 71
     0
 72
     0
 73
     0
 74
     0
 75
     0
 76
     0
 77
     1
 78
     8
170
     0
171
     2
172
     1
173
     0
174
     0
175
     0
176
   256
177
   256
178
   256
  0
DIMSTYLE
  2
AM_ISO$SF
 70
     0
  3

  4
"
  5

  6

  7

 40
1.0
 41
2.5
 42
1.0
 43
10.0
 44
1.0
 45
0.0
 46
0.0
 47
0.1
 48
0.1
140
3.5
141
0.0
142
0.0
143
0.0393701
144
1.0
145
0.0
146
0.71
147
1.5
 71
     0
 72
     0
 73
     0
 74
     0
 75
     1
 76
     1
 77
     1
 78
     8
170
     0
171
     2
172
     1
173
     0
174
     0
175
     0
176
   256
177
   256
178
     2
  0
DIMSTYLE
  2
AM_ISO$SH
 70
     0
  3

  4
"
  5

  6
GENAXEH
  7

 40
1.0
 41
2.5
 42
1.0
 43
10.0
 44
1.0
 45
0.0
 46
0.0
 47
0.1
 48
0.1
140
3.5
141
0.0
142
0.0
143
0.0393701
144
2.0
145
0.0
146
0.71
147
1.5
 71
     0
 72
     0
 73
     0
 74
     0
 75
     1
 76
     1
 77
     1
 78
     8
170
     0
171
     2
172
     1
173
     1
174
     0
175
     0
176
   256
177
   256
178
     2
  0
DIMSTYLE
  2
AM_ISO$2
 70
     0
  3

  4
"
  5

  6

  7

 40
1.0
 41
1.6000000000000001
 42
1.0
 43
7.0
 44
1.0
 45
0.0
 46
0.0
 47
0.1
 48
0.1
140
2.5
141
0.0
142
0.0
143
0.0393701
144
1.0
145
0.0
146
0.71
147
0.625
 71
     0
 72
     0
 73
     0
 74
     0
 75
     0
 76
     0
 77
     1
 78
     8
170
     0
171
     2
172
     1
173
     0
174
     0
175
     0
176
   256
177
   256
178
   256
  0
DIMSTYLE
  2
AM_ISO$0
 70
     0
  3

  4
"
  5

  6

  7

 40
1.0
 41
1.6000000000000001
 42
1.0
 43
7.0
 44
1.0
 45
0.0
 46
0.0
 47
0.1
 48
0.1
140
2.5
141
0.0
142
0.0
143
0.0393701
144
1.0
145
0.0
146
0.71
147
0.625
 71
     0
 72
     0
 73
     0
 74
     0
 75
     0
 76
     0
 77
     1
 78
     8
170
     0
171
     2
172
     1
173
     0
174
     0
175
     0
176
   256
177
   256
178
   256
  0
ENDTAB
  0
ENDSEC
  0
SECTION
  2
BLOCKS
  0
BLOCK
  8
0
  2
$MODEL_SPACE
 70
     0
 10
0.0
 20
0.0
 30
0.0
  3
$MODEL_SPACE
  1

  0
ENDBLK
  5
1A
  8
0
  0
BLOCK
 67
     1
  8
0
  2
$PAPER_SPACE
 70
     0
 10
0.0
 20
0.0
 30
0.0
  3
$PAPER_SPACE
  1

  0
ENDBLK
  5
17
 67
     1
  8
0
  0
BLOCK
  8
0
  2
_OPEN30
 70
     0
 10
0.0
 20
0.0
 30
0.0
  3
_OPEN30
  1

  0
LINE
  5
34
  8
0
  6
BYBLOCK
 62
     0
 10
-1.0
 20
0.26794919
 30
0.0
 11
0.0
 21
0.0
 31
0.0
  0
LINE
  5
35
  8
0
  6
BYBLOCK
 62
     0
 10
0.0
 20
0.0
 30
0.0
 11
-1.0
 21
-0.26794919
 31
0.0
  0
LINE
  5
36
  8
0
  6
BYBLOCK
 62
     0
 10
0.0
 20
0.0
 30
0.0
 11
-1.0
 21
0.0
 31
0.0
  0
ENDBLK
  5
37
  8
0
  0
BLOCK
  8
0
  2
GENAXEH
 70
     0
 10
0.0
 20
0.0
 30
0.0
  3
GENAXEH
  1

  0
LINE
  5
102
  8
0
 10
-1.0
 20
0.0
 30
0.0
 11
1.0
 21
0.0
 31
0.0
  0
ENDBLK
  5
104
  8
0
  0
BLOCK
  8
0
  2
_OPEN
 70
     0
 10
0.0
 20
0.0
 30
0.0
  3
_OPEN
  1

  0
LINE
  5
30B
  8
0
  6
BYBLOCK
 62
     0
 10
-1.0
 20
0.1666666666666666
 30
0.0
 11
0.0
 21
0.0
 31
0.0
  0
LINE
  5
30C
  8
0
  6
BYBLOCK
 62
     0
 10
-1.0
 20
-0.1666666666666666
 30
0.0
 11
0.0
 21
0.0
 31
0.0
  0
LINE
  5
30D
  8
0
  6
BYBLOCK
 62
     0
 10
0.0
 20
0.0
 30
0.0
 11
-1.0
 21
0.0
 31
0.0
  0
ENDBLK
  5
30F
  8
0
  0
BLOCK
  8
0
  2
_DOTSMALL
 70
     0
 10
0.0
 20
0.0
 30
0.0
  3
_DOTSMALL
  1

  0
POLYLINE
  5
A1C9
  8
0
  6
BYBLOCK
 62
     0
 66
     1
 10
0.0
 20
0.0
 30
0.0
 70
     1
 40
0.5
 41
0.5
  0
VERTEX
  5
1203D
  8
0
  6
BYBLOCK
 62
     0
 10
-0.0625
 20
0.0
 30
0.0
 42
1.0
  0
VERTEX
  5
1203E
  8
0
  6
BYBLOCK
 62
     0
 10
0.0625
 20
0.0
 30
0.0
 42
1.0
  0
SEQEND
  5
1203F
  8
0
  6
BYBLOCK
 62
     0
  0
ENDBLK
  5
A1CB
  8
0
  0
ENDSEC
  0
SECTION
  2
ENTITIES
  0
LINE
  5
9B1A
  8
WK
 10
23.5
 20
16.25
 30
0.0
 11
817.5
 21
16.25
 31
0.0
  0
LINE
  5
9B1B
  8
WK
 10
23.5
 20
577.74999999999989
 30
0.0
 11
817.5
 21
577.74999999999989
 31
0.0
  0
LINE
  5
9B1C
  8
WK
 10
23.5
 20
577.74999999999989
 30
0.0
 11
23.5
 21
16.25
 31
0.0
  0
LINE
  5
9B1F
  8
WK
 10
817.5
 20
577.74999999999989
 30
0.0
 11
817.5
 21
16.25
 31
0.0
  0
TEXT
  5
9BE2
  8
WK
 10
22.5
 20
16.25
 30
0.0
 40
3.2000000000000002
  1
A1
 50
90.0
 41
0.8299999999999999
  0
TEXT
  5
9BE4
  8
WK
 10
786.28571599721909
 20
579.75
 30
0.0
 40
4.0
  1
大栄建材株式会社
 41
0.82
  0
LINE
  5
9C31
  8
WK
 10
737.5
 20
34.25
 30
0.0
 11
737.5
 21
16.25
 31
0.0
  0
LINE
  5
9C32
  8
WK
 10
542.49999999999989
 20
34.25
 30
0.0
 11
542.49999999999989
 21
16.25
 31
0.0
  0
LINE
  5
9C34
  8
WK
 10
697.5
 20
34.25
 30
0.0
 11
697.5
 21
16.25
 31
0.0
  0
LINE
  5
9C35
  8
WK
 10
717.49999999999989
 20
34.25
 30
0.0
 11
717.49999999999989
 21
16.25
 31
0.0
  0
LINE
  5
9C37
  8
WK
 10
657.5
 20
34.25
 30
0.0
 11
657.5
 21
16.25
 31
0.0
  0
LINE
  5
9C38
  8
WK
 10
637.5
 20
34.25
 30
0.0
 11
637.5
 21
16.25
 31
0.0
  0
LINE
  5
9C3A
  8
WK
 10
542.49999999999989
 20
34.25
 30
0.0
 11
817.5
 21
34.25
 31
0.0
  0
LINE
  5
9C3B
  8
WK
 10
551.49999999999989
 20
26.25
 30
0.0
 11
624.5
 21
26.25
 31
0.0
  0
LINE
  5
9C3E
  8
WK
 10
657.5
 20
22.25
 30
0.0
 11
697.5
 21
22.25
 31
0.0
  0
LINE
  5
9C3F
  8
WK
 10
657.5
 20
28.25
 30
0.0
 11
697.5
 21
28.25
 31
0.0
  0
LINE
  5
9C46
  8
WK
 10
803.80947501931098
 20
25.25
 30
0.0
 11
815.80947501931109
 21
25.25
 31
0.0
  0
CIRCLE
  5
9C47
  8
WK
 10
809.80947501931098
 20
25.25
 30
0.0
 40
6.0
  0
TEXT
  5
9C56
  8
WK
 10
644.52780952380954
 20
20.649999643948512
 30
0.0
 40
3.2000000000000002
  1
1:1
 41
0.8299999999999999
 72
     4
 11
647.5
 21
22.249999643948509
 31
0.0
  0
TEXT
  5
9C57
  8
WK
 10
739.80313333333334
 20
30.150000000000009
 30
0.0
 40
3.2000000000000002
  1
図番
 41
0.8299999999999999
  0
TEXT
  5
9C58
  8
WK
 10
719.92899999999986
 20
30.150000000000009
 30
0.0
 40
3.2000000000000002
  1
検図
 41
0.8299999999999999
  0
TEXT
  5
9C59
  8
WK
 10
699.92899999999997
 20
30.150000000000009
 30
0.0
 40
3.2000000000000002
  1
作図
 41
0.8299999999999999
  0
TEXT
  5
9C5A
  8
WK
 10
658.55357250571251
 20
29.149999999999999
 30
0.0
 40
3.2000000000000002
  1
作成
 41
0.8299999999999999
  0
TEXT
  5
9C5B
  8
WK
 10
658.55357250571251
 20
23.149999999999999
 30
0.0
 40
3.2000000000000002
  1
制定
 41
0.8299999999999999
  0
TEXT
  5
9C5C
  8
WK
 10
658.55357250571251
 20
17.149999999999999
 30
0.0
 40
3.2000000000000002
  1
廃止
 41
0.8299999999999999
  0
TEXT
  5
9C5D
  8
WK
 10
638.42899999999997
 20
30.149999999999999
 30
0.0
 40
3.2000000000000002
  1
尺度
 41
0.8299999999999999
  0
TEXT
  5
9C5E
  8
WK
 10
625.49999999999989
 20
18.25
 30
0.0
 40
4.0
  1
基準図
 41
0.8
  0
TEXT
  5
9C77
  8
WK
 10
544.30313333333334
 20
30.150000000000009
 30
0.0
 40
3.2000000000000002
  1
図名
 41
0.8299999999999999
  0
LINE
  5
9C7C
  8
WK
 10
737.49999994324844
 20
558.15002446409278
 30
0.0
 11
817.49999994324844
 21
558.15002446409278
 31
0.0
  0
LINE
  5
9C89
  8
WK
 10
737.49999994324844
 20
562.95001225706164
 30
0.0
 11
817.49999994324844
 21
562.95001225706164
 31
0.0
  0
LINE
  5
9C95
  8
WK
 10
746.49999994324844
 20
572.95001225706164
 30
0.0
 11
746.49999994324844
 21
558.15002446409278
 31
0.0
  0
LINE
  5
9C96
  8
WK
 10
737.49999994324844
 20
567.75000005003062
 30
0.0
 11
817.49999994324844
 21
567.75000005003062
 31
0.0
  0
LINE
  5
9CA0
  8
WK
 10
737.49999994324844
 20
572.95001225706187
 30
0.0
 11
817.49999994324844
 21
572.95001225706187
 31
0.0
  0
LINE
  5
9CA2
  8
WK
 10
772.71856683778037
 20
577.75000005003062
 30
0.0
 11
772.71856683778014
 21
558.15002446409278
 31
0.0
  0
LINE
  5
9CA3
  8
WK
 10
762.71856683778026
 20
577.75000005003062
 30
0.0
 11
762.71856683778014
 21
558.15002446409278
 31
0.0
  0
LINE
  5
9CAB
  8
WK
 10
737.49999994324844
 20
577.75000005003062
 30
0.0
 11
737.49999994324844
 21
558.15002446409278
 31
0.0
  0
TEXT
  5
9CAC
  8
WK
 10
741.75857244896099
 20
559.40002446409289
 30
0.0
 40
2.5
  1
ｘ
 41
0.59
  0
TEXT
  5
9CAD
  8
WK
 10
741.75857244896099
 20
564.20001225706164
 30
0.0
 40
2.5
  1
ｘ
 41
0.59
  0
TEXT
  5
9CAE
  8
WK
 10
741.75857244896099
 20
569.00000005003051
 30
0.0
 40
2.5
  1
ｘ
 41
0.59
  0
TEXT
  5
9CAF
  8
WK
 10
739.1601213750539
 20
568.64997563596853
 30
0.0
 40
2.5
  1
1
 41
0.8299999999999999
 72
     4
 11
740.00000232743491
 21
569.89997563596853
 31
0.0
  0
TEXT
  5
9CEF
  8
WK
 10
739.01190708933973
 20
563.84998784299955
 30
0.0
 40
2.5
  1
2
 41
0.8299999999999999
 72
     4
 11
740.00000232743491
 21
565.09998784299955
 31
0.0
  0
TEXT
  5
9CF0
  8
WK
 10
739.01190708933973
 20
559.05000005003092
 30
0.0
 40
2.5
  1
3
 41
0.8299999999999999
 72
     4
 11
740.00000232743491
 21
560.3000000500308
 31
0.0
  0
TEXT
  5
9CF1
  8
WK
 10
755.53260687278987
 20
574.25000005003062
 30
0.0
 40
2.5
  1
付
 41
0.59
  0
TEXT
  5
9CF2
  8
WK
 10
745.59642299420909
 20
574.25000005003062
 30
0.0
 40
2.5
  1
日
 41
0.59
  0
TEXT
  5
9CF3
  8
WK
 10
768.84046250429969
 20
574.25000005003062
 30
0.0
 40
2.5
  1
当
 41
0.59
  0
TEXT
  5
9CF4
  8
WK
 10
765.57034854294386
 20
574.25000005003062
 30
0.0
 40
2.5
  1
担
 41
0.59
  0
TEXT
  5
9CF5
  8
WK
 10
790.0378253786489
 20
574.25000005003062
 30
0.0
 40
2.5
  1
記
 41
0.59
  0
TEXT
  5
9CF6
  8
WK
 10
799.28785589622703
 20
574.25000005003062
 30
0.0
 40
2.5
  1
事
 41
0.59
  0
LINE
  5
9ECF
  8
WK
 10
737.69000238465537
 20
563.54998784299971
 30
0.0
 11
742.31000227021445
 21
563.54998784299971
 31
0.0
  0
LINE
  5
9ED0
  8
WK
 10
742.31000227021445
 20
563.54998784299971
 30
0.0
 11
740.00000232743491
 21
567.55102510575091
 31
0.0
  0
LINE
  5
9ED1
  8
WK
 10
740.00000232743491
 20
567.55102510575091
 30
0.0
 11
737.69000238465537
 21
563.54998784299971
 31
0.0
  0
LINE
  5
9ED2
  8
WK
 10
737.69000238465537
 20
568.34997563596858
 30
0.0
 11
742.31000227021445
 21
568.34997563596858
 31
0.0
  0
LINE
  5
9ED3
  8
WK
 10
742.31000227021445
 20
568.34997563596858
 30
0.0
 11
740.00000232743491
 21
572.35101289871977
 31
0.0
  0
LINE
  5
9ED4
  8
WK
 10
740.00000232743491
 20
572.35101289871977
 30
0.0
 11
737.69000238465537
 21
568.34997563596858
 31
0.0
  0
LINE
  5
9ED5
  8
WK
 10
737.69000238465537
 20
558.75000005003085
 30
0.0
 11
742.31000227021445
 21
558.75000005003085
 31
0.0
  0
LINE
  5
9ED6
  8
WK
 10
742.31000227021445
 20
558.75000005003085
 30
0.0
 11
740.00000232743491
 21
562.75103731278216
 31
0.0
  0
LINE
  5
9ED7
  8
WK
 10
740.00000232743491
 20
562.75103731278216
 30
0.0
 11
737.69000238465537
 21
558.75000005003085
 31
0.0
  0
LINE
  5
EE20
  8
KI1
 10
61.5
 20
445.24999999999221
 30
0.0
 11
228.5
 21
445.24999999999221
 31
0.0
  0
LINE
  5
EE22
  8
KI1
 10
228.5
 20
445.24999999999221
 30
0.0
 11
228.5
 21
319.24999999999233
 31
0.0
  0
LINE
  5
EE23
  8
KI1
 10
61.49999999999995
 20
319.24999999999233
 30
0.0
 11
61.5
 21
445.24999999999221
 31
0.0
  0
LINE
  5
EE25
  8
KI1
 10
187.9999999999998
 20
418.24999999999221
 30
0.0
 11
221.0
 21
418.24999999999221
 31
0.0
1001
GENIUS_GENREC_14
1002
{
1000
PYDIR
1011
187.9999999999998
1021
0.0
1031
0.0
1021
62.182052160362097
1031
0.0
1002
}
1002
{
1000
PXDIR
1011
225.5
1021
0.0
1031
0.0
1021
418.24999999999221
1031
0.0
1002
}
1002
{
1000
PORI
1011
187.9999999999998
1021
0.0
1031
0.0
1021
418.24999999999221
1031
0.0
1002
}
1002
{
1000
PINS
1011
187.9999999999998
1021
0.0
1031
0.0
1021
418.24999999999221
1031
0.0
1002
}
1002
{
1000
PINS2
1011
225.5
1021
0.0
1031
0.0
1021
62.182052160362097
1031
0.0
1002
}
1002
{
1000
C
1070
     1
1002
}
1001
GENIUS_GENOBJ-N-REC_13
1002
{
1000
OWNER
1000
GEN
1002
}
1001
GENIUS_GENODEF_13
1002
{
1000
HIER
1070
     0
1002
}
1002
{
1000
MANEDIT
1070
     0
1002
}
1002
{
1000
NOSEL
1070
     0
1002
}
1002
{
1000
BEHIND
1070
     0
1002
}
1002
{
1000
OTHER
1070
     0
1002
}
1002
{
1000
REACTOR
1002
}
  0
LINE
  5
EE26
  8
KI1
 10
221.0
 20
418.24999999999221
 30
0.0
 11
221.0
 21
319.24999999999233
 31
0.0
1001
GENIUS_GENREC_14
1002
{
1000
PYDIR
1011
187.9999999999998
1021
0.0
1031
0.0
1021
62.182052160362097
1031
0.0
1002
}
1002
{
1000
PXDIR
1011
225.5
1021
0.0
1031
0.0
1021
418.24999999999221
1031
0.0
1002
}
1002
{
1000
PORI
1011
187.9999999999998
1021
0.0
1031
0.0
1021
418.24999999999221
1031
0.0
1002
}
1002
{
1000
PINS
1011
187.9999999999998
1021
0.0
1031
0.0
1021
418.24999999999221
1031
0.0
1002
}
1002
{
1000
PINS2
1011
225.5
1021
0.0
1031
0.0
1021
62.182052160362097
1031
0.0
1002
}
1002
{
1000
C
1070
     1
1002
}
1001
GENIUS_GENOBJ-N-REC_13
1002
{
1000
OWNER
1000
GEN
1002
}
1001
GENIUS_GENODEF_13
1002
{
1000
HIER
1070
     0
1002
}
1002
{
1000
MANEDIT
1070
     0
1002
}
1002
{
1000
NOSEL
1070
     0
1002
}
1002
{
1000
BEHIND
1070
     0
1002
}
1002
{
1000
OTHER
1070
     0
1002
}
1002
{
1000
REACTOR
1002
}
  0
LINE
  5
EE27
  8
KI1
 10
187.9999999999998
 20
319.24999999999233
 30
0.0
 11
187.9999999999998
 21
418.24999999999221
 31
0.0
1001
GENIUS_GENREC_14
1002
{
1000
PYDIR
1011
187.9999999999998
1021
0.0
1031
0.0
1021
62.182052160362097
1031
0.0
1002
}
1002
{
1000
PXDIR
1011
225.5
1021
0.0
1031
0.0
1021
418.24999999999221
1031
0.0
1002
}
1002
{
1000
PORI
1011
187.9999999999998
1021
0.0
1031
0.0
1021
418.24999999999221
1031
0.0
1002
}
1002
{
1000
PINS
1011
187.9999999999998
1021
0.0
1031
0.0
1021
418.24999999999221
1031
0.0
1002
}
1002
{
1000
PINS2
1011
225.5
1021
0.0
1031
0.0
1021
62.182052160362097
1031
0.0
1002
}
1002
{
1000
C
1070
     1
1002
}
1001
GENIUS_GENOBJ-N-REC_13
1002
{
1000
OWNER
1000
GEN
1002
}
1001
GENIUS_GENODEF_13
1002
{
1000
HIER
1070
     0
1002
}
1002
{
1000
MANEDIT
1070
     0
1002
}
1002
{
1000
NOSEL
1070
     0
1002
}
1002
{
1000
BEHIND
1070
     0
1002
}
1002
{
1000
OTHER
1070
     0
1002
}
1002
{
1000
REACTOR
1002
}
  0
LINE
  5
EE28
  8
OS
 10
192.99999999999989
 20
206.2499999999923
 30
0.0
 11
41.5
 21
206.2499999999923
 31
0.0
  0
LINE
  5
EE29
  8
OS
 10
192.99999999999989
 20
209.24999999999221
 30
0.0
 11
41.5
 21
209.24999999999221
 31
0.0
  0
LINE
  5
EE2A
  8
OS
 10
192.99999999999989
 20
212.24999999999221
 30
0.0
 11
41.5
 21
212.2499999999923
 31
0.0
  0
LINE
  5
EE2B
  8
OS
 10
192.99999999999989
 20
215.2499999999923
 30
0.0
 11
41.5
 21
215.2499999999923
 31
0.0
  0
LINE
  5
EE2C
  8
OS
 10
192.99999999999989
 20
203.2499999999923
 30
0.0
 11
41.5
 21
203.2499999999923
 31
0.0
  0
LINE
  5
EE2E
  8
KI1
 10
61.500000000000107
 20
317.24999999999233
 30
0.0
 11
61.500000000000107
 21
215.2499999999923
 31
0.0
  0
LINE
  5
EE30
  8
KI1
 10
228.5
 20
317.24999999999233
 30
0.0
 11
228.5
 21
215.2499999999923
 31
0.0
  0
LINE
  5
EE31
  8
KI1
 10
192.99999999999989
 20
203.2499999999925
 30
0.0
 11
217.99999999999989
 21
203.2499999999925
 31
0.0
  0
LINE
  5
EE32
  8
KI1
 10
192.99999999999989
 20
203.2499999999925
 30
0.0
 11
192.99999999999989
 21
215.24999999998431
 31
0.0
  0
LINE
  5
EE33
  8
KI1
 10
217.99999999999989
 20
203.2499999999925
 30
0.0
 11
217.99999999999989
 21
215.24999999998431
 31
0.0
  0
LINE
  5
EE34
  8
OS
 10
248.5
 20
215.2499999999923
 30
0.0
 11
217.99999999999989
 21
215.2499999999923
 31
0.0
  0
LINE
  5
EE35
  8
OS
 10
248.5
 20
212.2499999999923
 30
0.0
 11
217.99999999999989
 21
212.2499999999923
 31
0.0
  0
LINE
  5
EE36
  8
OS
 10
248.5
 20
209.24999999999221
 30
0.0
 11
217.99999999999989
 21
209.24999999999221
 31
0.0
  0
LINE
  5
EE37
  8
OS
 10
248.5
 20
203.2499999999923
 30
0.0
 11
217.99999999999989
 21
203.2499999999923
 31
0.0
  0
LINE
  5
EE38
  8
OS
 10
248.5
 20
206.2499999999923
 30
0.0
 11
217.99999999999989
 21
206.2499999999923
 31
0.0
  0
LINE
  5
EE3B
  8
KI1
 10
221.0
 20
317.24999999999233
 30
0.0
 11
221.0
 21
225.2500000000004
 31
0.0
  0
LINE
  5
EE3C
  8
KI1
 10
188.0
 20
317.24999999999233
 30
0.0
 11
188.00000000000011
 21
225.2500000000004
 31
0.0
  0
LINE
  5
EE3D
  8
KI1
 10
188.00000000000011
 20
225.2500000000004
 30
0.0
 11
221.0
 21
225.2500000000004
 31
0.0
  0
LINE
  5
EE3E
  8
KI1
 10
217.99999999999989
 20
215.2499999999923
 30
0.0
 11
228.5
 21
215.2499999999923
 31
0.0
  0
LINE
  5
EE3F
  8
KI1
 10
61.500000000000107
 20
215.2499999999923
 30
0.0
 11
192.99999999999989
 21
215.2499999999923
 31
0.0
  0
LINE
  5
EE40
  8
OS
 10
192.99999999999989
 20
215.2499999999923
 30
0.0
 11
192.99999999999989
 21
203.2499999999925
 31
0.0
  0
LINE
  5
EE41
  8
OS
 10
217.99999999999989
 20
215.2499999999923
 30
0.0
 11
217.99999999999989
 21
203.2499999999923
 31
0.0
  0
LINE
  5
EE42
  8
OS
 10
248.5
 20
55.249999999992269
 30
0.0
 11
41.5
 21
55.249999999992269
 31
0.0
  0
LINE
  5
EE43
  8
KI1
 10
61.50000000000005
 20
165.2499999999923
 30
0.0
 11
61.50000000000005
 21
55.249999999992269
 31
0.0
  0
LINE
  5
EE45
  8
KI1
 10
228.5
 20
165.2499999999923
 30
0.0
 11
228.5
 21
55.249999999992269
 31
0.0
  0
LINE
  5
EE47
  8
OS
 10
248.5
 20
52.249999999992262
 30
0.0
 11
41.5
 21
52.249999999992262
 31
0.0
  0
LINE
  5
EE48
  8
OS
 10
248.5
 20
43.249999999992269
 30
0.0
 11
41.5
 21
43.249999999992269
 31
0.0
  0
LINE
  5
EE49
  8
OS
 10
248.5
 20
46.249999999992269
 30
0.0
 11
41.5
 21
46.249999999992269
 31
0.0
  0
LINE
  5
EE4A
  8
OS
 10
248.5
 20
49.249999999992269
 30
0.0
 11
41.5
 21
49.249999999992269
 31
0.0
  0
LINE
  5
EE4C
  8
KI1
 10
61.50000000000005
 20
55.249999999992269
 30
0.0
 11
228.5
 21
55.249999999992269
 31
0.0
  0
LINE
  5
EE4E
  8
KI1
 10
221.00000000000011
 20
165.2499999999923
 30
0.0
 11
221.00000000000011
 21
68.250000000000568
 31
0.0
  0
LINE
  5
EE4F
  8
KI1
 10
188.00000000000011
 20
165.2499999999923
 30
0.0
 11
188.0000000000002
 21
68.250000000000455
 31
0.0
  0
LINE
  5
EE50
  8
KI1
 10
188.0000000000002
 20
68.250000000000455
 30
0.0
 11
221.00000000000011
 21
68.250000000000455
 31
0.0
  0
LINE
  5
EE51
  8
OS
 10
452.99999999999972
 20
432.25000000000028
 30
0.0
 11
311.5
 21
432.25000000000028
 31
0.0
  0
LINE
  5
EE52
  8
OS
 10
452.99999999999972
 20
435.25000000000028
 30
0.0
 11
311.5
 21
435.25000000000028
 31
0.0
  0
LINE
  5
EE53
  8
OS
 10
452.99999999999972
 20
438.25000000000028
 30
0.0
 11
311.5
 21
438.25000000000028
 31
0.0
  0
LINE
  5
EE54
  8
OS
 10
452.99999999999972
 20
441.25000000000023
 30
0.0
 11
311.5
 21
441.25000000000028
 31
0.0
  0
LINE
  5
EE55
  8
OS
 10
451.99999999999972
 20
429.25000000000028
 30
0.0
 11
311.5
 21
429.25000000000028
 31
0.0
  0
LINE
  5
EE56
  8
TS
 10
321.5
 20
429.2500000000083
 30
0.0
 11
488.49999999999989
 21
429.2500000000083
 31
0.0
  0
LINE
  5
EE58
  8
KI1
 10
321.5
 20
521.25000000000034
 30
0.0
 11
321.5
 21
441.25000000000028
 31
0.0
  0
LINE
  5
EE59
  8
TS
 10
321.5
 20
441.25000000000028
 30
0.0
 11
321.5
 21
429.2500000000083
 31
0.0
  0
LINE
  5
EE5B
  8
KI1
 10
477.99999999999972
 20
429.25000000000051
 30
0.0
 11
477.99999999999972
 21
441.24999999999221
 31
0.0
  0
LINE
  5
EE5C
  8
KI1
 10
452.99999999999972
 20
429.25000000000051
 30
0.0
 11
452.99999999999972
 21
441.24999999999221
 31
0.0
  0
LINE
  5
EE5E
  8
KI1
 10
488.49999999999989
 20
521.25000000000034
 30
0.0
 11
488.49999999999989
 21
441.25000000000028
 31
0.0
  0
LINE
  5
EE5F
  8
TS
 10
488.49999999999989
 20
441.25000000000028
 30
0.0
 11
488.49999999999989
 21
429.2500000000083
 31
0.0
  0
LINE
  5
EE60
  8
OS
 10
508.49999999999989
 20
429.25000000000028
 30
0.0
 11
477.99999999999972
 21
429.2500000000083
 31
0.0
  0
LINE
  5
EE61
  8
OS
 10
508.49999999999989
 20
438.25000000000028
 30
0.0
 11
477.99999999999972
 21
438.25000000000028
 31
0.0
  0
LINE
  5
EE62
  8
OS
 10
508.49999999999989
 20
435.25000000000028
 30
0.0
 11
477.99999999999972
 21
435.25000000000023
 31
0.0
  0
LINE
  5
EE63
  8
OS
 10
508.49999999999989
 20
432.25000000000028
 30
0.0
 11
477.99999999999972
 21
432.25000000000028
 31
0.0
  0
LINE
  5
EE64
  8
KI1
 10
452.99999999999972
 20
429.25000000000051
 30
0.0
 11
477.99999999999972
 21
429.25000000000051
 31
0.0
  0
LINE
  5
EE66
  8
OS
 10
508.49999999999989
 20
441.25000000000028
 30
0.0
 11
477.99999999999972
 21
441.25000000000028
 31
0.0
  0
LINE
  5
EE67
  8
KI1
 10
571.49999999999989
 20
429.2500000000083
 30
0.0
 11
584.49999999999989
 21
429.2500000000083
 31
0.0
  0
LINE
  5
EE68
  8
KI1
 10
581.5
 20
521.25000000000034
 30
0.0
 11
581.5
 21
441.25000000000028
 31
0.0
  0
LINE
  5
EE69
  8
TS
 10
581.5
 20
441.25000000000028
 30
0.0
 11
581.5
 21
429.2500000000083
 31
0.0
  0
LINE
  5
EE6B
  8
OS
 10
768.5
 20
429.25000000000028
 30
0.0
 11
571.49999999999989
 21
429.25000000000028
 31
0.0
  0
LINE
  5
EE6C
  8
OS
 10
584.49999999999989
 20
441.25000000000028
 30
0.0
 11
571.49999999999989
 21
441.25000000000028
 31
0.0
  0
LINE
  5
EE6D
  8
OS
 10
584.49999999999989
 20
438.25000000000028
 30
0.0
 11
571.49999999999989
 21
438.25000000000028
 31
0.0
  0
LINE
  5
EE6E
  8
OS
 10
584.49999999999989
 20
435.25000000000028
 30
0.0
 11
571.49999999999989
 21
435.25000000000028
 31
0.0
  0
LINE
  5
EE6F
  8
OS
 10
584.49999999999989
 20
432.25000000000028
 30
0.0
 11
571.49999999999989
 21
432.25000000000028
 31
0.0
  0
LINE
  5
EE71
  8
OS
 10
768.5
 20
432.25000000000028
 30
0.0
 11
745.5
 21
432.25000000000028
 31
0.0
  0
LINE
  5
EE72
  8
OS
 10
768.5
 20
435.25000000000028
 30
0.0
 11
745.5
 21
435.25000000000028
 31
0.0
  0
LINE
  5
EE73
  8
OS
 10
768.5
 20
438.25000000000028
 30
0.0
 11
745.5
 21
438.25000000000028
 31
0.0
  0
LINE
  5
EE74
  8
OS
 10
768.5
 20
441.25000000000028
 30
0.0
 11
745.5
 21
441.25000000000028
 31
0.0
  0
LINE
  5
EE75
  8
KI1
 10
748.5
 20
521.25000000000034
 30
0.0
 11
748.5
 21
441.25000000000028
 31
0.0
  0
LINE
  5
EE76
  8
TS
 10
748.5
 20
441.25000000000028
 30
0.0
 11
748.5
 21
429.2500000000083
 31
0.0
  0
LINE
  5
EE79
  8
KI1
 10
741.0
 20
521.25000000000034
 30
0.0
 11
741.0
 21
451.25000000000841
 31
0.0
  0
LINE
  5
EE7A
  8
KI1
 10
708.0
 20
521.25000000000034
 30
0.0
 11
708.0
 21
451.25000000000853
 31
0.0
  0
LINE
  5
EE7B
  8
KI1
 10
708.0
 20
451.25000000000853
 30
0.0
 11
741.0
 21
451.25000000000841
 31
0.0
  0
LINE
  5
EE7C
  8
KI1
 10
480.99999999999977
 20
521.25000000000034
 30
0.0
 11
480.99999999999977
 21
451.25000000000841
 31
0.0
  0
LINE
  5
EE7D
  8
KI1
 10
447.99999999999989
 20
521.25000000000034
 30
0.0
 11
448.0
 21
451.25000000000853
 31
0.0
  0
LINE
  5
EE7E
  8
KI1
 10
448.0
 20
451.25000000000853
 30
0.0
 11
480.99999999999977
 21
451.25000000000841
 31
0.0
  0
LINE
  5
EE80
  8
TS
 10
748.5
 20
429.2500000000083
 30
0.0
 11
599.5
 21
429.2500000000083
 31
0.0
  0
LINE
  5
EE81
  8
OS
 10
452.99999999999972
 20
441.24999999999221
 30
0.0
 11
452.99999999999972
 21
429.25000000000028
 31
0.0
  0
LINE
  5
EE82
  8
OS
 10
477.99999999999972
 20
441.24999999999221
 30
0.0
 11
477.99999999999972
 21
429.2500000000083
 31
0.0
  0
LINE
  5
EE83
  8
OS
 10
584.49999999999989
 20
441.25000000000028
 30
0.0
 11
584.49999999999989
 21
429.2500000000083
 31
0.0
  0
LINE
  5
EE84
  8
OS
 10
745.5
 20
441.25000000000028
 30
0.0
 11
745.5
 21
429.25000000000028
 31
0.0
  0
TEXT
  5
EE96
  8
MJ
 10
41.5
 20
546.25000000000034
 30
0.0
 40
7.0
  1
ジャストカット枠
 41
0.8299999999999999
  0
TEXT
  5
EEBE
  8
MJ
 10
321.5
 20
546.25000000000034
 30
0.0
 40
7.0
  1
伸ばし枠
 41
0.8299999999999999
  0
LINE
  5
EED9
  8
SU
 10
92.162121764816206
 20
248.25000000000051
 30
0.0
 11
168.94586558246959
 21
248.25000000000051
 31
0.0
  0
TEXT
  5
EEDA
  8
SU
 10
93.137931560213914
 20
250.52500000000049
 30
0.0
 40
7.0
  1
埋込沓摺（床先張り用）
 41
0.8299999999999999
  0
TEXT
  5
EEDB
  8
SU
 10
93.137931560213914
 20
238.97500000000039
 30
0.0
 40
7.0
  1
［オプション］
 41
0.8299999999999999
  0
LINE
  5
EEDC
  8
SU
 10
168.94586558246959
 20
248.25000000000051
 30
0.0
 11
187.17501986870599
 21
216.6761785972264
 31
0.0
  0
LINE
  5
EEDE
  8
SU
 10
87.148529397468735
 20
88.250000000000568
 30
0.0
 11
170.82661606296369
 21
88.250000000000554
 31
0.0
  0
TEXT
  5
EEDF
  8
SU
 10
88.124339192866444
 20
90.525000000000574
 30
0.0
 40
7.0
  1
直張り沓摺（床先張り用）
 41
0.8299999999999999
  0
TEXT
  5
EEE0
  8
SU
 10
88.124339192866444
 20
78.975000000000577
 30
0.0
 40
7.0
  1
［オプション］
 41
0.8299999999999999
  0
LINE
  5
EEE1
  8
SU
 10
170.82661606296369
 20
88.250000000000554
 30
0.0
 11
188.1039238185387
 21
58.324825149340107
 31
0.0
  0
LINE
  5
EEE3
  8
SU
 10
352.38380983652161
 20
474.25000000000841
 30
0.0
 11
428.94586558246971
 21
474.25000000000841
 31
0.0
  0
TEXT
  5
EEE4
  8
SU
 10
353.35961963191932
 20
476.52500000000862
 30
0.0
 40
7.0
  1
埋込沓摺（床先張り用）
 41
0.8299999999999999
  0
TEXT
  5
EEE5
  8
SU
 10
353.35961963191932
 20
464.97500000000849
 30
0.0
 40
7.0
  1
［オプション］
 41
0.8299999999999999
  0
LINE
  5
EEE6
  8
SU
 10
428.94586558246971
 20
474.25000000000841
 30
0.0
 11
447.17501986870587
 21
442.67617859723441
 31
0.0
  0
LINE
  5
EEE8
  8
SU
 10
606.14415759718065
 20
474.25000000000858
 30
0.0
 11
674.50084985663864
 21
474.25000000000858
 31
0.0
  0
TEXT
  5
EEE9
  8
SU
 10
607.11996739257825
 20
476.52500000000862
 30
0.0
 40
7.0
  1
薄沓摺（床後張り用）
 41
0.8299999999999999
  0
TEXT
  5
EEEA
  8
SU
 10
607.11996739257825
 20
464.97500000000872
 30
0.0
 40
7.0
  1
［オプション］
 41
0.8299999999999999
  0
LINE
  5
EEEB
  8
SU
 10
674.50084985663841
 20
474.25000000000858
 30
0.0
 11
694.2135028479388
 21
440.10668346710162
 31
0.0
  0
LINE
  5
FA58
  8
TE
 10
239.1066017179628
 20
434.64339828235842
 30
0.0
 11
217.8933982820372
 21
455.85660171762601
 31
0.0
  0
LINE
  5
FA59
  8
TE
 10
217.89531974592839
 20
434.64147577363877
 30
0.0
 11
239.10468025407161
 21
455.85852422634571
 31
0.0
  0
LINE
  5
FA5A
  8
TE
 10
239.1066017179628
 20
204.6433982823585
 30
0.0
 11
217.8933982820372
 21
225.85660171762601
 31
0.0
  0
LINE
  5
FA5B
  8
TE
 10
217.89531974592839
 20
204.6414757736388
 30
0.0
 11
239.10468025407161
 21
225.85852422634571
 31
0.0
  0
LINE
  5
FA5C
  8
TE
 10
239.1066017179628
 20
44.643398282358469
 30
0.0
 11
217.8933982820372
 21
65.856601717626063
 31
0.0
  0
LINE
  5
FA5D
  8
TE
 10
217.89531974592839
 20
44.641475773638831
 30
0.0
 11
239.10468025407161
 21
65.858524226345693
 31
0.0
  0
LINE
  5
FA62
  8
TE
 10
499.1066017179628
 20
430.64339828236649
 30
0.0
 11
477.8933982820372
 21
451.85660171763408
 31
0.0
  0
LINE
  5
FA63
  8
TE
 10
477.89531974592842
 20
430.6414757736469
 30
0.0
 11
499.10468025407152
 21
451.85852422635372
 31
0.0
  0
LINE
  5
FA64
  8
TE
 10
759.1066017179628
 20
430.64339828236649
 30
0.0
 11
737.89339828203708
 21
451.85660171763408
 31
0.0
  0
LINE
  5
FA65
  8
TE
 10
737.89531974592842
 20
430.6414757736469
 30
0.0
 11
759.10468025407158
 21
451.85852422635372
 31
0.0
  0
LINE
  5
FA68
  8
KI1
 10
586.99999523162717
 20
444.25000000000841
 30
0.0
 11
742.99999809265
 21
444.25000000000841
 31
0.0
  0
LINE
  5
FA69
  8
KI1
 10
745.5
 20
441.74999809265842
 30
0.0
 11
745.5
 21
429.2500000000083
 31
0.0
  0
LINE
  5
FA6A
  8
KI1
 10
584.49999999999989
 20
441.7500057220563
 30
0.0
 11
584.49999999999989
 21
429.2500000000083
 31
0.0
  0
LINE
  5
FA6B
  8
KI1
 10
584.49999999999989
 20
441.7500057220563
 30
0.0
 11
586.99999523162717
 21
444.25000000000841
 31
0.0
  0
LINE
  5
FA6C
  8
KI1
 10
742.99999809265
 20
444.25000000000841
 30
0.0
 11
745.5
 21
441.74999809265842
 31
0.0
  0
LINE
  5
FA70
  8
KI1
 10
584.49999999999989
 20
429.2500000000083
 30
0.0
 11
745.5
 21
429.2500000000083
 31
0.0
  0
LINE
  5
FA72
  8
SU
 10
221.0
 20
391.74999999999238
 30
0.0
 11
225.5
 21
391.74999999999238
 31
0.0
  0
LINE
  5
FA73
  8
SU
 10
245.11659633914741
 20
391.74999999999238
 30
0.0
 11
225.5
 21
391.74999999999238
 31
0.0
  0
LINE
  5
FA76
  8
SU
 10
221.0
 20
417.24999999999233
 30
0.0
 11
221.0
 21
388.74999999999233
 31
0.0
  0
LINE
  5
FA77
  8
SU
 10
187.9999999999998
 20
391.74999999999233
 30
0.0
 11
221.0
 21
391.74999999999233
 31
0.0
  0
LINE
  5
FA7A
  8
SU
 10
187.9999999999998
 20
417.24999999999233
 30
0.0
 11
187.9999999999998
 21
388.7499999999925
 31
0.0
  0
LINE
  5
FA7B
  8
SU
 10
185.0
 20
391.74999999999238
 30
0.0
 11
187.9999999999998
 21
391.74999999999238
 31
0.0
  0
LINE
  5
FA7C
  8
SU
 10
186.99999999999989
 20
391.74999999999238
 30
0.0
 11
179.6397459621553
 21
376.74999999999233
 31
0.0
  0
LINE
  5
FA7D
  8
SU
 10
179.6397459621553
 20
376.74999999999233
 30
0.0
 11
172.8897459621553
 21
376.74999999999233
 31
0.0
  0
LINE
  5
FA80
  8
SU
 10
185.0
 20
410.7499999999921
 30
0.0
 11
185.0
 21
388.74999999999233
 31
0.0
  0
LINE
  5
FA81
  8
SU
 10
167.0
 20
391.74999999999233
 30
0.0
 11
185.0
 21
391.74999999999233
 31
0.0
  0
LINE
  5
FA84
  8
SU
 10
167.0
 20
410.74999999999221
 30
0.0
 11
167.0
 21
388.74999999999233
 31
0.0
  0
LINE
  5
FA85
  8
SU
 10
64.5
 20
391.74999999999233
 30
0.0
 11
167.0
 21
391.74999999999233
 31
0.0
  0
LINE
  5
FA89
  8
SU
 10
228.5
 20
444.24999999999221
 30
0.0
 11
228.5
 21
358.74999999999238
 31
0.0
  0
LINE
  5
FA8A
  8
SU
 10
225.5
 20
361.74999999999238
 30
0.0
 11
228.5
 21
361.74999999999238
 31
0.0
  0
LINE
  5
FA8B
  8
SU
 10
228.5
 20
361.74999999999238
 30
0.0
 11
239.77333333333331
 21
361.74999999999238
 31
0.0
  0
LINE
  5
FA8E
  8
SU
 10
225.5
 20
420.24999999999221
 30
0.0
 11
225.5
 21
358.74999999999233
 31
0.0
  0
LINE
  5
FA8F
  8
SU
 10
64.5
 20
361.74999999999233
 30
0.0
 11
225.5
 21
361.74999999999233
 31
0.0
  0
LINE
  5
FA92
  8
SU
 10
64.5
 20
420.24999999999221
 30
0.0
 11
64.5
 21
358.74999999999233
 31
0.0
  0
LINE
  5
FA93
  8
SU
 10
61.5
 20
444.24999999999221
 30
0.0
 11
61.5
 21
358.74999999999233
 31
0.0
  0
LINE
  5
FA94
  8
SU
 10
64.5
 20
361.74999999999233
 30
0.0
 11
61.5
 21
361.74999999999233
 31
0.0
  0
LINE
  5
FA95
  8
SU
 10
61.5
 20
361.74999999999233
 30
0.0
 11
50.226666666666652
 21
361.74999999999233
 31
0.0
  0
LINE
  5
FA99
  8
KI1
 10
168.0000009999998
 20
421.24999999999221
 30
0.0
 11
67.0
 21
421.24999999999233
 31
0.0
  0
LINE
  5
FA9A
  8
KI1
 10
64.5
 20
445.24999999999221
 30
0.0
 11
225.5
 21
445.24999999999221
 31
0.0
  0
LINE
  5
FA9B
  8
KI1
 10
64.5
 20
423.74999999999221
 30
0.0
 11
67.0
 21
421.24999999999233
 31
0.0
1001
GENIUS_GENFIL_13
1070
     0
1040
2.5
1040
2.5
1040
20.0
1040
0.0
1002
{
1002
}
1001
GENIUS_GENOBJ-N-CHA_13
1002
{
1000
OWNER
1000
GEN
1002
}
1001
GENIUS_GENODEF_13
1002
{
1000
HIER
1070
     0
1002
}
1002
{
1000
MANEDIT
1070
     0
1002
}
1002
{
1000
NOSEL
1070
     0
1002
}
1002
{
1000
BEHIND
1070
     0
1002
}
1002
{
1000
OTHER
1070
     0
1002
}
1002
{
1000
REACTOR
1002
}
  0
LINE
  5
FA9C
  8
KI1
 10
64.5
 20
423.74999999999221
 30
0.0
 11
64.5
 21
445.24999999999221
 31
0.0
  0
LINE
  5
FA9D
  8
KI1
 10
223.0
 20
421.24999999999233
 30
0.0
 11
183.99999900000009
 21
421.24999999999233
 31
0.0
  0
LINE
  5
FAA1
  8
KI1
 10
225.5
 20
423.74999999999221
 30
0.0
 11
223.0
 21
421.24999999999233
 31
0.0
1001
GENIUS_GENFIL_13
1070
     0
1040
2.5
1040
2.5
1040
20.0
1040
0.0
1002
{
1002
}
1001
GENIUS_GENOBJ-N-CHA_13
1002
{
1000
OWNER
1000
GEN
1002
}
1001
GENIUS_GENODEF_13
1002
{
1000
HIER
1070
     0
1002
}
1002
{
1000
MANEDIT
1070
     0
1002
}
1002
{
1000
NOSEL
1070
     0
1002
}
1002
{
1000
BEHIND
1070
     0
1002
}
1002
{
1000
OTHER
1070
     0
1002
}
1002
{
1000
REACTOR
1002
}
  0
LINE
  5
FAA2
  8
KI1
 10
225.5
 20
445.24999999999221
 30
0.0
 11
225.5
 21
423.74999999999221
 31
0.0
  0
LINE
  5
FAA4
  8
SU
 10
694.2135028479388
 20
440.10668346710162
 30
0.0
 11
692.74051855902724
 21
442.02624217455292
 31
0.0
  0
LINE
  5
FAA5
  8
SU
 10
694.2135028479388
 20
440.10668346710162
 30
0.0
 11
693.2872735124663
 21
442.3426846552951
 31
0.0
  0
LINE
  5
FAA6
  8
SU
 10
447.17501986870587
 20
442.67617859723441
 30
0.0
 11
445.70203557979431
 21
444.5957373046856
 31
0.0
  0
LINE
  5
FAA7
  8
SU
 10
447.17501986870587
 20
442.67617859723441
 30
0.0
 11
446.24879053323338
 21
444.91217978542778
 31
0.0
  0
LINE
  5
FAA8
  8
SU
 10
188.1039238185387
 20
58.324825149340107
 30
0.0
 11
186.63093952962711
 21
60.244383856791359
 31
0.0
  0
LINE
  5
FAA9
  8
SU
 10
188.1039238185387
 20
58.324825149340107
 30
0.0
 11
187.1776944830662
 21
60.560826337533548
 31
0.0
  0
LINE
  5
FAAA
  8
SU
 10
187.17501986870599
 20
216.6761785972264
 30
0.0
 11
185.7020355797944
 21
218.59573730467761
 31
0.0
  0
LINE
  5
FAAB
  8
SU
 10
187.17501986870599
 20
216.6761785972264
 30
0.0
 11
186.2487905332334
 21
218.9121797854198
 31
0.0
  0
LINE
  5
FB88
  8
SU
 10
748.5
 20
428.25000000000841
 30
0.0
 11
748.5
 21
406.25
 31
0.0
  0
LINE
  5
FB89
  8
SU
 10
745.5
 20
409.25
 30
0.0
 11
748.5
 21
409.25
 31
0.0
  0
LINE
  5
FB8A
  8
SU
 10
748.5
 20
409.25
 30
0.0
 11
759.77333333333331
 21
409.25
 31
0.0
  0
LINE
  5
FB8D
  8
SU
 10
581.5
 20
428.25000000000841
 30
0.0
 11
581.5
 21
406.24999999999989
 31
0.0
  0
LINE
  5
FB8E
  8
SU
 10
584.49999999999989
 20
409.24999999999989
 30
0.0
 11
581.5
 21
409.24999999999989
 31
0.0
  0
LINE
  5
FB8F
  8
SU
 10
581.5
 20
409.24999999999989
 30
0.0
 11
570.22666666666657
 21
409.24999999999989
 31
0.0
  0
LINE
  5
FB92
  8
SU
 10
584.49999999999989
 20
428.25000000000841
 30
0.0
 11
584.49999999999989
 21
406.25000000000023
 31
0.0
  0
LINE
  5
FB93
  8
SU
 10
745.5
 20
428.25000000000028
 30
0.0
 11
745.5
 21
406.25000000000023
 31
0.0
  0
LINE
  5
FB94
  8
SU
 10
584.49999999999989
 20
409.25000000000023
 30
0.0
 11
745.5
 21
409.25000000000023
 31
0.0
  0
LINE
  5
FB98
  8
SU
 10
488.49999999999977
 20
428.25000000000028
 30
0.0
 11
488.49999999999977
 21
406.25000000000023
 31
0.0
  0
LINE
  5
FB99
  8
SU
 10
477.99999999999972
 20
409.25000000000023
 30
0.0
 11
488.49999999999977
 21
409.25000000000023
 31
0.0
  0
LINE
  5
FB9A
  8
SU
 10
488.49999999999977
 20
409.25000000000023
 30
0.0
 11
512.77666666666653
 21
409.25000000000023
 31
0.0
  0
LINE
  5
FB9D
  8
SU
 10
452.99999999999972
 20
428.25000000000011
 30
0.0
 11
452.99999999999972
 21
406.25
 31
0.0
  0
LINE
  5
FB9E
  8
SU
 10
477.99999999999972
 20
428.25000000000011
 30
0.0
 11
477.99999999999972
 21
406.25
 31
0.0
  0
LINE
  5
FB9F
  8
SU
 10
452.99999999999972
 20
409.25000000000011
 30
0.0
 11
477.99999999999972
 21
409.25000000000011
 31
0.0
  0
LINE
  5
FBA3
  8
SU
 10
769.5
 20
429.25000000000028
 30
0.0
 11
806.49999999999989
 21
429.25000000000028
 31
0.0
  0
LINE
  5
FBA4
  8
SU
 10
803.5
 20
441.25000000000028
 30
0.0
 11
803.5
 21
429.25000000000028
 31
0.0
  0
LINE
  5
FBA7
  8
SU
 10
809.49999620000006
 20
451.25000000000028
 30
0.0
 11
797.5
 21
451.25000000000028
 31
0.0
  0
LINE
  5
FBA8
  8
SU
 10
809.37999630000002
 20
451.05000020000028
 30
0.0
 11
797.61999990000004
 21
451.05000020000028
 31
0.0
  0
LINE
  5
FBA9
  8
SU
 10
809.25999639999986
 20
450.85000040000028
 30
0.0
 11
797.73999979999996
 21
450.85000040000028
 31
0.0
  0
LINE
  5
FBAA
  8
SU
 10
809.13999650000005
 20
450.65000060000028
 30
0.0
 11
797.85999969999989
 21
450.65000060000028
 31
0.0
  0
LINE
  5
FBAB
  8
SU
 10
809.01999660000001
 20
450.45000080000028
 30
0.0
 11
797.97999949999985
 21
450.45000080000028
 31
0.0
  0
LINE
  5
FBAC
  8
SU
 10
808.89999680000005
 20
450.25000100000028
 30
0.0
 11
798.0999994
 21
450.25000100000028
 31
0.0
  0
LINE
  5
FBAD
  8
SU
 10
808.77999690000001
 20
450.05000110000032
 30
0.0
 11
798.21999930000004
 21
450.05000110000037
 31
0.0
  0
LINE
  5
FBAE
  8
SU
 10
808.65999790000001
 20
449.85000130000032
 30
0.0
 11
798.33999919999985
 21
449.85000130000032
 31
0.0
  0
LINE
  5
FBAF
  8
SU
 10
808.53999810000005
 20
449.65000150000031
 30
0.0
 11
798.4599991
 21
449.65000150000043
 31
0.0
  0
LINE
  5
FBB0
  8
SU
 10
808.4199981999999
 20
449.45000170000031
 30
0.0
 11
798.57999900000004
 21
449.45000170000031
 31
0.0
  0
LINE
  5
FBB1
  8
SU
 10
808.29999829999997
 20
449.25000190000031
 30
0.0
 11
798.69999889999997
 21
449.25000190000031
 31
0.0
  0
LINE
  5
FBB2
  8
SU
 10
808.17999839999993
 20
449.05000210000031
 30
0.0
 11
798.81999870000004
 21
449.05000210000031
 31
0.0
  0
LINE
  5
FBB3
  8
SU
 10
808.05999850000001
 20
448.8500023000002
 30
0.0
 11
798.93999859999985
 21
448.85000230000031
 31
0.0
  0
LINE
  5
FBB4
  8
SU
 10
807.93999859999997
 20
448.65000250000031
 30
0.0
 11
799.05999850000001
 21
448.65000250000043
 31
0.0
  0
LINE
  5
FBB5
  8
SU
 10
807.69999889999985
 20
448.25000290000031
 30
0.0
 11
799.29999829999986
 21
448.25000290000042
 31
0.0
  0
LINE
  5
FBB6
  8
SU
 10
807.81999870000016
 20
448.4500027000002
 30
0.0
 11
799.17999840000004
 21
448.45000270000031
 31
0.0
  0
LINE
  5
FBB7
  8
SU
 10
806.97999949999996
 20
447.05000400000029
 30
0.0
 11
800.01999760000012
 21
447.05000400000029
 31
0.0
  0
LINE
  5
FBB8
  8
SU
 10
806.86000060000003
 20
446.85000420000028
 30
0.0
 11
800.13999749999994
 21
446.85000420000028
 31
0.0
  0
LINE
  5
FBB9
  8
SU
 10
806.74000069999988
 20
446.65000440000028
 30
0.0
 11
800.25999739999997
 21
446.65000440000028
 31
0.0
  0
LINE
  5
FBBA
  8
SU
 10
806.62000079999984
 20
446.45000460000028
 30
0.0
 11
800.3799972999999
 21
446.45000460000028
 31
0.0
  0
LINE
  5
FBBB
  8
SU
 10
806.500001
 20
446.25000480000028
 30
0.0
 11
800.49999709999997
 21
446.25000480000028
 31
0.0
  0
LINE
  5
FBBC
  8
SU
 10
806.38000109999984
 20
446.05000500000028
 30
0.0
 11
800.61999700000001
 21
446.05000500000028
 31
0.0
  0
LINE
  5
FBBD
  8
SU
 10
806.26000120000003
 20
445.85000510000032
 30
0.0
 11
800.73999690000005
 21
445.85000510000037
 31
0.0
  0
LINE
  5
FBBE
  8
SU
 10
806.14000129999999
 20
445.65000530000032
 30
0.0
 11
800.85999679999998
 21
445.65000530000032
 31
0.0
  0
LINE
  5
FBBF
  8
SU
 10
806.02000139999996
 20
445.45000550000032
 30
0.0
 11
800.97999670000013
 21
445.45000550000037
 31
0.0
  0
LINE
  5
FBC0
  8
SU
 10
805.90000150000003
 20
445.25000570000032
 30
0.0
 11
801.09999659999994
 21
445.25000570000032
 31
0.0
  0
LINE
  5
FBC1
  8
SU
 10
805.78000159999988
 20
445.05000590000031
 30
0.0
 11
801.21999649999998
 21
445.05000590000031
 31
0.0
  0
LINE
  5
FBC2
  8
SU
 10
805.66000269999995
 20
444.85000610000031
 30
0.0
 11
801.33999630000005
 21
444.85000610000031
 31
0.0
  0
LINE
  5
FBC3
  8
SU
 10
805.54000280000014
 20
444.6500063000002
 30
0.0
 11
801.45999619999998
 21
444.65000630000031
 31
0.0
  0
LINE
  5
FBC4
  8
SU
 10
805.42000289999999
 20
444.45000650000031
 30
0.0
 11
801.57999610000002
 21
444.45000650000043
 31
0.0
  0
LINE
  5
FBC5
  8
SU
 10
805.30000309999991
 20
444.25000670000031
 30
0.0
 11
801.69999600000006
 21
444.25000670000031
 31
0.0
  0
LINE
  5
FBC6
  8
SU
 10
805.18000319999987
 20
444.05000690000031
 30
0.0
 11
801.81999589999998
 21
444.05000690000043
 31
0.0
  0
LINE
  5
FBC7
  8
SU
 10
805.06000329999995
 20
443.85000710000031
 30
0.0
 11
801.93999580000013
 21
443.85000710000031
 31
0.0
  0
LINE
  5
FBC8
  8
SU
 10
804.94000339999991
 20
443.65000720000029
 30
0.0
 11
802.05999569999994
 21
443.65000720000029
 31
0.0
  0
LINE
  5
FBC9
  8
SU
 10
804.70000359999995
 20
443.25000760000029
 30
0.0
 11
802.29999539999994
 21
443.25000760000029
 31
0.0
  0
LINE
  5
FBCA
  8
SU
 10
804.82000349999998
 20
443.45000740000029
 30
0.0
 11
802.17999550000002
 21
443.45000740000029
 31
0.0
  0
LINE
  5
FBCB
  8
SU
 10
804.58000370000013
 20
443.05000780000029
 30
0.0
 11
802.41999529999998
 21
443.05000780000029
 31
0.0
  0
LINE
  5
FBCC
  8
SU
 10
804.46000385000002
 20
442.85000800000029
 30
0.0
 11
802.53999519000001
 21
442.85000800000029
 31
0.0
  0
LINE
  5
FBCD
  8
SU
 10
804.34000396999988
 20
442.65000820000029
 30
0.0
 11
802.65999508000004
 21
442.65000820000029
 31
0.0
  0
LINE
  5
FBCE
  8
SU
 10
804.22000503999993
 20
442.45000840000029
 30
0.0
 11
802.77999495999995
 21
442.45000840000029
 31
0.0
  0
LINE
  5
FBCF
  8
SU
 10
804.10000515000013
 20
442.25000860000029
 30
0.0
 11
802.89999484999987
 21
442.25000860000029
 31
0.0
  0
LINE
  5
FBD0
  8
SU
 10
803.86000251999985
 20
441.8500089600002
 30
0.0
 11
803.13999462000004
 21
441.85000896000031
 31
0.0
  0
LINE
  5
FBD1
  8
SU
 10
803.98000525999998
 20
442.05000877000032
 30
0.0
 11
803.0199947399999
 21
442.05000877000037
 31
0.0
  0
LINE
  5
FBD2
  8
SU
 10
803.74000263000005
 20
441.65000916000031
 30
0.0
 11
803.25999450999996
 21
441.65000916000042
 31
0.0
  0
LINE
  5
FBD3
  8
SU
 10
803.5000020224893
 20
441.24999581902671
 30
0.0
 11
797.50000009999985
 21
451.24999960000031
 31
0.0
  0
LINE
  5
FBD4
  8
SU
 10
803.62000751000005
 20
441.4500122100003
 30
0.0
 11
803.37999248999995
 21
441.4500122100003
 31
0.0
  0
LINE
  5
FBD5
  8
SU
 10
803.49999993819199
 20
441.24999981984939
 30
0.0
 11
809.4999957
 21
451.24999990000032
 31
0.0
  0
LINE
  5
FBD6
  8
SU
 10
807.1000004
 20
447.25000380000029
 30
0.0
 11
799.89999769999986
 21
447.25000380000029
 31
0.0
  0
LINE
  5
FBD7
  8
SU
 10
807.22000030000004
 20
447.45000360000029
 30
0.0
 11
799.77999780000005
 21
447.45000360000029
 31
0.0
  0
LINE
  5
FBD8
  8
SU
 10
807.33999919999997
 20
447.65000340000029
 30
0.0
 11
799.65999789999989
 21
447.65000340000029
 31
0.0
  0
LINE
  5
FBD9
  8
SU
 10
807.45999909999989
 20
447.85000320000029
 30
0.0
 11
799.53999810000005
 21
447.85000320000029
 31
0.0
  0
LINE
  5
FBDA
  8
SU
 10
807.57999900000004
 20
448.05000310000031
 30
0.0
 11
799.41999820000001
 21
448.05000310000031
 31
0.0
  0
LINE
  5
FBDB
  8
SU
 10
788.49999999999977
 20
444.25000000000028
 30
0.0
 11
788.49999999999977
 21
441.25000000000028
 31
0.0
  0
LINE
  5
FBDC
  8
SU
 10
788.49999999999977
 20
441.25000000000028
 30
0.0
 11
788.49999999999977
 21
432.87346598079688
 31
0.0
  0
LINE
  5
FBDF
  8
SU
 10
746.49999999999989
 20
444.25000000000028
 30
0.0
 11
791.49999999999989
 21
444.25000000000028
 31
0.0
  0
LINE
  5
FBE0
  8
SU
 10
788.49999999999977
 20
451.25000000000853
 30
0.0
 11
788.49999999999977
 21
444.25000000000028
 31
0.0
  0
LINE
  5
FBE5
  8
SU
 10
742.00000000000011
 20
451.25000000000853
 30
0.0
 11
791.5
 21
451.25000000000853
 31
0.0
  0
LINE
  5
FBE6
  8
SU
 10
788.49999999999977
 20
451.25000000000853
 30
0.0
 11
788.49999999999989
 21
521.25000000000023
 31
0.0
  0
LINE
  5
FBE9
  8
SU
 10
769.5
 20
441.25000000000028
 30
0.0
 11
806.49999999999989
 21
441.25000000000028
 31
0.0
  0
LINE
  5
FBEA
  8
SU
 10
803.5
 20
441.25000000000028
 30
0.0
 11
803.5
 21
521.25000000000023
 31
0.0
  0
LINE
  5
FBEC
  8
SU
 10
509.49999999999989
 20
429.25000000000028
 30
0.0
 11
561.5
 21
429.25000000000028
 31
0.0
  0
LINE
  5
FBED
  8
SU
 10
558.49999999999989
 20
441.25000000000028
 30
0.0
 11
558.49999999999989
 21
429.25000000000028
 31
0.0
  0
LINE
  5
FBF0
  8
SU
 10
488.49999999999989
 20
442.25000000000028
 30
0.0
 11
488.49999999999989
 21
477.25000000000858
 31
0.0
  0
LINE
  5
FBF1
  8
SU
 10
485.99999999999972
 20
474.25000000000858
 30
0.0
 11
488.49999999999989
 21
474.25000000000858
 31
0.0
  0
LINE
  5
FBF2
  8
SU
 10
508.6881296454863
 20
474.25000000000858
 30
0.0
 11
488.49999999999989
 21
474.25000000000858
 31
0.0
  0
LINE
  5
FBF5
  8
SU
 10
445.0
 20
442.99230043588773
 30
0.0
 11
445.0
 21
477.25000000000858
 31
0.0
  0
LINE
  5
FBF6
  8
SU
 10
485.99999999999972
 20
442.99229474220078
 30
0.0
 11
485.99999999999972
 21
477.25000000000858
 31
0.0
  0
LINE
  5
FBF7
  8
SU
 10
445.0
 20
474.25000000000858
 30
0.0
 11
485.99999999999972
 21
474.25000000000858
 31
0.0
  0
LINE
  5
FBFB
  8
SU
 10
564.49999620000006
 20
451.25000000000028
 30
0.0
 11
552.5
 21
451.25000000000028
 31
0.0
  0
LINE
  5
FBFC
  8
SU
 10
564.37999630000002
 20
451.05000020000028
 30
0.0
 11
552.61999990000004
 21
451.05000020000028
 31
0.0
  0
LINE
  5
FBFD
  8
SU
 10
564.25999639999986
 20
450.85000040000028
 30
0.0
 11
552.73999979999985
 21
450.85000040000028
 31
0.0
  0
LINE
  5
FBFE
  8
SU
 10
564.13999650000005
 20
450.65000060000028
 30
0.0
 11
552.85999969999989
 21
450.65000060000028
 31
0.0
  0
LINE
  5
FBFF
  8
SU
 10
564.0199965999999
 20
450.45000080000028
 30
0.0
 11
552.97999949999985
 21
450.45000080000028
 31
0.0
  0
LINE
  5
FC00
  8
SU
 10
563.89999680000005
 20
450.25000100000028
 30
0.0
 11
553.0999994
 21
450.25000100000028
 31
0.0
  0
LINE
  5
FC01
  8
SU
 10
563.77999690000001
 20
450.05000110000032
 30
0.0
 11
553.21999930000004
 21
450.05000110000037
 31
0.0
  0
LINE
  5
FC02
  8
SU
 10
563.65999790000001
 20
449.85000130000032
 30
0.0
 11
553.33999919999985
 21
449.85000130000032
 31
0.0
  0
LINE
  5
FC03
  8
SU
 10
563.53999810000005
 20
449.65000150000031
 30
0.0
 11
553.4599991
 21
449.65000150000043
 31
0.0
  0
LINE
  5
FC04
  8
SU
 10
563.41999820000001
 20
449.45000170000031
 30
0.0
 11
553.57999900000004
 21
449.45000170000031
 31
0.0
  0
LINE
  5
FC05
  8
SU
 10
563.29999829999986
 20
449.25000190000031
 30
0.0
 11
553.69999889999985
 21
449.25000190000031
 31
0.0
  0
LINE
  5
FC06
  8
SU
 10
563.17999840000004
 20
449.05000210000031
 30
0.0
 11
553.81999870000004
 21
449.05000210000031
 31
0.0
  0
LINE
  5
FC07
  8
SU
 10
563.05999849999989
 20
448.8500023000002
 30
0.0
 11
553.93999859999985
 21
448.85000230000031
 31
0.0
  0
LINE
  5
FC08
  8
SU
 10
562.93999859999997
 20
448.65000250000031
 30
0.0
 11
554.05999850000001
 21
448.65000250000043
 31
0.0
  0
LINE
  5
FC09
  8
SU
 10
562.69999889999985
 20
448.25000290000031
 30
0.0
 11
554.29999829999986
 21
448.25000290000042
 31
0.0
  0
LINE
  5
FC0A
  8
SU
 10
562.81999870000004
 20
448.4500027000002
 30
0.0
 11
554.17999840000004
 21
448.45000270000031
 31
0.0
  0
LINE
  5
FC0B
  8
SU
 10
561.97999949999996
 20
447.05000400000029
 30
0.0
 11
555.01999760000001
 21
447.05000400000029
 31
0.0
  0
LINE
  5
FC0C
  8
SU
 10
561.86000060000003
 20
446.85000420000028
 30
0.0
 11
555.13999750000005
 21
446.85000420000028
 31
0.0
  0
LINE
  5
FC0D
  8
SU
 10
561.74000069999988
 20
446.65000440000028
 30
0.0
 11
555.25999739999986
 21
446.65000440000028
 31
0.0
  0
LINE
  5
FC0E
  8
SU
 10
561.62000079999984
 20
446.45000460000028
 30
0.0
 11
555.37999730000001
 21
446.45000460000028
 31
0.0
  0
LINE
  5
FC0F
  8
SU
 10
561.500001
 20
446.25000480000028
 30
0.0
 11
555.49999709999986
 21
446.25000480000028
 31
0.0
  0
LINE
  5
FC10
  8
SU
 10
561.38000109999984
 20
446.05000500000028
 30
0.0
 11
555.61999700000001
 21
446.05000500000028
 31
0.0
  0
LINE
  5
FC11
  8
SU
 10
561.26000120000003
 20
445.85000510000032
 30
0.0
 11
555.73999690000005
 21
445.85000510000037
 31
0.0
  0
LINE
  5
FC12
  8
SU
 10
561.14000129999988
 20
445.65000530000032
 30
0.0
 11
555.85999679999998
 21
445.65000530000032
 31
0.0
  0
LINE
  5
FC13
  8
SU
 10
561.02000139999996
 20
445.45000550000032
 30
0.0
 11
555.97999670000002
 21
445.45000550000037
 31
0.0
  0
LINE
  5
FC14
  8
SU
 10
560.90000150000003
 20
445.25000570000032
 30
0.0
 11
556.09999660000005
 21
445.25000570000032
 31
0.0
  0
LINE
  5
FC15
  8
SU
 10
560.78000159999988
 20
445.05000590000031
 30
0.0
 11
556.21999649999987
 21
445.05000590000031
 31
0.0
  0
LINE
  5
FC16
  8
SU
 10
560.66000269999995
 20
444.85000610000031
 30
0.0
 11
556.33999630000005
 21
444.85000610000031
 31
0.0
  0
LINE
  5
FC17
  8
SU
 10
560.54000280000002
 20
444.6500063000002
 30
0.0
 11
556.45999619999986
 21
444.65000630000031
 31
0.0
  0
LINE
  5
FC18
  8
SU
 10
560.42000289999999
 20
444.45000650000031
 30
0.0
 11
556.57999610000002
 21
444.45000650000043
 31
0.0
  0
LINE
  5
FC19
  8
SU
 10
560.30000310000003
 20
444.25000670000031
 30
0.0
 11
556.69999600000006
 21
444.25000670000031
 31
0.0
  0
LINE
  5
FC1A
  8
SU
 10
560.18000319999987
 20
444.05000690000031
 30
0.0
 11
556.81999589999998
 21
444.05000690000043
 31
0.0
  0
LINE
  5
FC1B
  8
SU
 10
560.06000329999995
 20
443.85000710000031
 30
0.0
 11
556.93999579999991
 21
443.85000710000031
 31
0.0
  0
LINE
  5
FC1C
  8
SU
 10
559.94000340000002
 20
443.65000720000029
 30
0.0
 11
557.05999569999994
 21
443.65000720000029
 31
0.0
  0
LINE
  5
FC1D
  8
SU
 10
559.70000359999995
 20
443.25000760000029
 30
0.0
 11
557.29999539999994
 21
443.25000760000029
 31
0.0
  0
LINE
  5
FC1E
  8
SU
 10
559.82000349999987
 20
443.45000740000029
 30
0.0
 11
557.17999550000002
 21
443.45000740000029
 31
0.0
  0
LINE
  5
FC1F
  8
SU
 10
559.58000370000002
 20
443.05000780000029
 30
0.0
 11
557.41999529999987
 21
443.05000780000029
 31
0.0
  0
LINE
  5
FC20
  8
SU
 10
559.46000385000002
 20
442.85000800000029
 30
0.0
 11
557.53999519000001
 21
442.85000800000029
 31
0.0
  0
LINE
  5
FC21
  8
SU
 10
559.34000396999988
 20
442.65000820000029
 30
0.0
 11
557.65999508000004
 21
442.65000820000029
 31
0.0
  0
LINE
  5
FC22
  8
SU
 10
559.22000504000005
 20
442.45000840000029
 30
0.0
 11
557.77999495999995
 21
442.45000840000029
 31
0.0
  0
LINE
  5
FC23
  8
SU
 10
559.10000515000002
 20
442.25000860000029
 30
0.0
 11
557.89999484999987
 21
442.25000860000029
 31
0.0
  0
LINE
  5
FC24
  8
SU
 10
558.86000251999985
 20
441.8500089600002
 30
0.0
 11
558.13999462000004
 21
441.85000896000031
 31
0.0
  0
LINE
  5
FC25
  8
SU
 10
558.98000525999998
 20
442.05000877000032
 30
0.0
 11
558.01999474000002
 21
442.05000877000037
 31
0.0
  0
LINE
  5
FC26
  8
SU
 10
558.74000263000005
 20
441.65000916000031
 30
0.0
 11
558.25999450999996
 21
441.65000916000042
 31
0.0
  0
LINE
  5
FC27
  8
SU
 10
558.50000202248918
 20
441.24999581902671
 30
0.0
 11
552.50000009999985
 21
451.24999960000031
 31
0.0
  0
LINE
  5
FC28
  8
SU
 10
558.62000751000005
 20
441.4500122100003
 30
0.0
 11
558.37999248999995
 21
441.4500122100003
 31
0.0
  0
LINE
  5
FC29
  8
SU
 10
558.49999993819199
 20
441.24999981984939
 30
0.0
 11
564.4999957
 21
451.24999990000032
 31
0.0
  0
LINE
  5
FC2A
  8
SU
 10
562.10000039999989
 20
447.25000380000029
 30
0.0
 11
554.89999769999997
 21
447.25000380000029
 31
0.0
  0
LINE
  5
FC2B
  8
SU
 10
562.22000030000004
 20
447.45000360000029
 30
0.0
 11
554.77999780000005
 21
447.45000360000029
 31
0.0
  0
LINE
  5
FC2C
  8
SU
 10
562.33999919999985
 20
447.65000340000029
 30
0.0
 11
554.65999789999989
 21
447.65000340000029
 31
0.0
  0
LINE
  5
FC2D
  8
SU
 10
562.4599991
 20
447.85000320000029
 30
0.0
 11
554.53999810000005
 21
447.85000320000029
 31
0.0
  0
LINE
  5
FC2E
  8
SU
 10
562.57999900000004
 20
448.05000310000031
 30
0.0
 11
554.41999820000001
 21
448.05000310000031
 31
0.0
  0
LINE
  5
FC30
  8
SU
 10
543.49999999999966
 20
441.25000000000028
 30
0.0
 11
543.49999999999966
 21
433.48816863963089
 31
0.0
  0
LINE
  5
FC31
  8
SU
 10
543.49999999999966
 20
443.25000000000051
 30
0.0
 11
543.49999999999966
 21
441.25000000000028
 31
0.0
  0
LINE
  5
FC34
  8
SU
 10
481.99996801255861
 20
443.25000000000051
 30
0.0
 11
546.49999999999977
 21
443.25000000000051
 31
0.0
  0
LINE
  5
FC35
  8
SU
 10
543.49999999999977
 20
451.25000000000853
 30
0.0
 11
543.49999999999977
 21
443.25000000000051
 31
0.0
  0
LINE
  5
FC3A
  8
SU
 10
482.00000000000011
 20
451.25000000000853
 30
0.0
 11
546.49999999999989
 21
451.25000000000853
 31
0.0
  0
LINE
  5
FC3B
  8
SU
 10
543.5
 20
451.25000000000853
 30
0.0
 11
543.5
 21
521.25000000000034
 31
0.0
  0
LINE
  5
FC3E
  8
SU
 10
509.49999999999989
 20
441.25000000000028
 30
0.0
 11
561.5
 21
441.25000000000028
 31
0.0
  0
LINE
  5
FC3F
  8
SU
 10
558.49999999999989
 20
441.25000000000028
 30
0.0
 11
558.49999999999989
 21
521.25000000000034
 31
0.0
  0
LINE
  5
FC41
  8
SU
 10
228.5
 20
56.249999999992269
 30
0.0
 11
228.5
 21
91.250000000000554
 31
0.0
  0
LINE
  5
FC42
  8
SU
 10
223.5
 20
88.250000000000568
 30
0.0
 11
228.5
 21
88.250000000000568
 31
0.0
  0
LINE
  5
FC43
  8
SU
 10
241.1650104515127
 20
88.250000000000568
 30
0.0
 11
228.5
 21
88.250000000000568
 31
0.0
  0
LINE
  5
FC46
  8
SU
 10
185.5
 20
57.449999999992222
 30
0.0
 11
185.5
 21
91.250000000000554
 31
0.0
  0
LINE
  5
FC47
  8
SU
 10
223.5
 20
57.449999999992222
 30
0.0
 11
223.5
 21
91.250000000000554
 31
0.0
  0
LINE
  5
FC48
  8
SU
 10
185.5
 20
88.250000000000568
 30
0.0
 11
223.5
 21
88.250000000000568
 31
0.0
  0
LINE
  5
FC4C
  8
SU
 10
304.49999620000011
 20
65.249999999992269
 30
0.0
 11
292.5
 21
65.249999999992269
 31
0.0
  0
LINE
  5
FC4D
  8
SU
 10
304.37999630000002
 20
65.050000199992269
 30
0.0
 11
292.6199999000001
 21
65.050000199992269
 31
0.0
  0
LINE
  5
FC4E
  8
SU
 10
304.25999639999998
 20
64.850000399992268
 30
0.0
 11
292.73999980000002
 21
64.850000399992268
 31
0.0
  0
LINE
  5
FC4F
  8
SU
 10
304.1399965
 20
64.650000599992254
 30
0.0
 11
292.8599997
 21
64.650000599992254
 31
0.0
  0
LINE
  5
FC50
  8
SU
 10
304.01999660000001
 20
64.450000799992267
 30
0.0
 11
292.97999950000002
 21
64.450000799992267
 31
0.0
  0
LINE
  5
FC51
  8
SU
 10
303.89999680000011
 20
64.250000999992267
 30
0.0
 11
293.0999994
 21
64.250000999992267
 31
0.0
  0
LINE
  5
FC52
  8
SU
 10
303.77999690000001
 20
64.050001099992272
 30
0.0
 11
293.2199993000001
 21
64.050001099992272
 31
0.0
  0
LINE
  5
FC53
  8
SU
 10
303.65999790000001
 20
63.850001299992272
 30
0.0
 11
293.33999920000002
 21
63.850001299992272
 31
0.0
  0
LINE
  5
FC54
  8
SU
 10
303.5399981000001
 20
63.650001499992271
 30
0.0
 11
293.4599991
 21
63.650001499992271
 31
0.0
  0
LINE
  5
FC55
  8
SU
 10
303.41999820000001
 20
63.450001699992271
 30
0.0
 11
293.5799990000001
 21
63.450001699992271
 31
0.0
  0
LINE
  5
FC56
  8
SU
 10
303.29999830000003
 20
63.25000189999227
 30
0.0
 11
293.69999890000003
 21
63.25000189999227
 31
0.0
  0
LINE
  5
FC57
  8
SU
 10
303.17999839999999
 20
63.05000209999227
 30
0.0
 11
293.81999869999999
 21
63.05000209999227
 31
0.0
  0
LINE
  5
FC58
  8
SU
 10
303.05999850000001
 20
62.850002299992262
 30
0.0
 11
293.93999860000002
 21
62.850002299992262
 31
0.0
  0
LINE
  5
FC59
  8
SU
 10
302.93999860000002
 20
62.650002499992269
 30
0.0
 11
294.05999850000001
 21
62.650002499992269
 31
0.0
  0
LINE
  5
FC5A
  8
SU
 10
302.69999890000003
 20
62.250002899992261
 30
0.0
 11
294.29999829999991
 21
62.250002899992261
 31
0.0
  0
LINE
  5
FC5B
  8
SU
 10
302.8199987000001
 20
62.450002699992268
 30
0.0
 11
294.1799984000001
 21
62.450002699992268
 31
0.0
  0
LINE
  5
FC5C
  8
SU
 10
301.97999950000002
 20
61.050003999992271
 30
0.0
 11
295.01999760000001
 21
61.050003999992271
 31
0.0
  0
LINE
  5
FC5D
  8
SU
 10
301.86000059999998
 20
60.85000419999227
 30
0.0
 11
295.13999750000011
 21
60.85000419999227
 31
0.0
  0
LINE
  5
FC5E
  8
SU
 10
301.7400007
 20
60.65000439999227
 30
0.0
 11
295.25999739999997
 21
60.65000439999227
 31
0.0
  0
LINE
  5
FC5F
  8
SU
 10
301.62000080000001
 20
60.450004599992269
 30
0.0
 11
295.37999730000001
 21
60.450004599992269
 31
0.0
  0
LINE
  5
FC60
  8
SU
 10
301.500001
 20
60.250004799992269
 30
0.0
 11
295.49999709999997
 21
60.250004799992269
 31
0.0
  0
LINE
  5
FC61
  8
SU
 10
301.38000110000002
 20
60.050004999992261
 30
0.0
 11
295.61999700000001
 21
60.050004999992261
 31
0.0
  0
LINE
  5
FC62
  8
SU
 10
301.26000119999998
 20
59.850005099992281
 30
0.0
 11
295.73999689999999
 21
59.850005099992281
 31
0.0
  0
LINE
  5
FC63
  8
SU
 10
301.14000129999999
 20
59.650005299992273
 30
0.0
 11
295.85999679999998
 21
59.650005299992273
 31
0.0
  0
LINE
  5
FC64
  8
SU
 10
301.02000140000001
 20
59.450005499992272
 30
0.0
 11
295.97999670000002
 21
59.450005499992272
 31
0.0
  0
LINE
  5
FC65
  8
SU
 10
300.90000149999997
 20
59.250005699992272
 30
0.0
 11
296.09999660000011
 21
59.250005699992272
 31
0.0
  0
LINE
  5
FC66
  8
SU
 10
300.78000159999999
 20
59.050005899992271
 30
0.0
 11
296.21999649999998
 21
59.050005899992271
 31
0.0
  0
LINE
  5
FC67
  8
SU
 10
300.66000270000001
 20
58.850006099992271
 30
0.0
 11
296.3399963
 21
58.850006099992271
 31
0.0
  0
LINE
  5
FC68
  8
SU
 10
300.54000280000002
 20
58.65000629999227
 30
0.0
 11
296.45999619999998
 21
58.65000629999227
 31
0.0
  0
LINE
  5
FC69
  8
SU
 10
300.42000289999999
 20
58.45000649999227
 30
0.0
 11
296.57999610000002
 21
58.45000649999227
 31
0.0
  0
LINE
  5
FC6A
  8
SU
 10
300.30000310000003
 20
58.250006699992262
 30
0.0
 11
296.69999600000011
 21
58.250006699992262
 31
0.0
  0
LINE
  5
FC6B
  8
SU
 10
300.18000319999999
 20
58.050006899992269
 30
0.0
 11
296.81999589999998
 21
58.050006899992269
 31
0.0
  0
LINE
  5
FC6C
  8
SU
 10
300.06000329999989
 20
57.850007099992268
 30
0.0
 11
296.93999580000002
 21
57.850007099992268
 31
0.0
  0
LINE
  5
FC6D
  8
SU
 10
299.94000340000002
 20
57.650007199992267
 30
0.0
 11
297.0599957
 21
57.650007199992267
 31
0.0
  0
LINE
  5
FC6E
  8
SU
 10
299.70000359999989
 20
57.250007599992273
 30
0.0
 11
297.2999954
 21
57.250007599992273
 31
0.0
  0
LINE
  5
FC6F
  8
SU
 10
299.82000349999998
 20
57.450007399992273
 30
0.0
 11
297.17999550000002
 21
57.450007399992273
 31
0.0
  0
LINE
  5
FC70
  8
SU
 10
299.58000370000002
 20
57.050007799992272
 30
0.0
 11
297.41999529999998
 21
57.050007799992272
 31
0.0
  0
LINE
  5
FC71
  8
SU
 10
299.46000385000002
 20
56.850007999992272
 30
0.0
 11
297.53999519000001
 21
56.850007999992272
 31
0.0
  0
LINE
  5
FC72
  8
SU
 10
299.34000397
 20
56.650008199992271
 30
0.0
 11
297.65999507999999
 21
56.650008199992271
 31
0.0
  0
LINE
  5
FC73
  8
SU
 10
299.2200050400001
 20
56.450008399992271
 30
0.0
 11
297.7799949599999
 21
56.450008399992271
 31
0.0
  0
LINE
  5
FC74
  8
SU
 10
299.10000515000002
 20
56.25000859999227
 30
0.0
 11
297.89999484999998
 21
56.25000859999227
 31
0.0
  0
LINE
  5
FC75
  8
SU
 10
298.86000252000002
 20
55.850008959992259
 30
0.0
 11
298.13999461999998
 21
55.850008959992259
 31
0.0
  0
LINE
  5
FC76
  8
SU
 10
298.98000525999998
 20
56.050008769992267
 30
0.0
 11
298.01999474000002
 21
56.050008769992267
 31
0.0
  0
LINE
  5
FC77
  8
SU
 10
298.74000262999999
 20
55.650009159992273
 30
0.0
 11
298.25999451000001
 21
55.650009159992273
 31
0.0
  0
LINE
  5
FC78
  8
SU
 10
298.5000020224893
 20
55.249995819018778
 30
0.0
 11
292.50000010000002
 21
65.249999599992265
 31
0.0
  0
LINE
  5
FC79
  8
SU
 10
298.62000751000011
 20
55.450012209992281
 30
0.0
 11
298.37999248999989
 21
55.450012209992252
 31
0.0
  0
LINE
  5
FC7A
  8
SU
 10
298.49999993819199
 20
55.249999819841427
 30
0.0
 11
304.4999957
 21
65.249999899992275
 31
0.0
  0
LINE
  5
FC7B
  8
SU
 10
302.1000004
 20
61.250003799992271
 30
0.0
 11
294.89999769999997
 21
61.250003799992271
 31
0.0
  0
LINE
  5
FC7C
  8
SU
 10
302.22000029999998
 20
61.450003599992272
 30
0.0
 11
294.77999779999999
 21
61.450003599992272
 31
0.0
  0
LINE
  5
FC7D
  8
SU
 10
302.33999920000002
 20
61.650003399992272
 30
0.0
 11
294.65999790000001
 21
61.650003399992272
 31
0.0
  0
LINE
  5
FC7E
  8
SU
 10
302.4599991
 20
61.850003199992273
 30
0.0
 11
294.53999809999999
 21
61.850003199992273
 31
0.0
  0
LINE
  5
FC7F
  8
SU
 10
302.57999899999999
 20
62.050003099992267
 30
0.0
 11
294.41999820000001
 21
62.050003099992267
 31
0.0
  0
LINE
  5
FC80
  8
SU
 10
283.49999999999977
 20
60.049999999992203
 30
0.0
 11
283.49999999999977
 21
55.249999999992269
 31
0.0
  0
LINE
  5
FC81
  8
SU
 10
283.49999999999977
 20
55.249999999992269
 30
0.0
 11
283.49999999999977
 21
36.893999999992282
 31
0.0
  0
LINE
  5
FC84
  8
SU
 10
219.5
 20
60.049999999992217
 30
0.0
 11
286.49999999999989
 21
60.049999999992203
 31
0.0
  0
LINE
  5
FC85
  8
SU
 10
283.49999999999989
 20
68.250000000000441
 30
0.0
 11
283.49999999999989
 21
60.049999999992203
 31
0.0
  0
LINE
  5
FC86
  8
SU
 10
283.49999999999989
 20
64.149999999996325
 30
0.0
 11
268.5
 21
71.510254037840525
 31
0.0
  0
LINE
  5
FC87
  8
SU
 10
268.5
 20
71.510254037840525
 30
0.0
 11
268.5
 21
85.066254037840523
 31
0.0
  0
LINE
  5
FC8A
  8
SU
 10
222.00000000000011
 20
68.250000000000455
 30
0.0
 11
286.49999999999989
 21
68.250000000000441
 31
0.0
  0
LINE
  5
FC8B
  8
SU
 10
283.49999999999989
 20
68.250000000000441
 30
0.0
 11
283.5
 21
165.2499999999923
 31
0.0
  0
LINE
  5
FC8E
  8
SU
 10
249.5
 20
55.249999999992269
 30
0.0
 11
301.5
 21
55.249999999992269
 31
0.0
  0
LINE
  5
FC8F
  8
SU
 10
298.49999999999989
 20
55.249999999992269
 30
0.0
 11
298.5
 21
165.2499999999923
 31
0.0
  0
LINE
  5
FC91
  8
SU
 10
228.5
 20
216.2499999999923
 30
0.0
 11
228.5
 21
251.25000000000051
 31
0.0
  0
LINE
  5
FC92
  8
SU
 10
225.9999999999998
 20
248.25000000000051
 30
0.0
 11
228.5
 21
248.25000000000051
 31
0.0
  0
LINE
  5
FC93
  8
SU
 10
228.5
 20
248.25000000000051
 30
0.0
 11
248.07333333333341
 21
248.25000000000051
 31
0.0
  0
LINE
  5
FC96
  8
SU
 10
185.0
 20
216.99230043587971
 30
0.0
 11
185.0
 21
251.25000000000051
 31
0.0
  0
LINE
  5
FC97
  8
SU
 10
225.9999999999998
 20
216.9922947421928
 30
0.0
 11
225.9999999999998
 21
251.25000000000051
 31
0.0
  0
LINE
  5
FC98
  8
SU
 10
185.0
 20
248.25000000000051
 30
0.0
 11
225.9999999999998
 21
248.25000000000051
 31
0.0
  0
LINE
  5
FC9C
  8
SU
 10
228.5
 20
214.2499999999923
 30
0.0
 11
228.5
 21
180.24999999999241
 31
0.0
  0
LINE
  5
FC9D
  8
SU
 10
217.99999999999989
 20
183.2499999999923
 30
0.0
 11
228.5
 21
183.24999999999241
 31
0.0
  0
LINE
  5
FC9E
  8
SU
 10
228.5
 20
183.24999999999241
 30
0.0
 11
252.7766666666667
 21
183.24999999999241
 31
0.0
  0
LINE
  5
FCA1
  8
SU
 10
192.99999999999989
 20
202.2499999999923
 30
0.0
 11
192.99999999999989
 21
180.24999999999221
 31
0.0
  0
LINE
  5
FCA2
  8
SU
 10
217.99999999999989
 20
202.2499999999923
 30
0.0
 11
217.99999999999989
 21
180.24999999999221
 31
0.0
  0
LINE
  5
FCA3
  8
SU
 10
192.99999999999989
 20
183.2499999999923
 30
0.0
 11
217.99999999999989
 21
183.2499999999923
 31
0.0
  0
LINE
  5
FCA8
  8
SU
 10
283.5
 20
215.2499999999923
 30
0.0
 11
283.5
 21
204.82610361706449
 31
0.0
  0
LINE
  5
FCA9
  8
SU
 10
283.5
 20
217.24999999999241
 30
0.0
 11
283.5
 21
215.2499999999923
 31
0.0
  0
LINE
  5
FCAC
  8
SU
 10
222.9999680125587
 20
217.24999999999241
 30
0.0
 11
286.50000000000011
 21
217.24999999999241
 31
0.0
  0
LINE
  5
FCAD
  8
SU
 10
283.50000000000011
 20
225.2500000000006
 30
0.0
 11
283.50000000000011
 21
217.24999999999241
 31
0.0
  0
LINE
  5
FCB2
  8
SU
 10
283.5
 20
421.24999999999233
 30
0.0
 11
283.5
 21
445.24999999999221
 31
0.0
  0
LINE
  5
FCB5
  8
SU
 10
226.5
 20
421.24999999999233
 30
0.0
 11
286.50000000000011
 21
421.24999999999233
 31
0.0
  0
LINE
  5
FCB6
  8
SU
 10
283.50000000000023
 20
418.24999999999221
 30
0.0
 11
283.50000000000023
 21
421.24999999999233
 31
0.0
  0
LINE
  5
FCB7
  8
SU
 10
283.50000000000023
 20
419.74999999999221
 30
0.0
 11
268.5
 21
427.11025403783663
 31
0.0
  0
LINE
  5
FCB8
  8
SU
 10
268.5
 20
427.11025403783663
 30
0.0
 11
268.5
 21
433.58358737116993
 31
0.0
  0
LINE
  5
FCBB
  8
SU
 10
222.0
 20
225.2500000000006
 30
0.0
 11
286.49999999999989
 21
225.2500000000006
 31
0.0
  0
LINE
  5
FCBC
  8
SU
 10
222.0
 20
418.24999999999221
 30
0.0
 11
286.5
 21
418.24999999999221
 31
0.0
  0
LINE
  5
FCBD
  8
SU
 10
283.50000000000011
 20
225.2500000000006
 30
0.0
 11
283.5
 21
418.24999999999221
 31
0.0
  0
LINE
  5
FCC1
  8
SU
 10
304.49999620000011
 20
435.2499999999921
 30
0.0
 11
292.5
 21
435.2499999999921
 31
0.0
  0
LINE
  5
FCC2
  8
SU
 10
304.37999630000002
 20
435.44999979999221
 30
0.0
 11
292.6199999000001
 21
435.44999979999221
 31
0.0
  0
LINE
  5
FCC3
  8
SU
 10
304.25999639999998
 20
435.6499995999921
 30
0.0
 11
292.73999980000002
 21
435.6499995999921
 31
0.0
  0
LINE
  5
FCC4
  8
SU
 10
304.1399965
 20
435.84999939999221
 30
0.0
 11
292.8599997
 21
435.84999939999221
 31
0.0
  0
LINE
  5
FCC5
  8
SU
 10
304.01999660000001
 20
436.04999919999221
 30
0.0
 11
292.97999950000002
 21
436.04999919999221
 31
0.0
  0
LINE
  5
FCC6
  8
SU
 10
303.89999680000011
 20
436.24999899999221
 30
0.0
 11
293.0999994
 21
436.24999899999221
 31
0.0
  0
LINE
  5
FCC7
  8
SU
 10
303.77999690000001
 20
436.44999889999218
 30
0.0
 11
293.2199993000001
 21
436.44999889999218
 31
0.0
  0
LINE
  5
FCC8
  8
SU
 10
303.65999790000001
 20
436.64999869999212
 30
0.0
 11
293.33999920000002
 21
436.64999869999218
 31
0.0
  0
LINE
  5
FCC9
  8
SU
 10
303.5399981000001
 20
436.84999849999213
 30
0.0
 11
293.4599991
 21
436.84999849999218
 31
0.0
  0
LINE
  5
FCCA
  8
SU
 10
303.41999820000001
 20
437.04999829999218
 30
0.0
 11
293.5799990000001
 21
437.04999829999218
 31
0.0
  0
LINE
  5
FCCB
  8
SU
 10
303.29999830000003
 20
437.24999809999218
 30
0.0
 11
293.69999890000003
 21
437.24999809999218
 31
0.0
  0
LINE
  5
FCCC
  8
SU
 10
303.17999839999999
 20
437.44999789999218
 30
0.0
 11
293.81999869999999
 21
437.44999789999218
 31
0.0
  0
LINE
  5
FCCD
  8
SU
 10
303.05999850000001
 20
437.64999769999213
 30
0.0
 11
293.93999860000002
 21
437.64999769999218
 31
0.0
  0
LINE
  5
FCCE
  8
SU
 10
302.93999860000002
 20
437.84999749999218
 30
0.0
 11
294.05999850000001
 21
437.84999749999218
 31
0.0
  0
LINE
  5
FCCF
  8
SU
 10
302.69999890000003
 20
438.24999709999219
 30
0.0
 11
294.29999829999991
 21
438.24999709999219
 31
0.0
  0
LINE
  5
FCD0
  8
SU
 10
302.8199987000001
 20
438.04999729999213
 30
0.0
 11
294.1799984000001
 21
438.04999729999219
 31
0.0
  0
LINE
  5
FCD1
  8
SU
 10
301.97999950000002
 20
439.4499959999921
 30
0.0
 11
295.01999760000001
 21
439.4499959999921
 31
0.0
  0
LINE
  5
FCD2
  8
SU
 10
301.86000059999998
 20
439.64999579999221
 30
0.0
 11
295.13999750000011
 21
439.64999579999221
 31
0.0
  0
LINE
  5
FCD3
  8
SU
 10
301.7400007
 20
439.84999559999221
 30
0.0
 11
295.25999739999997
 21
439.84999559999221
 31
0.0
  0
LINE
  5
FCD4
  8
SU
 10
301.62000080000001
 20
440.04999539999221
 30
0.0
 11
295.37999730000001
 21
440.04999539999221
 31
0.0
  0
LINE
  5
FCD5
  8
SU
 10
301.500001
 20
440.24999519999221
 30
0.0
 11
295.49999709999997
 21
440.24999519999221
 31
0.0
  0
LINE
  5
FCD6
  8
SU
 10
301.38000110000002
 20
440.44999499999221
 30
0.0
 11
295.61999700000001
 21
440.44999499999221
 31
0.0
  0
LINE
  5
FCD7
  8
SU
 10
301.26000119999998
 20
440.64999489999212
 30
0.0
 11
295.73999689999999
 21
440.64999489999218
 31
0.0
  0
LINE
  5
FCD8
  8
SU
 10
301.14000129999999
 20
440.84999469999212
 30
0.0
 11
295.85999679999998
 21
440.84999469999218
 31
0.0
  0
LINE
  5
FCD9
  8
SU
 10
301.02000140000001
 20
441.04999449999212
 30
0.0
 11
295.97999670000002
 21
441.04999449999218
 31
0.0
  0
LINE
  5
FCDA
  8
SU
 10
300.90000149999997
 20
441.24999429999218
 30
0.0
 11
296.09999660000011
 21
441.24999429999218
 31
0.0
  0
LINE
  5
FCDB
  8
SU
 10
300.78000159999999
 20
441.44999409999213
 30
0.0
 11
296.21999649999998
 21
441.44999409999218
 31
0.0
  0
LINE
  5
FCDC
  8
SU
 10
300.66000270000001
 20
441.64999389999218
 30
0.0
 11
296.3399963
 21
441.64999389999218
 31
0.0
  0
LINE
  5
FCDD
  8
SU
 10
300.54000280000002
 20
441.84999369999213
 30
0.0
 11
296.45999619999998
 21
441.84999369999218
 31
0.0
  0
LINE
  5
FCDE
  8
SU
 10
300.42000289999999
 20
442.04999349999218
 30
0.0
 11
296.57999610000002
 21
442.04999349999218
 31
0.0
  0
LINE
  5
FCDF
  8
SU
 10
300.30000310000003
 20
442.24999329999213
 30
0.0
 11
296.69999600000011
 21
442.24999329999218
 31
0.0
  0
LINE
  5
FCE0
  8
SU
 10
300.18000319999999
 20
442.44999309999213
 30
0.0
 11
296.81999589999998
 21
442.44999309999218
 31
0.0
  0
LINE
  5
FCE1
  8
SU
 10
300.06000329999989
 20
442.64999289999218
 30
0.0
 11
296.93999580000002
 21
442.64999289999218
 31
0.0
  0
LINE
  5
FCE2
  8
SU
 10
299.94000340000002
 20
442.84999279999209
 30
0.0
 11
297.0599957
 21
442.84999279999209
 31
0.0
  0
LINE
  5
FCE3
  8
SU
 10
299.70000359999989
 20
443.2499923999921
 30
0.0
 11
297.2999954
 21
443.2499923999921
 31
0.0
  0
LINE
  5
FCE4
  8
SU
 10
299.82000349999998
 20
443.04999259999221
 30
0.0
 11
297.17999550000002
 21
443.04999259999221
 31
0.0
  0
LINE
  5
FCE5
  8
SU
 10
299.58000370000002
 20
443.44999219999221
 30
0.0
 11
297.41999529999998
 21
443.44999219999221
 31
0.0
  0
LINE
  5
FCE6
  8
SU
 10
299.46000385000002
 20
443.6499919999921
 30
0.0
 11
297.53999519000001
 21
443.6499919999921
 31
0.0
  0
LINE
  5
FCE7
  8
SU
 10
299.34000397
 20
443.84999179999221
 30
0.0
 11
297.65999507999999
 21
443.84999179999221
 31
0.0
  0
LINE
  5
FCE8
  8
SU
 10
299.2200050400001
 20
444.04999159999221
 30
0.0
 11
297.7799949599999
 21
444.04999159999221
 31
0.0
  0
LINE
  5
FCE9
  8
SU
 10
299.10000515000002
 20
444.24999139999221
 30
0.0
 11
297.89999484999998
 21
444.24999139999221
 31
0.0
  0
LINE
  5
FCEA
  8
SU
 10
298.86000252000002
 20
444.64999103999207
 30
0.0
 11
298.13999461999998
 21
444.64999103999219
 31
0.0
  0
LINE
  5
FCEB
  8
SU
 10
298.98000525999998
 20
444.44999122999218
 30
0.0
 11
298.01999474000002
 21
444.44999122999218
 31
0.0
  0
LINE
  5
FCEC
  8
SU
 10
298.74000262999999
 20
444.84999083999219
 30
0.0
 11
298.25999451000001
 21
444.84999083999219
 31
0.0
  0
LINE
  5
FCED
  8
SU
 10
298.5000020224893
 20
445.25000418096562
 30
0.0
 11
292.50000010000002
 21
435.25000039999219
 31
0.0
  0
LINE
  5
FCEE
  8
SU
 10
298.62000751000011
 20
445.0499877899922
 30
0.0
 11
298.37999248999989
 21
445.0499877899922
 31
0.0
  0
LINE
  5
FCEF
  8
SU
 10
298.49999993819199
 20
445.25000018014299
 30
0.0
 11
304.4999957
 21
435.25000009999212
 31
0.0
  0
LINE
  5
FCF0
  8
SU
 10
302.1000004
 20
439.24999619999221
 30
0.0
 11
294.89999769999997
 21
439.24999619999221
 31
0.0
  0
LINE
  5
FCF1
  8
SU
 10
302.22000029999998
 20
439.0499963999921
 30
0.0
 11
294.77999779999999
 21
439.0499963999921
 31
0.0
  0
LINE
  5
FCF2
  8
SU
 10
302.33999920000002
 20
438.84999659999221
 30
0.0
 11
294.65999790000001
 21
438.84999659999221
 31
0.0
  0
LINE
  5
FCF3
  8
SU
 10
302.4599991
 20
438.64999679999221
 30
0.0
 11
294.53999809999999
 21
438.64999679999221
 31
0.0
  0
LINE
  5
FCF4
  8
SU
 10
302.57999899999999
 20
438.44999689999219
 30
0.0
 11
294.41999820000001
 21
438.44999689999219
 31
0.0
  0
LINE
  5
FCF5
  8
SU
 10
229.5
 20
445.24999999999221
 30
0.0
 11
301.50000000000011
 21
445.24999999999221
 31
0.0
  0
LINE
  5
FCF6
  8
SU
 10
249.5
 20
215.2499999999923
 30
0.0
 11
301.5
 21
215.2499999999923
 31
0.0
  0
LINE
  5
FCF7
  8
SU
 10
298.50000000000011
 20
445.24999999999221
 30
0.0
 11
298.5
 21
215.2499999999923
 31
0.0
  0
LINE
  5
FCF9
  8
SU
 10
166.0
 20
409.24999999999221
 30
0.0
 11
38.49999999999995
 21
409.24999999999221
 31
0.0
  0
LINE
  5
FCFA
  8
SU
 10
41.499999999999943
 20
421.24999999999233
 30
0.0
 11
41.499999999999943
 21
409.24999999999221
 31
0.0
  0
LINE
  5
FCFB
  8
SU
 10
41.499999999999943
 20
409.24999999999221
 30
0.0
 11
41.499999999999943
 21
393.80721897931022
 31
0.0
  0
LINE
  5
FCFE
  8
SU
 10
60.5
 20
445.24999999999221
 30
0.0
 11
38.500000000000007
 21
445.24999999999221
 31
0.0
  0
LINE
  5
FCFF
  8
SU
 10
63.5
 20
421.24999999999233
 30
0.0
 11
38.5
 21
421.24999999999233
 31
0.0
  0
LINE
  5
FD00
  8
SU
 10
41.500000000000007
 20
445.24999999999221
 30
0.0
 11
41.5
 21
421.24999999999233
 31
0.0
  0
LINE
  5
FDD9
  8
KI1
 10
469.69999980926491
 20
441.34999847412132
 30
0.0
 11
461.30000019073458
 21
441.34999847412132
 31
0.0
  0
LINE
  5
FDDA
  8
KI1
 10
475.10000038146939
 20
442.64999847412128
 30
0.0
 11
455.89999961852999
 21
442.64999847412128
 31
0.0
  0
ARC
  5
FDDB
  8
KI1
 10
461.20737504959078
 20
436.34999848008181
 30
0.0
 40
0.4000000059605
 50
195.00000565373881
 51
15.00000041741381
  0
LINE
  5
FDDC
  8
KI1
 10
456.6999999999997
 20
441.34999847412132
 30
0.0
 11
455.75730825457509
 21
442.30985902290342
 31
0.0
  0
ARC
  5
FDDD
  8
KI1
 10
455.89999999999969
 20
442.44999847412129
 30
0.0
 40
0.2
 50
90.0
 51
224.4829717565718
  0
LINE
  5
FDDE
  8
KI1
 10
460.49999999999972
 20
441.34999847412132
 30
0.0
 11
456.6999999999997
 21
441.34999847412132
 31
0.0
  0
ARC
  5
FDDF
  8
KI1
 10
460.49999999999972
 20
438.60358834862728
 30
0.0
 40
0.3000000119209
 50
120.00000333930269
 51
195.00000201127401
  0
LINE
  5
FDE0
  8
KI1
 10
461.29999971389748
 20
437.5497992098334
 30
0.0
 11
461.59374547004683
 21
436.45352602601082
 31
0.0
  0
LINE
  5
FDE1
  8
KI1
 10
460.82100486755348
 20
436.2464709341528
 30
0.0
 11
460.21022224426241
 21
438.52594256997128
 31
0.0
  0
LINE
  5
FDE2
  8
KI1
 10
461.30000019073458
 20
437.5497992098334
 30
0.0
 11
461.30000019073458
 21
441.34999847412132
 31
0.0
  0
LINE
  5
FDE3
  8
KI1
 10
460.35000038146939
 20
438.86339593529732
 30
0.0
 11
460.49999999999972
 21
438.94999838471438
 31
0.0
  0
LINE
  5
FDE4
  8
KI1
 10
460.49999999999972
 20
441.34999847412132
 30
0.0
 11
460.49999999999972
 21
438.94999838471438
 31
0.0
  0
ARC
  5
FDE5
  8
KI1
 10
469.79262495040871
 20
436.34999848008181
 30
0.0
 40
0.4000000059605
 50
164.9999943462611
 51
345.00001301559303
  0
LINE
  5
FDE6
  8
KI1
 10
474.29999999999973
 20
441.34999847412132
 30
0.0
 11
475.24269174542439
 21
442.30985902290342
 31
0.0
  0
ARC
  5
FDE7
  8
KI1
 10
475.09999999999968
 20
442.44999847412129
 30
0.0
 40
0.2
 50
315.51702824342362
 51
90.0
  0
LINE
  5
FDE8
  8
KI1
 10
474.29999999999973
 20
441.34999847412132
 30
0.0
 11
470.49999999999972
 21
441.34999847412132
 31
0.0
  0
ARC
  5
FDE9
  8
KI1
 10
470.49999999999972
 20
438.60358834862728
 30
0.0
 40
0.3000000119209
 50
344.9999995825861
 51
60.000001669652249
  0
LINE
  5
FDEA
  8
KI1
 10
469.40625452995272
 20
436.45352602601082
 30
0.0
 11
469.70000028610201
 21
437.5497992098334
 31
0.0
  0
LINE
  5
FDEB
  8
KI1
 10
470.78977775573702
 20
438.52594256997128
 30
0.0
 11
470.178995132446
 21
436.2464709341528
 31
0.0
  0
LINE
  5
FDEC
  8
KI1
 10
469.69999980926491
 20
441.34999847412132
 30
0.0
 11
469.69999980926491
 21
437.5497992098334
 31
0.0
  0
LINE
  5
FDED
  8
KI1
 10
470.49999999999972
 20
438.94999838471438
 30
0.0
 11
470.64999961852999
 21
438.86339593529732
 31
0.0
  0
LINE
  5
FDEE
  8
KI1
 10
470.49999999999972
 20
438.94999838471438
 30
0.0
 11
470.49999999999972
 21
441.34999847412132
 31
0.0
  0
LINE
  5
FDEF
  8
KI1
 10
470.99999999999977
 20
431.25000000000051
 30
0.0
 11
470.99999999999977
 21
439.34999847412149
 31
0.0
  0
LINE
  5
FDF0
  8
KI1
 10
471.99999999999972
 20
439.75000000000051
 30
0.0
 11
471.99999999999972
 21
430.75000000000051
 31
0.0
  0
LINE
  5
FDF1
  8
KI1
 10
459.99999999999972
 20
439.34999847412149
 30
0.0
 11
459.99999999999972
 21
431.25000000000051
 31
0.0
  0
LINE
  5
FDF2
  8
KI1
 10
458.99999999999977
 20
430.75000000000051
 30
0.0
 11
458.99999999999977
 21
439.75000000000051
 31
0.0
  0
LINE
  5
FDF3
  8
KI1
 10
470.99999999999977
 20
429.75000000000051
 30
0.0
 11
459.99999999999972
 21
429.75000000000051
 31
0.0
  0
LINE
  5
FDF4
  8
KI1
 10
465.79999923706021
 20
430.75000000000051
 30
0.0
 11
470.49999999999972
 21
430.75000000000051
 31
0.0
  0
ARC
  5
FDF5
  8
KI1
 10
459.99999999999972
 20
430.75000000000051
 30
0.0
 40
1.0
 50
179.99999134857859
 51
270.000000683243
  0
ARC
  5
FDF6
  8
KI1
 10
460.49999999999972
 20
431.25000000000051
 30
0.0
 40
0.5
 50
179.99999134857859
 51
270.000000683243
  0
LINE
  5
FDF7
  8
KI1
 10
465.5000011379646
 20
430.45000159740488
 30
0.0
 11
465.80000036954863
 21
430.75000083446548
 31
0.0
  0
LINE
  5
FDF8
  8
KI1
 10
465.20000126957859
 20
430.75000143051187
 30
0.0
 11
465.5000011379646
 21
430.45000159740488
 31
0.0
  0
LINE
  5
FDF9
  8
KI1
 10
460.49999999999972
 20
430.75000000000051
 30
0.0
 11
465.20000076293928
 21
430.75000000000051
 31
0.0
  0
ARC
  5
FDFA
  8
KI1
 10
470.99999999999977
 20
430.75000000000051
 30
0.0
 40
1.0
 50
269.99999749551819
 51
0.0
  0
ARC
  5
FDFB
  8
KI1
 10
470.49999999999972
 20
431.25000000000051
 30
0.0
 40
0.5
 50
269.99999749551819
 51
0.0
  0
ARC
  5
FDFC
  8
KI1
 10
454.99999999999977
 20
440.72867965698248
 30
0.0
 40
0.2000000029802
 50
45.000001252234078
 51
180.00000500895689
  0
LINE
  5
FDFD
  8
KI1
 10
456.49999809265108
 20
441.34999847412138
 30
0.0
 11
454.74644212636429
 21
443.10355348673409
 31
0.0
  0
ARC
  5
FDFE
  8
KI1
 10
454.39288883191131
 20
442.75000000000051
 30
0.0
 40
0.5
 50
45.000015580204412
 51
90.0
1001
GENIUS_GENOBJ-N-FIL_13
1002
{
1000
OWNER
1000
GEN
1002
}
1001
GENIUS_GENODEF_13
1002
{
1000
HIER
1070
     0
1002
}
1002
{
1000
MANEDIT
1070
     0
1002
}
1002
{
1000
NOSEL
1070
     0
1002
}
1002
{
1000
BEHIND
1070
     0
1002
}
1002
{
1000
OTHER
1070
     0
1002
}
1002
{
1000
REACTOR
1002
}
  0
LINE
  5
FDFF
  8
KI1
 10
454.39288883191131
 20
443.25000000000051
 30
0.0
 11
449.00001300731873
 21
443.25000000000051
 31
0.0
  0
ARC
  5
FE00
  8
KI1
 10
445.49999999999972
 20
441.62537918835739
 30
0.0
 40
0.5
 50
107.45439221042309
 51
180.0
1001
GENIUS_GENODEF_13
1002
{
1000
HIER
1070
     0
1002
}
1002
{
1000
MANEDIT
1070
     0
1002
}
1002
{
1000
NOSEL
1070
     0
1002
}
1002
{
1000
BEHIND
1070
     0
1002
}
1002
{
1000
OTHER
1070
     0
1002
}
1002
{
1000
REACTOR
1002
}
1001
GENIUS_GENOBJ-N-FIL_13
1002
{
1000
OWNER
1000
GEN
1002
}
  0
LINE
  5
FE01
  8
KI1
 10
444.99999999999972
 20
441.62537918835739
 30
0.0
 11
444.99999999999972
 21
441.2500000000004
 31
0.0
  0
ARC
  5
FE02
  8
KI1
 10
454.3999977111817
 20
438.95000076294002
 30
0.0
 40
0.4000000059605
 50
179.99999134857859
 51
0.0000100179073766
  0
ARC
  5
FE03
  8
KI1
 10
453.70000076293979
 20
441.65000152587851
 30
0.0
 40
0.3000000119209
 50
0.0
 51
90.000002504475205
  0
LINE
  5
FE04
  8
KI1
 10
447.00001907348673
 20
441.2500000000004
 30
0.0
 11
449.00002098083468
 21
441.95000076293951
 31
0.0
  0
LINE
  5
FE05
  8
KI1
 10
449.00001907348678
 20
441.95000076293951
 30
0.0
 11
453.70000076293979
 21
441.95000076293951
 31
0.0
  0
LINE
  5
FE06
  8
KI1
 10
453.99999999999977
 20
441.65000152587851
 30
0.0
 11
453.99999999999977
 21
438.95000076294002
 31
0.0
  0
LINE
  5
FE07
  8
KI1
 10
447.00001907348673
 20
441.2500000000004
 30
0.0
 11
444.99999999999972
 21
441.2500000000004
 31
0.0
  0
LINE
  5
FE08
  8
KI1
 10
445.35002673009302
 20
442.10235719446831
 30
0.0
 11
449.00001300731873
 21
443.25000000000051
 31
0.0
  0
LINE
  5
FE09
  8
KI1
 10
454.79999923706072
 20
438.95000076294002
 30
0.0
 11
454.79999923706072
 21
440.72867965698248
 31
0.0
  0
ARC
  5
FE0A
  8
KI1
 10
459.99999999999972
 20
440.84999847412138
 30
0.0
 40
0.5
 50
0.0
 51
90.000002504475205
  0
ARC
  5
FE0B
  8
KI1
 10
458.70000076293923
 20
439.75000000000051
 30
0.0
 40
0.3000000119209
 50
0.0
 51
90.000002504475205
  0
LINE
  5
FE0C
  8
KI1
 10
458.70000076293923
 20
440.04999923706049
 30
0.0
 11
455.9615211486813
 21
440.04999923706049
 31
0.0
  0
LINE
  5
FE0D
  8
KI1
 10
459.99999999999972
 20
441.34999847412138
 30
0.0
 11
456.49999999999972
 21
441.34999847412138
 31
0.0
  0
LINE
  5
FE0E
  8
KI1
 10
459.99999999999972
 20
439.34999847412149
 30
0.0
 11
460.49999999999972
 21
439.34999847412149
 31
0.0
  0
LINE
  5
FE0F
  8
KI1
 10
460.49999999999972
 20
439.34999847412149
 30
0.0
 11
460.49999999999972
 21
440.84999847412138
 31
0.0
  0
LINE
  5
FE10
  8
KI1
 10
455.14142322540272
 20
440.87010192871048
 30
0.0
 11
455.96152400970431
 21
440.05000114440952
 31
0.0
  0
LINE
  5
FE11
  8
KI1
 10
481.99996801255861
 20
443.25000000000051
 30
0.0
 11
476.6071063997162
 21
443.25000000000051
 31
0.0
  0
LINE
  5
FE12
  8
KI1
 10
477.30000305175668
 20
441.95000076293951
 30
0.0
 11
481.99997711181572
 21
441.95000076293951
 31
0.0
  0
ARC
  5
FE13
  8
KI1
 10
476.6071063997162
 20
442.75000000000051
 30
0.0
 40
0.5
 50
90.0
 51
134.99998441981859
1001
GENIUS_GENODEF_13
1002
{
1000
HIER
1070
     0
1002
}
1002
{
1000
MANEDIT
1070
     0
1002
}
1002
{
1000
NOSEL
1070
     0
1002
}
1002
{
1000
BEHIND
1070
     0
1002
}
1002
{
1000
OTHER
1070
     0
1002
}
1002
{
1000
REACTOR
1002
}
1001
GENIUS_GENOBJ-N-FIL_13
1002
{
1000
OWNER
1000
GEN
1002
}
  0
ARC
  5
FE14
  8
KI1
 10
476.5999984741207
 20
438.95000076294002
 30
0.0
 40
0.4000000059605
 50
179.99999134857859
 51
0.0000100179073766
  0
ARC
  5
FE15
  8
KI1
 10
470.99999999999977
 20
440.84999847412138
 30
0.0
 40
0.5
 50
90.000002504475205
 51
180.00000500895689
  0
ARC
  5
FE16
  8
KI1
 10
472.30000305175753
 20
439.75000000000051
 30
0.0
 40
0.3000000119209
 50
90.000002504475205
 51
180.00000500895689
  0
ARC
  5
FE17
  8
KI1
 10
477.30000305175668
 20
441.65000152587851
 30
0.0
 40
0.3000000119209
 50
90.000002504475205
 51
180.00000500895689
  0
ARC
  5
FE18
  8
KI1
 10
475.99999999999977
 20
440.72867965698248
 30
0.0
 40
0.2000000029802
 50
0.0
 51
135.00000034162221
  0
LINE
  5
FE19
  8
KI1
 10
475.03847503662081
 20
440.04999923706049
 30
0.0
 11
472.30000305175753
 21
440.04999923706049
 31
0.0
  0
LINE
  5
FE1A
  8
KI1
 10
476.99999999999972
 20
438.95000076294002
 30
0.0
 11
476.99999999999972
 21
441.65000152587851
 31
0.0
  0
LINE
  5
FE1B
  8
KI1
 10
476.25355310526299
 20
443.10355348673397
 30
0.0
 11
474.49999618530239
 21
441.34999752044649
 31
0.0
  0
LINE
  5
FE1C
  8
KI1
 10
474.49999999999972
 20
441.34999847412138
 30
0.0
 11
470.99999999999977
 21
441.34999847412138
 31
0.0
  0
LINE
  5
FE1D
  8
KI1
 10
470.49999999999972
 20
439.34999847412149
 30
0.0
 11
470.99999999999977
 21
439.34999847412149
 31
0.0
  0
LINE
  5
FE1E
  8
KI1
 10
470.49999999999972
 20
440.84999847412138
 30
0.0
 11
470.49999999999972
 21
439.34999847412149
 31
0.0
  0
LINE
  5
FE1F
  8
KI1
 10
475.03847599029513
 20
440.04999923706049
 30
0.0
 11
475.85857677459683
 21
440.87010002136248
 31
0.0
  0
LINE
  5
FE20
  8
KI1
 10
476.19999694824179
 20
440.72867965698248
 30
0.0
 11
476.19999694824179
 21
438.95000076294002
 31
0.0
  0
ARC
  5
FE21
  8
KI1
 10
485.49999999999972
 20
441.62537347068383
 30
0.0
 40
0.5
 50
0.0
 51
72.545611362732629
1001
GENIUS_GENOBJ-N-FIL_13
1002
{
1000
OWNER
1000
GEN
1002
}
1001
GENIUS_GENODEF_13
1002
{
1000
HIER
1070
     0
1002
}
1002
{
1000
MANEDIT
1070
     0
1002
}
1002
{
1000
NOSEL
1070
     0
1002
}
1002
{
1000
BEHIND
1070
     0
1002
}
1002
{
1000
OTHER
1070
     0
1002
}
1002
{
1000
REACTOR
1002
}
  0
LINE
  5
FE22
  8
KI1
 10
485.99999999999972
 20
441.62537347068383
 30
0.0
 11
485.99999999999972
 21
441.2500000000004
 31
0.0
  0
LINE
  5
FE23
  8
KI1
 10
481.99997711181572
 20
441.94999885559048
 30
0.0
 11
483.99997711181572
 21
441.2499990463254
 31
0.0
  0
LINE
  5
FE24
  8
KI1
 10
485.99999999999972
 20
441.2500000000004
 30
0.0
 11
483.99997711181572
 21
441.2500000000004
 31
0.0
  0
LINE
  5
FE25
  8
KI1
 10
481.99996801255861
 20
443.25000000000051
 30
0.0
 11
485.64997324016059
 21
442.10235148614748
 31
0.0
  0
LINE
  5
FE26
  8
KI1
 10
223.29215236292251
 20
56.599650298687997
 30
0.0
 11
218.5
 21
60.049999999992217
 31
0.0
  0
LINE
  5
FE27
  8
KI1
 10
222.55738820434451
 20
55.649999999992247
 30
0.0
 11
217.83516598212231
 21
59.049999999992231
 31
0.0
  0
LINE
  5
FE28
  8
KI1
 10
215.5
 20
59.049999999992231
 30
0.0
 11
193.5
 21
59.049999999992231
 31
0.0
  0
LINE
  5
FE29
  8
KI1
 10
218.5
 20
60.049999999992217
 30
0.0
 11
190.5
 21
60.049999999992217
 31
0.0
  0
ARC
  5
FE2A
  8
KI1
 10
186.0
 20
56.193883127962238
 30
0.0
 40
0.5
 50
125.75388725443661
 51
180.0
1001
GENIUS_GENOBJ-N-FIL_13
1002
{
1000
OWNER
1000
GEN
1002
}
1001
GENIUS_GENODEF_13
1002
{
1000
HIER
1070
     0
1002
}
1002
{
1000
MANEDIT
1070
     0
1002
}
1002
{
1000
NOSEL
1070
     0
1002
}
1002
{
1000
BEHIND
1070
     0
1002
}
1002
{
1000
OTHER
1070
     0
1002
}
1002
{
1000
REACTOR
1002
}
  0
LINE
  5
FE2B
  8
KI1
 10
186.44261179565549
 20
55.649999999992247
 30
0.0
 11
191.16483401787769
 21
59.049999999992231
 31
0.0
  0
LINE
  5
FE2C
  8
KI1
 10
185.5
 20
55.649999999992247
 30
0.0
 11
186.44261179565549
 21
55.649999999992247
 31
0.0
  0
LINE
  5
FE2D
  8
KI1
 10
185.5
 20
55.649999999992247
 30
0.0
 11
185.5
 21
56.193883127962238
 31
0.0
  0
LINE
  5
FE2E
  8
KI1
 10
185.70784763707741
 20
56.599650298687997
 30
0.0
 11
190.5
 21
60.049999999992217
 31
0.0
  0
LINE
  5
FE2F
  8
KI1
 10
192.59999999999999
 20
59.049999999992231
 30
0.0
 11
191.16483401787769
 21
59.049999999992231
 31
0.0
  0
LINE
  5
FE30
  8
KI1
 10
192.59999999999999
 20
58.549999999992217
 30
0.0
 11
192.29674390621429
 21
58.270651218749371
 31
0.0
  0
LINE
  5
FE31
  8
KI1
 10
192.23046433738321
 20
57.918278602422212
 30
0.0
 11
192.74061911651111
 21
56.874371469898847
 31
0.0
  0
ARC
  5
FE32
  8
KI1
 10
192.49999999999989
 20
58.049999999992217
 30
0.0
 40
0.3
 50
132.65017409566951
 51
206.04464303945329
  0
ARC
  5
FE33
  8
KI1
 10
193.09999999999999
 20
57.049999999992217
 30
0.0
 40
0.4
 50
206.04464303945329
 51
0.0
  0
LINE
  5
FE34
  8
KI1
 10
193.5
 20
59.049999999992231
 30
0.0
 11
193.5
 21
57.049999999992217
 31
0.0
  0
LINE
  5
FE35
  8
KI1
 10
192.59999999999999
 20
59.049999999992231
 30
0.0
 11
192.59999999999999
 21
58.549999999992217
 31
0.0
  0
ARC
  5
FE36
  8
KI1
 10
216.5
 20
58.049999999992217
 30
0.0
 40
0.3
 50
333.95535696054662
 51
47.34982590433048
  0
LINE
  5
FE37
  8
KI1
 10
217.83516598212231
 20
59.049999999992231
 30
0.0
 11
216.40000000000001
 21
59.049999999992231
 31
0.0
  0
LINE
  5
FE38
  8
KI1
 10
216.7695356626167
 20
57.918278602422212
 30
0.0
 11
216.25938088348889
 21
56.874371469898847
 31
0.0
  0
LINE
  5
FE39
  8
KI1
 10
216.40000000000001
 20
59.049999999992231
 30
0.0
 11
216.40000000000001
 21
58.549999999992217
 31
0.0
  0
LINE
  5
FE3A
  8
KI1
 10
216.40000000000001
 20
58.549999999992217
 30
0.0
 11
216.70325609378571
 21
58.270651218749371
 31
0.0
  0
LINE
  5
FE3B
  8
KI1
 10
215.5
 20
59.049999999992231
 30
0.0
 11
215.5
 21
57.049999999992217
 31
0.0
  0
ARC
  5
FE3C
  8
KI1
 10
215.90000000000001
 20
57.049999999992217
 30
0.0
 40
0.4
 50
180.0
 51
333.95535696054662
  0
ARC
  5
FE3D
  8
KI1
 10
223.0
 20
56.193883127962238
 30
0.0
 40
0.5
 50
0.0
 51
54.246112745563259
1001
GENIUS_GENOBJ-N-FIL_13
1002
{
1000
OWNER
1000
GEN
1002
}
1001
GENIUS_GENODEF_13
1002
{
1000
HIER
1070
     0
1002
}
1002
{
1000
MANEDIT
1070
     0
1002
}
1002
{
1000
NOSEL
1070
     0
1002
}
1002
{
1000
BEHIND
1070
     0
1002
}
1002
{
1000
OTHER
1070
     0
1002
}
1002
{
1000
REACTOR
1002
}
  0
LINE
  5
FE3E
  8
KI1
 10
223.5
 20
55.649999999992247
 30
0.0
 11
223.5
 21
56.193883127962238
 31
0.0
  0
LINE
  5
FE3F
  8
KI1
 10
223.5
 20
55.649999999992247
 30
0.0
 11
222.55738820434451
 21
55.649999999992247
 31
0.0
  0
LINE
  5
FE40
  8
KI1
 10
198.0417424305046
 20
56.449999999992251
 30
0.0
 11
192.10000000000019
 21
56.449999999992322
 31
0.0
  0
LINE
  5
FE41
  8
KI1
 10
191.4000000000002
 20
55.249999999992269
 30
0.0
 11
217.60000000000019
 21
55.249999999992269
 31
0.0
  0
LINE
  5
FE42
  8
KI1
 10
192.20000000000019
 20
58.849999999992292
 30
0.0
 11
191.90000000000009
 21
58.849999999992228
 31
0.0
  0
ARC
  5
FE43
  8
KI1
 10
191.4000000000002
 20
55.749999999992269
 30
0.0
 40
0.5
 50
180.0
 51
270.0
1001
GENIUS_GENOBJ-N-FIL_13
1002
{
1000
OWNER
1000
GEN
1002
}
1001
GENIUS_GENODEF_13
1002
{
1000
HIER
1070
     0
1002
}
1002
{
1000
MANEDIT
1070
     0
1002
}
1002
{
1000
NOSEL
1070
     0
1002
}
1002
{
1000
BEHIND
1070
     0
1002
}
1002
{
1000
OTHER
1070
     0
1002
}
1002
{
1000
REACTOR
1002
}
  0
LINE
  5
FE44
  8
KI1
 10
191.80000000000021
 20
56.749999999992269
 30
0.0
 11
191.80000000000021
 21
57.608342613218319
 31
0.0
  0
LINE
  5
FE45
  8
KI1
 10
190.90000000000009
 20
57.849999999992228
 30
0.0
 11
190.9000000000002
 21
55.749999999992269
 31
0.0
  0
ARC
  5
FE46
  8
KI1
 10
192.10000000000019
 20
56.749999999992269
 30
0.0
 40
0.3
 50
180.0
 51
270.0
1001
GENIUS_GENOBJ-N-FIL_13
1002
{
1000
OWNER
1000
GEN
1002
}
1001
GENIUS_GENODEF_13
1002
{
1000
HIER
1070
     0
1002
}
1002
{
1000
MANEDIT
1070
     0
1002
}
1002
{
1000
NOSEL
1070
     0
1002
}
1002
{
1000
BEHIND
1070
     0
1002
}
1002
{
1000
OTHER
1070
     0
1002
}
1002
{
1000
REACTOR
1002
}
  0
LINE
  5
FE47
  8
KI1
 10
191.98935997373221
 20
58.000136913942917
 30
0.0
 11
192.386384015761
 21
58.314923419557552
 31
0.0
  0
ARC
  5
FE48
  8
KI1
 10
192.3000000000001
 20
57.608342613218319
 30
0.0
 40
0.5
 50
128.40967106341299
 51
180.0
1001
GENIUS_GENODEF_13
1002
{
1000
HIER
1070
     0
1002
}
1002
{
1000
MANEDIT
1070
     0
1002
}
1002
{
1000
NOSEL
1070
     0
1002
}
1002
{
1000
BEHIND
1070
     0
1002
}
1002
{
1000
OTHER
1070
     0
1002
}
1002
{
1000
REACTOR
1002
}
1001
GENIUS_GENOBJ-N-FIL_13
1002
{
1000
OWNER
1000
GEN
1002
}
  0
ARC
  5
FE49
  8
KI1
 10
192.20000000000019
 20
58.549999999992281
 30
0.0
 40
0.3
 50
308.40967106341299
 51
90.0
  0
ARC
  5
FE4A
  8
KI1
 10
191.90000000000009
 20
57.849999999992228
 30
0.0
 40
1.0
 50
90.000000000003254
 51
180.0
1001
GENIUS_GENOBJ-N-FIL_13
1002
{
1000
OWNER
1000
GEN
1002
}
1001
GENIUS_GENODEF_13
1002
{
1000
HIER
1070
     0
1002
}
1002
{
1000
MANEDIT
1070
     0
1002
}
1002
{
1000
NOSEL
1070
     0
1002
}
1002
{
1000
BEHIND
1070
     0
1002
}
1002
{
1000
OTHER
1070
     0
1002
}
1002
{
1000
REACTOR
1002
}
  0
ARC
  5
FE4B
  8
KI1
 10
216.80000000000021
 20
58.549999999992281
 30
0.0
 40
0.3
 50
90.0
 51
231.59032893658701
  0
LINE
  5
FE4C
  8
KI1
 10
216.90000000000029
 20
56.449999999992322
 30
0.0
 11
210.9582575694958
 21
56.449999999992251
 31
0.0
  0
ARC
  5
FE4D
  8
KI1
 10
204.5000000000002
 20
56.649999999992239
 30
0.0
 40
0.5
 50
203.57817847820061
 51
336.42182152179947
  0
LINE
  5
FE4E
  8
KI1
 10
204.04174243050471
 20
56.449999999992251
 30
0.0
 11
198.9582575694958
 21
56.449999999992251
 31
0.0
  0
ARC
  5
FE4F
  8
KI1
 10
198.5000000000002
 20
56.649999999992239
 30
0.0
 40
0.5
 50
203.57817847820061
 51
336.42182152179947
  0
ARC
  5
FE50
  8
KI1
 10
210.5000000000002
 20
56.649999999992239
 30
0.0
 40
0.5
 50
203.57817847820061
 51
336.42182152179947
  0
LINE
  5
FE51
  8
KI1
 10
210.0417424305046
 20
56.449999999992251
 30
0.0
 11
204.9582575694958
 21
56.449999999992251
 31
0.0
  0
LINE
  5
FE52
  8
KI1
 10
216.80000000000021
 20
58.849999999992292
 30
0.0
 11
217.10000000000039
 21
58.849999999992292
 31
0.0
  0
ARC
  5
FE53
  8
KI1
 10
217.60000000000019
 20
55.749999999992269
 30
0.0
 40
0.5
 50
270.0
 51
0.0
1001
GENIUS_GENOBJ-N-FIL_13
1002
{
1000
OWNER
1000
GEN
1002
}
1001
GENIUS_GENODEF_13
1002
{
1000
HIER
1070
     0
1002
}
1002
{
1000
MANEDIT
1070
     0
1002
}
1002
{
1000
NOSEL
1070
     0
1002
}
1002
{
1000
BEHIND
1070
     0
1002
}
1002
{
1000
OTHER
1070
     0
1002
}
1002
{
1000
REACTOR
1002
}
  0
LINE
  5
FE54
  8
KI1
 10
217.2000000000003
 20
56.749999999992269
 30
0.0
 11
217.2000000000003
 21
57.608342613218319
 31
0.0
  0
LINE
  5
FE55
  8
KI1
 10
218.10000000000031
 20
57.849999999992228
 30
0.0
 11
218.10000000000031
 21
55.749999999992269
 31
0.0
  0
ARC
  5
FE56
  8
KI1
 10
216.90000000000029
 20
56.749999999992269
 30
0.0
 40
0.3
 50
270.0
 51
0.0
1001
GENIUS_GENOBJ-N-FIL_13
1002
{
1000
OWNER
1000
GEN
1002
}
1001
GENIUS_GENODEF_13
1002
{
1000
HIER
1070
     0
1002
}
1002
{
1000
MANEDIT
1070
     0
1002
}
1002
{
1000
NOSEL
1070
     0
1002
}
1002
{
1000
BEHIND
1070
     0
1002
}
1002
{
1000
OTHER
1070
     0
1002
}
1002
{
1000
REACTOR
1002
}
  0
ARC
  5
FE57
  8
KI1
 10
216.7000000000003
 20
57.608342613218319
 30
0.0
 40
0.5
 50
0.0
 51
51.590328936586999
1001
GENIUS_GENODEF_13
1002
{
1000
HIER
1070
     0
1002
}
1002
{
1000
MANEDIT
1070
     0
1002
}
1002
{
1000
NOSEL
1070
     0
1002
}
1002
{
1000
BEHIND
1070
     0
1002
}
1002
{
1000
OTHER
1070
     0
1002
}
1002
{
1000
REACTOR
1002
}
1001
GENIUS_GENOBJ-N-FIL_13
1002
{
1000
OWNER
1000
GEN
1002
}
  0
LINE
  5
FE58
  8
KI1
 10
217.01064002626819
 20
58.000136913942917
 30
0.0
 11
216.61361598423949
 21
58.314923419557552
 31
0.0
  0
ARC
  5
FE59
  8
KI1
 10
217.10000000000031
 20
57.849999999992292
 30
0.0
 40
1.0
 50
359.99999999999682
 51
89.999999999993491
1001
GENIUS_GENOBJ-N-FIL_13
1002
{
1000
OWNER
1000
GEN
1002
}
1001
GENIUS_GENODEF_13
1002
{
1000
HIER
1070
     0
1002
}
1002
{
1000
MANEDIT
1070
     0
1002
}
1002
{
1000
NOSEL
1070
     0
1002
}
1002
{
1000
BEHIND
1070
     0
1002
}
1002
{
1000
OTHER
1070
     0
1002
}
1002
{
1000
REACTOR
1002
}
  0
LINE
  5
FE5A
  8
KI1
 10
209.69999980926491
 20
215.34999847411331
 30
0.0
 11
201.30000019073469
 21
215.34999847411331
 31
0.0
  0
LINE
  5
FE5B
  8
KI1
 10
215.1000003814695
 20
216.64999847411329
 30
0.0
 11
195.8999996185301
 21
216.64999847411329
 31
0.0
  0
ARC
  5
FE5C
  8
KI1
 10
201.20737504959089
 20
210.34999848007379
 30
0.0
 40
0.4000000059605
 50
195.00000565373881
 51
15.000000417414331
  0
LINE
  5
FE5D
  8
KI1
 10
196.69999999999979
 20
215.34999847411331
 30
0.0
 11
195.75730825457509
 21
216.3098590228953
 31
0.0
  0
ARC
  5
FE5E
  8
KI1
 10
195.89999999999981
 20
216.4499984741133
 30
0.0
 40
0.2
 50
90.0
 51
224.4829717565718
  0
LINE
  5
FE5F
  8
KI1
 10
200.4999999999998
 20
215.34999847411331
 30
0.0
 11
196.69999999999979
 21
215.34999847411331
 31
0.0
  0
ARC
  5
FE60
  8
KI1
 10
200.4999999999998
 20
212.6035883486193
 30
0.0
 40
0.3000000119209
 50
120.00000333930291
 51
195.00000201127401
  0
LINE
  5
FE61
  8
KI1
 10
201.29999971389759
 20
211.54979920982541
 30
0.0
 11
201.5937454700468
 21
210.45352602600281
 31
0.0
  0
LINE
  5
FE62
  8
KI1
 10
200.8210048675536
 20
210.24647093414481
 30
0.0
 11
200.2102222442625
 21
212.52594256996329
 31
0.0
  0
LINE
  5
FE63
  8
KI1
 10
201.30000019073469
 20
211.54979920982541
 30
0.0
 11
201.30000019073469
 21
215.34999847411331
 31
0.0
  0
LINE
  5
FE64
  8
KI1
 10
200.3500003814695
 20
212.8633959352893
 30
0.0
 11
200.4999999999998
 21
212.94999838470639
 31
0.0
  0
LINE
  5
FE65
  8
KI1
 10
200.4999999999998
 20
215.34999847411331
 30
0.0
 11
200.4999999999998
 21
212.94999838470639
 31
0.0
  0
ARC
  5
FE66
  8
KI1
 10
209.79262495040871
 20
210.34999848007379
 30
0.0
 40
0.4000000059605
 50
164.9999943462611
 51
345.00001301559291
  0
LINE
  5
FE67
  8
KI1
 10
214.29999999999981
 20
215.34999847411331
 30
0.0
 11
215.24269174542451
 21
216.3098590228953
 31
0.0
  0
ARC
  5
FE68
  8
KI1
 10
215.0999999999998
 20
216.4499984741133
 30
0.0
 40
0.2
 50
315.51702824342362
 51
90.0
  0
LINE
  5
FE69
  8
KI1
 10
214.29999999999981
 20
215.34999847411331
 30
0.0
 11
210.4999999999998
 21
215.34999847411331
 31
0.0
  0
ARC
  5
FE6A
  8
KI1
 10
210.4999999999998
 20
212.6035883486193
 30
0.0
 40
0.3000000119209
 50
344.99999958258559
 51
60.000001669652363
  0
LINE
  5
FE6B
  8
KI1
 10
209.4062545299528
 20
210.45352602600281
 30
0.0
 11
209.7000002861021
 21
211.54979920982541
 31
0.0
  0
LINE
  5
FE6C
  8
KI1
 10
210.78977775573711
 20
212.52594256996329
 30
0.0
 11
210.17899513244609
 21
210.24647093414481
 31
0.0
  0
LINE
  5
FE6D
  8
KI1
 10
209.69999980926491
 20
215.34999847411331
 30
0.0
 11
209.69999980926491
 21
211.54979920982541
 31
0.0
  0
LINE
  5
FE6E
  8
KI1
 10
210.4999999999998
 20
212.94999838470639
 30
0.0
 11
210.6499996185301
 21
212.8633959352893
 31
0.0
  0
LINE
  5
FE6F
  8
KI1
 10
210.4999999999998
 20
212.94999838470639
 30
0.0
 11
210.4999999999998
 21
215.34999847411331
 31
0.0
  0
LINE
  5
FE70
  8
KI1
 10
210.9999999999998
 20
205.24999999999241
 30
0.0
 11
210.9999999999998
 21
213.34999847411339
 31
0.0
  0
LINE
  5
FE71
  8
KI1
 10
211.9999999999998
 20
213.74999999999241
 30
0.0
 11
211.9999999999998
 21
204.74999999999241
 31
0.0
  0
LINE
  5
FE72
  8
KI1
 10
199.9999999999998
 20
213.34999847411339
 30
0.0
 11
199.9999999999998
 21
205.24999999999241
 31
0.0
  0
LINE
  5
FE73
  8
KI1
 10
198.9999999999998
 20
204.74999999999241
 30
0.0
 11
198.9999999999998
 21
213.74999999999241
 31
0.0
  0
LINE
  5
FE74
  8
KI1
 10
210.9999999999998
 20
203.7499999999925
 30
0.0
 11
199.9999999999998
 21
203.7499999999925
 31
0.0
  0
LINE
  5
FE75
  8
KI1
 10
205.79999923706029
 20
204.74999999999241
 30
0.0
 11
210.4999999999998
 21
204.74999999999241
 31
0.0
  0
ARC
  5
FE76
  8
KI1
 10
199.9999999999998
 20
204.74999999999241
 30
0.0
 40
1.0
 50
179.99999134857859
 51
270.000000683243
  0
ARC
  5
FE77
  8
KI1
 10
200.4999999999998
 20
205.24999999999241
 30
0.0
 40
0.5
 50
179.99999134857859
 51
270.000000683243
  0
LINE
  5
FE78
  8
KI1
 10
205.50000113796469
 20
204.45000159739689
 30
0.0
 11
205.8000003695486
 21
204.7500008344575
 31
0.0
  0
LINE
  5
FE79
  8
KI1
 10
205.20000126957871
 20
204.75000143050389
 30
0.0
 11
205.50000113796469
 21
204.45000159739689
 31
0.0
  0
LINE
  5
FE7A
  8
KI1
 10
200.4999999999998
 20
204.74999999999241
 30
0.0
 11
205.2000007629394
 21
204.74999999999241
 31
0.0
  0
ARC
  5
FE7B
  8
KI1
 10
210.9999999999998
 20
204.74999999999241
 30
0.0
 40
1.0
 50
269.99999749551819
 51
0.0
  0
ARC
  5
FE7C
  8
KI1
 10
210.4999999999998
 20
205.24999999999241
 30
0.0
 40
0.5
 50
269.99999749551819
 51
0.0
  0
ARC
  5
FE7D
  8
KI1
 10
194.9999999999998
 20
214.72867965697449
 30
0.0
 40
0.2000000029802
 50
45.000001252234362
 51
180.00000500895689
  0
LINE
  5
FE7E
  8
KI1
 10
196.4999980926512
 20
215.34999847411339
 30
0.0
 11
194.7464421263644
 21
217.10355348672601
 31
0.0
  0
ARC
  5
FE7F
  8
KI1
 10
194.39288883191139
 20
216.74999999999241
 30
0.0
 40
0.5
 50
45.000015580204412
 51
90.0
1001
GENIUS_GENOBJ-N-FIL_13
1002
{
1000
OWNER
1000
GEN
1002
}
1001
GENIUS_GENODEF_13
1002
{
1000
HIER
1070
     0
1002
}
1002
{
1000
MANEDIT
1070
     0
1002
}
1002
{
1000
NOSEL
1070
     0
1002
}
1002
{
1000
BEHIND
1070
     0
1002
}
1002
{
1000
OTHER
1070
     0
1002
}
1002
{
1000
REACTOR
1002
}
  0
LINE
  5
FE80
  8
KI1
 10
194.39288883191139
 20
217.24999999999241
 30
0.0
 11
189.00001300731881
 21
217.24999999999241
 31
0.0
  0
ARC
  5
FE81
  8
KI1
 10
185.4999999999998
 20
215.6253791883494
 30
0.0
 40
0.5
 50
107.45439221042309
 51
180.0
1001
GENIUS_GENODEF_13
1002
{
1000
HIER
1070
     0
1002
}
1002
{
1000
MANEDIT
1070
     0
1002
}
1002
{
1000
NOSEL
1070
     0
1002
}
1002
{
1000
BEHIND
1070
     0
1002
}
1002
{
1000
OTHER
1070
     0
1002
}
1002
{
1000
REACTOR
1002
}
1001
GENIUS_GENOBJ-N-FIL_13
1002
{
1000
OWNER
1000
GEN
1002
}
  0
LINE
  5
FE82
  8
KI1
 10
184.9999999999998
 20
215.6253791883494
 30
0.0
 11
184.9999999999998
 21
215.24999999999241
 31
0.0
  0
ARC
  5
FE83
  8
KI1
 10
194.39999771118181
 20
212.95000076293201
 30
0.0
 40
0.4000000059605
 50
179.99999134857859
 51
0.0000100179073766
  0
ARC
  5
FE84
  8
KI1
 10
193.70000076293979
 20
215.65000152587041
 30
0.0
 40
0.3000000119209
 50
0.0
 51
90.000002504475205
  0
LINE
  5
FE85
  8
KI1
 10
187.00001907348681
 20
215.24999999999241
 30
0.0
 11
189.00002098083479
 21
215.95000076293141
 31
0.0
  0
LINE
  5
FE86
  8
KI1
 10
189.00001907348681
 20
215.95000076293141
 30
0.0
 11
193.70000076293979
 21
215.95000076293141
 31
0.0
  0
LINE
  5
FE87
  8
KI1
 10
193.9999999999998
 20
215.65000152587041
 30
0.0
 11
193.9999999999998
 21
212.95000076293201
 31
0.0
  0
LINE
  5
FE88
  8
KI1
 10
187.00001907348681
 20
215.24999999999241
 30
0.0
 11
184.9999999999998
 21
215.24999999999241
 31
0.0
  0
LINE
  5
FE89
  8
KI1
 10
185.35002673009311
 20
216.1023571944603
 30
0.0
 11
189.00001300731881
 21
217.24999999999241
 31
0.0
  0
LINE
  5
FE8A
  8
KI1
 10
194.7999992370608
 20
212.95000076293201
 30
0.0
 11
194.7999992370608
 21
214.72867965697449
 31
0.0
  0
ARC
  5
FE8B
  8
KI1
 10
199.9999999999998
 20
214.84999847411339
 30
0.0
 40
0.5
 50
0.0
 51
90.000002504475205
  0
ARC
  5
FE8C
  8
KI1
 10
198.70000076293931
 20
213.74999999999241
 30
0.0
 40
0.3000000119209
 50
0.0
 51
90.000002504475205
  0
LINE
  5
FE8D
  8
KI1
 10
198.70000076293931
 20
214.04999923705239
 30
0.0
 11
195.96152114868141
 21
214.04999923705239
 31
0.0
  0
LINE
  5
FE8E
  8
KI1
 10
199.9999999999998
 20
215.34999847411339
 30
0.0
 11
196.4999999999998
 21
215.34999847411339
 31
0.0
  0
LINE
  5
FE8F
  8
KI1
 10
199.9999999999998
 20
213.34999847411339
 30
0.0
 11
200.4999999999998
 21
213.34999847411339
 31
0.0
  0
LINE
  5
FE90
  8
KI1
 10
200.4999999999998
 20
213.34999847411339
 30
0.0
 11
200.4999999999998
 21
214.84999847411339
 31
0.0
  0
LINE
  5
FE91
  8
KI1
 10
195.1414232254028
 20
214.87010192870241
 30
0.0
 11
195.96152400970439
 21
214.05000114440139
 31
0.0
  0
LINE
  5
FE92
  8
KI1
 10
221.9999680125587
 20
217.24999999999241
 30
0.0
 11
216.60710639971629
 21
217.24999999999241
 31
0.0
  0
LINE
  5
FE93
  8
KI1
 10
217.30000305175679
 20
215.95000076293141
 30
0.0
 11
221.99997711181581
 21
215.95000076293141
 31
0.0
  0
ARC
  5
FE94
  8
KI1
 10
216.60710639971629
 20
216.74999999999241
 30
0.0
 40
0.5
 50
90.0
 51
134.99998441981859
1001
GENIUS_GENODEF_13
1002
{
1000
HIER
1070
     0
1002
}
1002
{
1000
MANEDIT
1070
     0
1002
}
1002
{
1000
NOSEL
1070
     0
1002
}
1002
{
1000
BEHIND
1070
     0
1002
}
1002
{
1000
OTHER
1070
     0
1002
}
1002
{
1000
REACTOR
1002
}
1001
GENIUS_GENOBJ-N-FIL_13
1002
{
1000
OWNER
1000
GEN
1002
}
  0
ARC
  5
FE95
  8
KI1
 10
216.59999847412081
 20
212.95000076293201
 30
0.0
 40
0.4000000059605
 50
179.99999134857859
 51
0.0000100179073766
  0
ARC
  5
FE96
  8
KI1
 10
210.9999999999998
 20
214.84999847411339
 30
0.0
 40
0.5
 50
90.000002504475205
 51
180.00000500895689
  0
ARC
  5
FE97
  8
KI1
 10
212.30000305175761
 20
213.74999999999241
 30
0.0
 40
0.3000000119209
 50
90.000002504475205
 51
180.00000500895689
  0
ARC
  5
FE98
  8
KI1
 10
217.30000305175679
 20
215.65000152587041
 30
0.0
 40
0.3000000119209
 50
90.000002504475205
 51
180.00000500895689
  0
ARC
  5
FE99
  8
KI1
 10
215.9999999999998
 20
214.72867965697449
 30
0.0
 40
0.2000000029802
 50
0.0
 51
135.0000003416219
  0
LINE
  5
FE9A
  8
KI1
 10
215.03847503662089
 20
214.04999923705239
 30
0.0
 11
212.30000305175761
 21
214.04999923705239
 31
0.0
  0
LINE
  5
FE9B
  8
KI1
 10
216.9999999999998
 20
212.95000076293201
 30
0.0
 11
216.9999999999998
 21
215.65000152587041
 31
0.0
  0
LINE
  5
FE9C
  8
KI1
 10
216.25355310526319
 20
217.1035534867259
 30
0.0
 11
214.49999618530251
 21
215.34999752043839
 31
0.0
  0
LINE
  5
FE9D
  8
KI1
 10
214.4999999999998
 20
215.34999847411339
 30
0.0
 11
210.9999999999998
 21
215.34999847411339
 31
0.0
  0
LINE
  5
FE9E
  8
KI1
 10
210.4999999999998
 20
213.34999847411339
 30
0.0
 11
210.9999999999998
 21
213.34999847411339
 31
0.0
  0
LINE
  5
FE9F
  8
KI1
 10
210.4999999999998
 20
214.84999847411339
 30
0.0
 11
210.4999999999998
 21
213.34999847411339
 31
0.0
  0
LINE
  5
FEA0
  8
KI1
 10
215.03847599029521
 20
214.04999923705239
 30
0.0
 11
215.8585767745968
 21
214.87010002135449
 31
0.0
  0
LINE
  5
FEA1
  8
KI1
 10
216.1999969482419
 20
214.72867965697449
 30
0.0
 11
216.1999969482419
 21
212.95000076293201
 31
0.0
  0
ARC
  5
FEA2
  8
KI1
 10
225.49999999999989
 20
215.62537347067581
 30
0.0
 40
0.5
 50
0.0
 51
72.545611362732743
1001
GENIUS_GENOBJ-N-FIL_13
1002
{
1000
OWNER
1000
GEN
1002
}
1001
GENIUS_GENODEF_13
1002
{
1000
HIER
1070
     0
1002
}
1002
{
1000
MANEDIT
1070
     0
1002
}
1002
{
1000
NOSEL
1070
     0
1002
}
1002
{
1000
BEHIND
1070
     0
1002
}
1002
{
1000
OTHER
1070
     0
1002
}
1002
{
1000
REACTOR
1002
}
  0
LINE
  5
FEA3
  8
KI1
 10
225.9999999999998
 20
215.62537347067581
 30
0.0
 11
225.9999999999998
 21
215.24999999999241
 31
0.0
  0
LINE
  5
FEA4
  8
KI1
 10
221.99997711181581
 20
215.94999885558249
 30
0.0
 11
223.99997711181581
 21
215.24999904631741
 31
0.0
  0
LINE
  5
FEA5
  8
KI1
 10
225.9999999999998
 20
215.24999999999241
 30
0.0
 11
223.99997711181581
 21
215.24999999999241
 31
0.0
  0
LINE
  5
FEA6
  8
KI1
 10
221.9999680125587
 20
217.24999999999241
 30
0.0
 11
225.6499732401607
 21
216.10235148613941
 31
0.0
  0
LINE
  5
FEDB
  8
SU
 10
304.49999620000011
 20
225.2499999999923
 30
0.0
 11
292.5
 21
225.2499999999923
 31
0.0
  0
LINE
  5
FEDC
  8
SU
 10
304.37999630000002
 20
225.0500001999923
 30
0.0
 11
292.6199999000001
 21
225.0500001999923
 31
0.0
  0
LINE
  5
FEDD
  8
SU
 10
304.25999639999998
 20
224.8500003999923
 30
0.0
 11
292.73999980000002
 21
224.8500003999923
 31
0.0
  0
LINE
  5
FEDE
  8
SU
 10
304.1399965
 20
224.6500005999923
 30
0.0
 11
292.8599997
 21
224.6500005999923
 31
0.0
  0
LINE
  5
FEDF
  8
SU
 10
304.01999660000001
 20
224.4500007999923
 30
0.0
 11
292.97999950000002
 21
224.4500007999923
 31
0.0
  0
LINE
  5
FEE0
  8
SU
 10
303.89999680000011
 20
224.2500009999923
 30
0.0
 11
293.0999994
 21
224.2500009999923
 31
0.0
  0
LINE
  5
FEE1
  8
SU
 10
303.77999690000001
 20
224.0500010999923
 30
0.0
 11
293.2199993000001
 21
224.0500010999923
 31
0.0
  0
LINE
  5
FEE2
  8
SU
 10
303.65999790000001
 20
223.8500012999923
 30
0.0
 11
293.33999920000002
 21
223.8500012999923
 31
0.0
  0
LINE
  5
FEE3
  8
SU
 10
303.5399981000001
 20
223.6500014999923
 30
0.0
 11
293.4599991
 21
223.6500014999923
 31
0.0
  0
LINE
  5
FEE4
  8
SU
 10
303.41999820000001
 20
223.4500016999923
 30
0.0
 11
293.5799990000001
 21
223.4500016999923
 31
0.0
  0
LINE
  5
FEE5
  8
SU
 10
303.29999830000003
 20
223.2500018999923
 30
0.0
 11
293.69999890000003
 21
223.2500018999923
 31
0.0
  0
LINE
  5
FEE6
  8
SU
 10
303.17999839999999
 20
223.0500020999923
 30
0.0
 11
293.81999869999999
 21
223.0500020999923
 31
0.0
  0
LINE
  5
FEE7
  8
SU
 10
303.05999850000001
 20
222.8500022999923
 30
0.0
 11
293.93999860000002
 21
222.8500022999923
 31
0.0
  0
LINE
  5
FEE8
  8
SU
 10
302.93999860000002
 20
222.6500024999923
 30
0.0
 11
294.05999850000001
 21
222.6500024999923
 31
0.0
  0
LINE
  5
FEE9
  8
SU
 10
302.69999890000003
 20
222.2500028999923
 30
0.0
 11
294.29999829999991
 21
222.2500028999923
 31
0.0
  0
LINE
  5
FEEA
  8
SU
 10
302.8199987000001
 20
222.4500026999923
 30
0.0
 11
294.1799984000001
 21
222.4500026999923
 31
0.0
  0
LINE
  5
FEEB
  8
SU
 10
301.97999950000002
 20
221.0500039999923
 30
0.0
 11
295.01999760000001
 21
221.0500039999923
 31
0.0
  0
LINE
  5
FEEC
  8
SU
 10
301.86000059999998
 20
220.8500041999923
 30
0.0
 11
295.13999750000011
 21
220.8500041999923
 31
0.0
  0
LINE
  5
FEED
  8
SU
 10
301.7400007
 20
220.6500043999923
 30
0.0
 11
295.25999739999997
 21
220.6500043999923
 31
0.0
  0
LINE
  5
FEEE
  8
SU
 10
301.62000080000001
 20
220.4500045999923
 30
0.0
 11
295.37999730000001
 21
220.4500045999923
 31
0.0
  0
LINE
  5
FEEF
  8
SU
 10
301.500001
 20
220.2500047999923
 30
0.0
 11
295.49999709999997
 21
220.2500047999923
 31
0.0
  0
LINE
  5
FEF0
  8
SU
 10
301.38000110000002
 20
220.0500049999923
 30
0.0
 11
295.61999700000001
 21
220.0500049999923
 31
0.0
  0
LINE
  5
FEF1
  8
SU
 10
301.26000119999998
 20
219.8500050999923
 30
0.0
 11
295.73999689999999
 21
219.8500050999923
 31
0.0
  0
LINE
  5
FEF2
  8
SU
 10
301.14000129999999
 20
219.6500052999923
 30
0.0
 11
295.85999679999998
 21
219.6500052999923
 31
0.0
  0
LINE
  5
FEF3
  8
SU
 10
301.02000140000001
 20
219.4500054999923
 30
0.0
 11
295.97999670000002
 21
219.4500054999923
 31
0.0
  0
LINE
  5
FEF4
  8
SU
 10
300.90000149999997
 20
219.2500056999923
 30
0.0
 11
296.09999660000011
 21
219.2500056999923
 31
0.0
  0
LINE
  5
FEF5
  8
SU
 10
300.78000159999999
 20
219.0500058999923
 30
0.0
 11
296.21999649999998
 21
219.0500058999923
 31
0.0
  0
LINE
  5
FEF6
  8
SU
 10
300.66000270000001
 20
218.8500060999923
 30
0.0
 11
296.3399963
 21
218.8500060999923
 31
0.0
  0
LINE
  5
FEF7
  8
SU
 10
300.54000280000002
 20
218.6500062999923
 30
0.0
 11
296.45999619999998
 21
218.6500062999923
 31
0.0
  0
LINE
  5
FEF8
  8
SU
 10
300.42000289999999
 20
218.4500064999923
 30
0.0
 11
296.57999610000002
 21
218.4500064999923
 31
0.0
  0
LINE
  5
FEF9
  8
SU
 10
300.30000310000003
 20
218.2500066999923
 30
0.0
 11
296.69999600000011
 21
218.2500066999923
 31
0.0
  0
LINE
  5
FEFA
  8
SU
 10
300.18000319999999
 20
218.05000689999221
 30
0.0
 11
296.81999589999998
 21
218.05000689999221
 31
0.0
  0
LINE
  5
FEFB
  8
SU
 10
300.06000329999989
 20
217.8500070999923
 30
0.0
 11
296.93999580000002
 21
217.8500070999923
 31
0.0
  0
LINE
  5
FEFC
  8
SU
 10
299.94000340000002
 20
217.6500071999923
 30
0.0
 11
297.0599957
 21
217.6500071999923
 31
0.0
  0
LINE
  5
FEFD
  8
SU
 10
299.70000359999989
 20
217.2500075999923
 30
0.0
 11
297.2999954
 21
217.2500075999923
 31
0.0
  0
LINE
  5
FEFE
  8
SU
 10
299.82000349999998
 20
217.4500073999923
 30
0.0
 11
297.17999550000002
 21
217.4500073999923
 31
0.0
  0
LINE
  5
FEFF
  8
SU
 10
299.58000370000002
 20
217.0500077999923
 30
0.0
 11
297.41999529999998
 21
217.0500077999923
 31
0.0
  0
LINE
  5
FF00
  8
SU
 10
299.46000385000002
 20
216.8500079999923
 30
0.0
 11
297.53999519000001
 21
216.8500079999923
 31
0.0
  0
LINE
  5
FF01
  8
SU
 10
299.34000397
 20
216.6500081999923
 30
0.0
 11
297.65999507999999
 21
216.6500081999923
 31
0.0
  0
LINE
  5
FF02
  8
SU
 10
299.2200050400001
 20
216.4500083999923
 30
0.0
 11
297.7799949599999
 21
216.4500083999923
 31
0.0
  0
LINE
  5
FF03
  8
SU
 10
299.10000515000002
 20
216.2500085999923
 30
0.0
 11
297.89999484999998
 21
216.2500085999923
 31
0.0
  0
LINE
  5
FF04
  8
SU
 10
298.86000252000002
 20
215.85000895999229
 30
0.0
 11
298.13999461999998
 21
215.85000895999229
 31
0.0
  0
LINE
  5
FF05
  8
SU
 10
298.98000525999998
 20
216.0500087699923
 30
0.0
 11
298.01999474000002
 21
216.0500087699923
 31
0.0
  0
LINE
  5
FF06
  8
SU
 10
298.74000262999999
 20
215.65000915999229
 30
0.0
 11
298.25999451000001
 21
215.65000915999229
 31
0.0
  0
LINE
  5
FF07
  8
SU
 10
298.5000020224893
 20
215.24999581901881
 30
0.0
 11
292.50000010000002
 21
225.24999959999229
 31
0.0
  0
LINE
  5
FF08
  8
SU
 10
298.62000751000011
 20
215.45001220999231
 30
0.0
 11
298.37999248999989
 21
215.45001220999231
 31
0.0
  0
LINE
  5
FF09
  8
SU
 10
298.49999993819199
 20
215.24999981984141
 30
0.0
 11
304.4999957
 21
225.2499998999923
 31
0.0
  0
LINE
  5
FF0A
  8
SU
 10
302.1000004
 20
221.2500037999923
 30
0.0
 11
294.89999769999997
 21
221.2500037999923
 31
0.0
  0
LINE
  5
FF0B
  8
SU
 10
302.22000029999998
 20
221.4500035999923
 30
0.0
 11
294.77999779999999
 21
221.4500035999923
 31
0.0
  0
LINE
  5
FF0C
  8
SU
 10
302.33999920000002
 20
221.6500033999923
 30
0.0
 11
294.65999790000001
 21
221.6500033999923
 31
0.0
  0
LINE
  5
FF0D
  8
SU
 10
302.4599991
 20
221.8500031999923
 30
0.0
 11
294.53999809999999
 21
221.8500031999923
 31
0.0
  0
LINE
  5
FF0E
  8
SU
 10
302.57999899999999
 20
222.05000309999221
 30
0.0
 11
294.41999820000001
 21
222.05000309999221
 31
0.0
  0
TEXT
  5
FF41
  8
SU
 10
40.199999999999932
 20
427.57833333332559
 30
0.0
 40
7.0
  1
24
 50
90.0
 41
0.8299999999999999
  0
TEXT
  5
FF44
  8
SU
 10
40.199999999999868
 20
395.1934902261998
 30
0.0
 40
7.0
  1
12
 50
90.0
 41
0.8299999999999999
  0
TEXT
  5
FF46
  8
SU
 10
297.19999999999987
 20
325.90238095237328
 30
0.0
 40
10.0
  1
H
 50
90.0
 41
0.8299999999999999
  0
TEXT
  5
FF47
  8
SU
 10
282.19999999999987
 20
283.60366666666312
 30
0.0
 40
7.0
  1
ドアH（DH）=H-37
 50
90.0
 41
0.8299999999999999
  0
TEXT
  5
FF4B
  8
SU
 10
267.19999999999999
 20
427.58025403783671
 30
0.0
 40
7.0
  1
3
 50
90.0
 41
0.8299999999999999
  0
TEXT
  5
FF4C
  8
SU
 10
282.19999999999987
 20
427.5783333333257
 30
0.0
 40
7.0
  1
24
 50
90.0
 41
0.8299999999999999
  0
TEXT
  5
FF50
  8
SU
 10
282.19999999999999
 20
205.2961036170644
 30
0.0
 40
7.0
  1
2
 50
90.0
 41
0.8299999999999999
  0
TEXT
  5
FF52
  8
SU
 10
199.9666666666665
 20
184.54999999999231
 30
0.0
 40
7.0
  1
25
 41
0.8299999999999999
  0
TEXT
  5
FF55
  8
SU
 10
232.94
 20
184.54999999999239
 30
0.0
 40
7.0
  1
10.5
 41
0.8299999999999999
  0
TEXT
  5
FF57
  8
SU
 10
200.7966666666666
 20
249.55000000000049
 30
0.0
 40
7.0
  1
41
 41
0.8299999999999999
  0
TEXT
  5
FF5A
  8
SU
 10
233.77000000000001
 20
249.55000000000049
 30
0.0
 40
7.0
  1
2.5
 41
0.8299999999999999
  0
TEXT
  5
FF5C
  8
SU
 10
297.19999999999987
 20
105.90238095237321
 30
0.0
 40
10.0
  1
H
 50
90.0
 41
0.8299999999999999
  0
TEXT
  5
FF5D
  8
SU
 10
282.19999999999987
 20
79.976333333329734
 30
0.0
 40
7.0
  1
ドアH（DH）=H-40
 50
90.0
 41
0.8299999999999999
  0
TEXT
  5
FF60
  8
SU
 10
267.19999999999999
 20
69.324254037840561
 30
0.0
 40
7.0
  1
（8）
 50
90.0
 41
0.8299999999999999
  0
TEXT
  5
FF61
  8
SU
 10
282.19999999999982
 20
34.707999999992317
 30
0.0
 40
7.0
  1
（5）
 50
90.0
 41
0.8299999999999999
  0
TEXT
  5
FF63
  8
SU
 10
198.96666666666661
 20
89.550000000000566
 30
0.0
 40
7.0
  1
38
 41
0.8299999999999999
  0
TEXT
  5
FF67
  8
SU
 10
235.16167711817931
 20
89.550000000000566
 30
0.0
 40
7.0
  1
5
 41
0.8299999999999999
  0
TEXT
  5
FF68
  8
SU
 10
557.19999999999993
 20
476.90238095238129
 30
0.0
 40
10.0
  1
H
 50
90.0
 41
0.8299999999999999
  0
TEXT
  5
FF69
  8
SU
 10
542.19999999999993
 20
465.97633333333772
 30
0.0
 40
7.0
  1
ドアH（DH）
 50
90.0
 41
0.8299999999999999
  0
TEXT
  5
FF6D
  8
SU
 10
542.1999999999997
 20
433.95816863963103
 30
0.0
 40
7.0
  1
2
 50
90.0
 41
0.8299999999999999
  0
TEXT
  5
FF6F
  8
SU
 10
460.79666666666662
 20
475.55000000000859
 30
0.0
 40
7.0
  1
41
 41
0.8299999999999999
  0
TEXT
  5
FF73
  8
SU
 10
494.38479631215301
 20
475.55000000000859
 30
0.0
 40
7.0
  1
2.5
 41
0.8299999999999999
  0
TEXT
  5
FF74
  8
SU
 10
557.19999999999993
 20
429.30166666666702
 30
0.0
 40
7.0
  1
12
 50
90.0
 41
0.8299999999999999
  0
TEXT
  5
FF76
  8
SU
 10
802.20000000000005
 20
476.90238095238129
 30
0.0
 40
10.0
  1
H
 50
90.0
 41
0.8299999999999999
  0
TEXT
  5
FF77
  8
SU
 10
787.19999999999993
 20
465.97633333333772
 30
0.0
 40
7.0
  1
ドアH（DH）
 50
90.0
 41
0.8299999999999999
  0
TEXT
  5
FF7B
  8
SU
 10
787.1999999999997
 20
433.34346598079708
 30
0.0
 40
7.0
  1
3
 50
90.0
 41
0.8299999999999999
  0
TEXT
  5
FF7D
  8
SU
 10
802.20000000000005
 20
429.30166666666702
 30
0.0
 40
7.0
  1
12
 50
90.0
 41
0.8299999999999999
  0
TEXT
  5
FF7F
  8
SU
 10
459.96666666666653
 20
410.55000000000013
 30
0.0
 40
7.0
  1
25
 41
0.8299999999999999
  0
TEXT
  5
FF82
  8
SU
 10
492.93999999999988
 20
410.55000000000018
 30
0.0
 40
7.0
  1
10.5
 41
0.8299999999999999
  0
TEXT
  5
FF84
  8
SU
 10
656.28499999999997
 20
410.55000000000018
 30
0.0
 40
7.0
  1
161
 41
0.8299999999999999
  0
TEXT
  5
FF87
  8
SU
 10
570.69666666666672
 20
410.5499999999999
 30
0.0
 40
7.0
  1
3
 41
0.8299999999999999
  0
TEXT
  5
FF89
  8
SU
 10
753.76999999999998
 20
410.55000000000013
 30
0.0
 40
7.0
  1
3
 41
0.8299999999999999
  0
LINE
  5
FFC2
  8
OS
 10
64.5
 20
427.22474683057521
 30
0.0
 11
82.525253169416857
 21
445.24999999999233
 31
0.0
1001
GENIUS_GENODEF_13
1002
{
1000
HIER
1070
     0
1002
}
1002
{
1000
MANEDIT
1070
     0
1002
}
1002
{
1000
NOSEL
1070
     0
1002
}
1002
{
1000
BEHIND
1070
     0
1002
}
1002
{
1000
OTHER
1070
     0
1002
}
1002
{
1000
REACTOR
1002
}
1001
GENIUS_GENOBJ-N-HTC_13
1002
{
1000
OWNER
1000
GEN
1002
}
1001
GENIUS_GENHATCH_13
1002
{
1000
DATA
1040
45.0
1042
2.5
1000
_U
1070
     0
1011
145.1058400677411
1021
0.0
1031
0.0
1021
433.29051750791461
1031
0.0
1002
}
1002
{
1000
UCS
1010
0.0
1020
0.0
1030
0.0
1010
1.0
1020
0.0
1030
0.0
1010
0.0
1020
1.0
1030
0.0
1002
}
1001
ACAD
1010
0.0
1020
0.0
1030
0.0
  0
LINE
  5
FFC3
  8
OS
 10
68.424748106028389
 20
421.2499999999921
 30
0.0
 11
92.424748106028503
 21
445.24999999999221
 31
0.0
1001
GENIUS_GENODEF_13
1002
{
1000
HIER
1070
     0
1002
}
1002
{
1000
MANEDIT
1070
     0
1002
}
1002
{
1000
NOSEL
1070
     0
1002
}
1002
{
1000
BEHIND
1070
     0
1002
}
1002
{
1000
OTHER
1070
     0
1002
}
1002
{
1000
REACTOR
1002
}
1001
GENIUS_GENOBJ-N-HTC_13
1002
{
1000
OWNER
1000
GEN
1002
}
1001
GENIUS_GENHATCH_13
1002
{
1000
DATA
1040
45.0
1042
2.5
1000
_U
1070
     0
1011
145.1058400677411
1021
0.0
1031
0.0
1021
433.29051750791461
1031
0.0
1002
}
1002
{
1000
UCS
1010
0.0
1020
0.0
1030
0.0
1010
1.0
1020
0.0
1030
0.0
1010
0.0
1020
1.0
1030
0.0
1002
}
1001
ACAD
1010
0.0
1020
0.0
1030
0.0
  0
LINE
  5
FFC4
  8
OS
 10
78.324243042640262
 20
421.24999999999221
 30
0.0
 11
102.32424304264021
 21
445.24999999999221
 31
0.0
1001
GENIUS_GENODEF_13
1002
{
1000
HIER
1070
     0
1002
}
1002
{
1000
MANEDIT
1070
     0
1002
}
1002
{
1000
NOSEL
1070
     0
1002
}
1002
{
1000
BEHIND
1070
     0
1002
}
1002
{
1000
OTHER
1070
     0
1002
}
1002
{
1000
REACTOR
1002
}
1001
GENIUS_GENOBJ-N-HTC_13
1002
{
1000
OWNER
1000
GEN
1002
}
1001
GENIUS_GENHATCH_13
1002
{
1000
DATA
1040
45.0
1042
2.5
1000
_U
1070
     0
1011
145.1058400677411
1021
0.0
1031
0.0
1021
433.29051750791461
1031
0.0
1002
}
1002
{
1000
UCS
1010
0.0
1020
0.0
1030
0.0
1010
1.0
1020
0.0
1030
0.0
1010
0.0
1020
1.0
1030
0.0
1002
}
1001
ACAD
1010
0.0
1020
0.0
1030
0.0
  0
LINE
  5
FFC5
  8
OS
 10
88.223737979251894
 20
421.24999999999233
 30
0.0
 11
112.22373797925179
 21
445.24999999999221
 31
0.0
1001
GENIUS_GENODEF_13
1002
{
1000
HIER
1070
     0
1002
}
1002
{
1000
MANEDIT
1070
     0
1002
}
1002
{
1000
NOSEL
1070
     0
1002
}
1002
{
1000
BEHIND
1070
     0
1002
}
1002
{
1000
OTHER
1070
     0
1002
}
1002
{
1000
REACTOR
1002
}
1001
GENIUS_GENOBJ-N-HTC_13
1002
{
1000
OWNER
1000
GEN
1002
}
1001
GENIUS_GENHATCH_13
1002
{
1000
DATA
1040
45.0
1042
2.5
1000
_U
1070
     0
1011
145.1058400677411
1021
0.0
1031
0.0
1021
433.29051750791461
1031
0.0
1002
}
1002
{
1000
UCS
1010
0.0
1020
0.0
1030
0.0
1010
1.0
1020
0.0
1030
0.0
1010
0.0
1020
1.0
1030
0.0
1002
}
1001
ACAD
1010
0.0
1020
0.0
1030
0.0
  0
LINE
  5
FFC6
  8
OS
 10
98.123232915863554
 20
421.24999999999233
 30
0.0
 11
122.1232329158635
 21
445.24999999999221
 31
0.0
1001
GENIUS_GENODEF_13
1002
{
1000
HIER
1070
     0
1002
}
1002
{
1000
MANEDIT
1070
     0
1002
}
1002
{
1000
NOSEL
1070
     0
1002
}
1002
{
1000
BEHIND
1070
     0
1002
}
1002
{
1000
OTHER
1070
     0
1002
}
1002
{
1000
REACTOR
1002
}
1001
GENIUS_GENOBJ-N-HTC_13
1002
{
1000
OWNER
1000
GEN
1002
}
1001
GENIUS_GENHATCH_13
1002
{
1000
DATA
1040
45.0
1042
2.5
1000
_U
1070
     0
1011
145.1058400677411
1021
0.0
1031
0.0
1021
433.29051750791461
1031
0.0
1002
}
1002
{
1000
UCS
1010
0.0
1020
0.0
1030
0.0
1010
1.0
1020
0.0
1030
0.0
1010
0.0
1020
1.0
1030
0.0
1002
}
1001
ACAD
1010
0.0
1020
0.0
1030
0.0
  0
LINE
  5
FFC7
  8
OS
 10
108.0227278524752
 20
421.24999999999221
 30
0.0
 11
132.02272785247521
 21
445.24999999999221
 31
0.0
1001
GENIUS_GENODEF_13
1002
{
1000
HIER
1070
     0
1002
}
1002
{
1000
MANEDIT
1070
     0
1002
}
1002
{
1000
NOSEL
1070
     0
1002
}
1002
{
1000
BEHIND
1070
     0
1002
}
1002
{
1000
OTHER
1070
     0
1002
}
1002
{
1000
REACTOR
1002
}
1001
GENIUS_GENOBJ-N-HTC_13
1002
{
1000
OWNER
1000
GEN
1002
}
1001
GENIUS_GENHATCH_13
1002
{
1000
DATA
1040
45.0
1042
2.5
1000
_U
1070
     0
1011
145.1058400677411
1021
0.0
1031
0.0
1021
433.29051750791461
1031
0.0
1002
}
1002
{
1000
UCS
1010
0.0
1020
0.0
1030
0.0
1010
1.0
1020
0.0
1030
0.0
1010
0.0
1020
1.0
1030
0.0
1002
}
1001
ACAD
1010
0.0
1020
0.0
1030
0.0
  0
LINE
  5
FFC8
  8
OS
 10
117.9222227890868
 20
421.24999999999233
 30
0.0
 11
141.92222278908679
 21
445.24999999999233
 31
0.0
1001
GENIUS_GENODEF_13
1002
{
1000
HIER
1070
     0
1002
}
1002
{
1000
MANEDIT
1070
     0
1002
}
1002
{
1000
NOSEL
1070
     0
1002
}
1002
{
1000
BEHIND
1070
     0
1002
}
1002
{
1000
OTHER
1070
     0
1002
}
1002
{
1000
REACTOR
1002
}
1001
GENIUS_GENOBJ-N-HTC_13
1002
{
1000
OWNER
1000
GEN
1002
}
1001
GENIUS_GENHATCH_13
1002
{
1000
DATA
1040
45.0
1042
2.5
1000
_U
1070
     0
1011
145.1058400677411
1021
0.0
1031
0.0
1021
433.29051750791461
1031
0.0
1002
}
1002
{
1000
UCS
1010
0.0
1020
0.0
1030
0.0
1010
1.0
1020
0.0
1030
0.0
1010
0.0
1020
1.0
1030
0.0
1002
}
1001
ACAD
1010
0.0
1020
0.0
1030
0.0
  0
LINE
  5
FFC9
  8
OS
 10
127.82171772569851
 20
421.24999999999233
 30
0.0
 11
151.82171772569851
 21
445.24999999999221
 31
0.0
1001
GENIUS_GENODEF_13
1002
{
1000
HIER
1070
     0
1002
}
1002
{
1000
MANEDIT
1070
     0
1002
}
1002
{
1000
NOSEL
1070
     0
1002
}
1002
{
1000
BEHIND
1070
     0
1002
}
1002
{
1000
OTHER
1070
     0
1002
}
1002
{
1000
REACTOR
1002
}
1001
GENIUS_GENOBJ-N-HTC_13
1002
{
1000
OWNER
1000
GEN
1002
}
1001
GENIUS_GENHATCH_13
1002
{
1000
DATA
1040
45.0
1042
2.5
1000
_U
1070
     0
1011
145.1058400677411
1021
0.0
1031
0.0
1021
433.29051750791461
1031
0.0
1002
}
1002
{
1000
UCS
1010
0.0
1020
0.0
1030
0.0
1010
1.0
1020
0.0
1030
0.0
1010
0.0
1020
1.0
1030
0.0
1002
}
1001
ACAD
1010
0.0
1020
0.0
1030
0.0
  0
LINE
  5
FFCA
  8
OS
 10
137.72121266231011
 20
421.2499999999921
 30
0.0
 11
161.72121266231019
 21
445.24999999999221
 31
0.0
1001
GENIUS_GENODEF_13
1002
{
1000
HIER
1070
     0
1002
}
1002
{
1000
MANEDIT
1070
     0
1002
}
1002
{
1000
NOSEL
1070
     0
1002
}
1002
{
1000
BEHIND
1070
     0
1002
}
1002
{
1000
OTHER
1070
     0
1002
}
1002
{
1000
REACTOR
1002
}
1001
GENIUS_GENOBJ-N-HTC_13
1002
{
1000
OWNER
1000
GEN
1002
}
1001
GENIUS_GENHATCH_13
1002
{
1000
DATA
1040
45.0
1042
2.5
1000
_U
1070
     0
1011
145.1058400677411
1021
0.0
1031
0.0
1021
433.29051750791461
1031
0.0
1002
}
1002
{
1000
UCS
1010
0.0
1020
0.0
1030
0.0
1010
1.0
1020
0.0
1030
0.0
1010
0.0
1020
1.0
1030
0.0
1002
}
1001
ACAD
1010
0.0
1020
0.0
1030
0.0
  0
LINE
  5
FFCB
  8
OS
 10
147.6207075989218
 20
421.24999999999233
 30
0.0
 11
171.6207075989218
 21
445.24999999999233
 31
0.0
1001
GENIUS_GENODEF_13
1002
{
1000
HIER
1070
     0
1002
}
1002
{
1000
MANEDIT
1070
     0
1002
}
1002
{
1000
NOSEL
1070
     0
1002
}
1002
{
1000
BEHIND
1070
     0
1002
}
1002
{
1000
OTHER
1070
     0
1002
}
1002
{
1000
REACTOR
1002
}
1001
GENIUS_GENOBJ-N-HTC_13
1002
{
1000
OWNER
1000
GEN
1002
}
1001
GENIUS_GENHATCH_13
1002
{
1000
DATA
1040
45.0
1042
2.5
1000
_U
1070
     0
1011
145.1058400677411
1021
0.0
1031
0.0
1021
433.29051750791461
1031
0.0
1002
}
1002
{
1000
UCS
1010
0.0
1020
0.0
1030
0.0
1010
1.0
1020
0.0
1030
0.0
1010
0.0
1020
1.0
1030
0.0
1002
}
1001
ACAD
1010
0.0
1020
0.0
1030
0.0
  0
LINE
  5
FFCD
  8
OS
 10
157.5202025355334
 20
421.2499999999921
 30
0.0
 11
181.52020253553351
 21
445.24999999999221
 31
0.0
1001
GENIUS_GENODEF_13
1002
{
1000
HIER
1070
     0
1002
}
1002
{
1000
MANEDIT
1070
     0
1002
}
1002
{
1000
NOSEL
1070
     0
1002
}
1002
{
1000
BEHIND
1070
     0
1002
}
1002
{
1000
OTHER
1070
     0
1002
}
1002
{
1000
REACTOR
1002
}
1001
GENIUS_GENOBJ-N-HTC_13
1002
{
1000
OWNER
1000
GEN
1002
}
1001
GENIUS_GENHATCH_13
1002
{
1000
DATA
1040
45.0
1042
2.5
1000
_U
1070
     0
1011
145.1058400677411
1021
0.0
1031
0.0
1021
433.29051750791461
1031
0.0
1002
}
1002
{
1000
UCS
1010
0.0
1020
0.0
1030
0.0
1010
1.0
1020
0.0
1030
0.0
1010
0.0
1020
1.0
1030
0.0
1002
}
1001
ACAD
1010
0.0
1020
0.0
1030
0.0
  0
LINE
  5
FFCE
  8
OS
 10
167.41969747214509
 20
421.24999999999221
 30
0.0
 11
168.0000009999998
 21
421.83030352784692
 31
0.0
1001
GENIUS_GENODEF_13
1002
{
1000
HIER
1070
     0
1002
}
1002
{
1000
MANEDIT
1070
     0
1002
}
1002
{
1000
NOSEL
1070
     0
1002
}
1002
{
1000
BEHIND
1070
     0
1002
}
1002
{
1000
OTHER
1070
     0
1002
}
1002
{
1000
REACTOR
1002
}
1001
GENIUS_GENOBJ-N-HTC_13
1002
{
1000
OWNER
1000
GEN
1002
}
1001
GENIUS_GENHATCH_13
1002
{
1000
DATA
1040
45.0
1042
2.5
1000
_U
1070
     0
1011
145.1058400677411
1021
0.0
1031
0.0
1021
433.29051750791461
1031
0.0
1002
}
1002
{
1000
UCS
1010
0.0
1020
0.0
1030
0.0
1010
1.0
1020
0.0
1030
0.0
1010
0.0
1020
1.0
1030
0.0
1002
}
1001
ACAD
1010
0.0
1020
0.0
1030
0.0
  0
LINE
  5
FFCF
  8
OS
 10
177.31919240875661
 20
421.2499999999921
 30
0.0
 11
180.60000000000011
 21
424.5308075912356
 31
0.0
1001
GENIUS_GENODEF_13
1002
{
1000
HIER
1070
     0
1002
}
1002
{
1000
MANEDIT
1070
     0
1002
}
1002
{
1000
NOSEL
1070
     0
1002
}
1002
{
1000
BEHIND
1070
     0
1002
}
1002
{
1000
OTHER
1070
     0
1002
}
1002
{
1000
REACTOR
1002
}
1001
GENIUS_GENOBJ-N-HTC_13
1002
{
1000
OWNER
1000
GEN
1002
}
1001
GENIUS_GENHATCH_13
1002
{
1000
DATA
1040
45.0
1042
2.5
1000
_U
1070
     0
1011
145.1058400677411
1021
0.0
1031
0.0
1021
433.29051750791461
1031
0.0
1002
}
1002
{
1000
UCS
1010
0.0
1020
0.0
1030
0.0
1010
1.0
1020
0.0
1030
0.0
1010
0.0
1020
1.0
1030
0.0
1002
}
1001
ACAD
1010
0.0
1020
0.0
1030
0.0
  0
LINE
  5
FFD0
  8
OS
 10
187.21868734536829
 20
421.2499999999921
 30
0.0
 11
211.21868734536861
 21
445.24999999999221
 31
0.0
1001
GENIUS_GENODEF_13
1002
{
1000
HIER
1070
     0
1002
}
1002
{
1000
MANEDIT
1070
     0
1002
}
1002
{
1000
NOSEL
1070
     0
1002
}
1002
{
1000
BEHIND
1070
     0
1002
}
1002
{
1000
OTHER
1070
     0
1002
}
1002
{
1000
REACTOR
1002
}
1001
GENIUS_GENOBJ-N-HTC_13
1002
{
1000
OWNER
1000
GEN
1002
}
1001
GENIUS_GENHATCH_13
1002
{
1000
DATA
1040
45.0
1042
2.5
1000
_U
1070
     0
1011
145.1058400677411
1021
0.0
1031
0.0
1021
433.29051750791461
1031
0.0
1002
}
1002
{
1000
UCS
1010
0.0
1020
0.0
1030
0.0
1010
1.0
1020
0.0
1030
0.0
1010
0.0
1020
1.0
1030
0.0
1002
}
1001
ACAD
1010
0.0
1020
0.0
1030
0.0
  0
LINE
  5
FFD1
  8
OS
 10
197.1181822819801
 20
421.2499999999921
 30
0.0
 11
221.11818228198021
 21
445.24999999999221
 31
0.0
1001
GENIUS_GENODEF_13
1002
{
1000
HIER
1070
     0
1002
}
1002
{
1000
MANEDIT
1070
     0
1002
}
1002
{
1000
NOSEL
1070
     0
1002
}
1002
{
1000
BEHIND
1070
     0
1002
}
1002
{
1000
OTHER
1070
     0
1002
}
1002
{
1000
REACTOR
1002
}
1001
GENIUS_GENOBJ-N-HTC_13
1002
{
1000
OWNER
1000
GEN
1002
}
1001
GENIUS_GENHATCH_13
1002
{
1000
DATA
1040
45.0
1042
2.5
1000
_U
1070
     0
1011
145.1058400677411
1021
0.0
1031
0.0
1021
433.29051750791461
1031
0.0
1002
}
1002
{
1000
UCS
1010
0.0
1020
0.0
1030
0.0
1010
1.0
1020
0.0
1030
0.0
1010
0.0
1020
1.0
1030
0.0
1002
}
1001
ACAD
1010
0.0
1020
0.0
1030
0.0
  0
LINE
  5
FFD2
  8
OS
 10
207.01767721859181
 20
421.24999999999233
 30
0.0
 11
225.5
 21
439.73232278140051
 31
0.0
1001
GENIUS_GENODEF_13
1002
{
1000
HIER
1070
     0
1002
}
1002
{
1000
MANEDIT
1070
     0
1002
}
1002
{
1000
NOSEL
1070
     0
1002
}
1002
{
1000
BEHIND
1070
     0
1002
}
1002
{
1000
OTHER
1070
     0
1002
}
1002
{
1000
REACTOR
1002
}
1001
GENIUS_GENOBJ-N-HTC_13
1002
{
1000
OWNER
1000
GEN
1002
}
1001
GENIUS_GENHATCH_13
1002
{
1000
DATA
1040
45.0
1042
2.5
1000
_U
1070
     0
1011
145.1058400677411
1021
0.0
1031
0.0
1021
433.29051750791461
1031
0.0
1002
}
1002
{
1000
UCS
1010
0.0
1020
0.0
1030
0.0
1010
1.0
1020
0.0
1030
0.0
1010
0.0
1020
1.0
1030
0.0
1002
}
1001
ACAD
1010
0.0
1020
0.0
1030
0.0
  0
LINE
  5
FFD3
  8
OS
 10
216.9171721552035
 20
421.24999999999233
 30
0.0
 11
225.5
 21
429.83282784478871
 31
0.0
1001
GENIUS_GENODEF_13
1002
{
1000
HIER
1070
     0
1002
}
1002
{
1000
MANEDIT
1070
     0
1002
}
1002
{
1000
NOSEL
1070
     0
1002
}
1002
{
1000
BEHIND
1070
     0
1002
}
1002
{
1000
OTHER
1070
     0
1002
}
1002
{
1000
REACTOR
1002
}
1001
GENIUS_GENOBJ-N-HTC_13
1002
{
1000
OWNER
1000
GEN
1002
}
1001
GENIUS_GENHATCH_13
1002
{
1000
DATA
1040
45.0
1042
2.5
1000
_U
1070
     0
1011
145.1058400677411
1021
0.0
1031
0.0
1021
433.29051750791461
1031
0.0
1002
}
1002
{
1000
UCS
1010
0.0
1020
0.0
1030
0.0
1010
1.0
1020
0.0
1030
0.0
1010
0.0
1020
1.0
1030
0.0
1002
}
1001
ACAD
1010
0.0
1020
0.0
1030
0.0
  0
TEXT
  5
FFD4
  8
SU
 10
50.696666666666658
 20
363.04999999999228
 30
0.0
 40
7.0
  1
3
 41
0.8299999999999999
  0
TEXT
  5
FFD7
  8
SU
 10
133.5158946353294
 20
363.04999999999228
 30
0.0
 40
7.0
  1
161
 41
0.8299999999999999
  0
TEXT
  5
FFD9
  8
SU
 10
233.77000000000001
 20
363.04999999999239
 30
0.0
 40
7.0
  1
3
 41
0.8299999999999999
  0
TEXT
  5
FFDB
  8
SU
 10
106.06666666666671
 20
393.04999999999228
 30
0.0
 40
7.0
  1
102.5
 41
0.8299999999999999
  0
TEXT
  5
FFDE
  8
SU
 10
170.82833333333329
 20
393.04999999999228
 30
0.0
 40
7.0
  1
18
 41
0.8299999999999999
  0
TEXT
  5
FFE1
  8
SU
 10
173.3597459621553
 20
378.04999999999228
 30
0.0
 40
7.0
  1
3
 41
0.8299999999999999
  0
TEXT
  5
FFE2
  8
SU
 10
198.96666666666661
 20
393.04999999999228
 30
0.0
 40
7.0
  1
33
 41
0.8299999999999999
  0
TEXT
  5
FFE5
  8
SU
 10
230.81326300581401
 20
393.04999999999239
 30
0.0
 40
7.0
  1
4.5
 41
0.8299999999999999
  0
LINE
  5
FFE6
  8
OS
 10
590.19848480983546
 20
429.25000000000028
 30
0.0
 11
605.19848480984342
 21
444.2500000000083
 31
0.0
1001
GENIUS_GENOBJ-N-HTC_13
1002
{
1000
OWNER
1000
GEN
1002
}
1001
GENIUS_GENODEF_13
1002
{
1000
HIER
1070
     0
1002
}
1002
{
1000
MANEDIT
1070
     0
1002
}
1002
{
1000
NOSEL
1070
     0
1002
}
1002
{
1000
BEHIND
1070
     0
1002
}
1002
{
1000
OTHER
1070
     0
1002
}
1002
{
1000
REACTOR
1002
}
1001
GENIUS_GENHATCH_13
1002
{
1000
DATA
1040
0.0
1042
0.5
1000
ANSI31
1070
     0
1011
710.05343783821161
1021
0.0
1031
0.0
1021
438.58428874806191
1031
0.0
1002
}
1002
{
1000
UCS
1010
0.0
1020
0.0
1030
0.0
1010
1.0
1020
0.0
1030
0.0
1010
0.0
1020
1.0
1030
0.0
1002
}
1001
ACAD
1010
0.0
1020
0.0
1030
0.0
  0
LINE
  5
FFE7
  8
OS
 10
600.09797974645517
 20
429.2500000000083
 30
0.0
 11
615.09797974645505
 21
444.25000000000841
 31
0.0
1001
GENIUS_GENOBJ-N-HTC_13
1002
{
1000
OWNER
1000
GEN
1002
}
1001
GENIUS_GENODEF_13
1002
{
1000
HIER
1070
     0
1002
}
1002
{
1000
MANEDIT
1070
     0
1002
}
1002
{
1000
NOSEL
1070
     0
1002
}
1002
{
1000
BEHIND
1070
     0
1002
}
1002
{
1000
OTHER
1070
     0
1002
}
1002
{
1000
REACTOR
1002
}
1001
GENIUS_GENHATCH_13
1002
{
1000
DATA
1040
0.0
1042
0.5
1000
ANSI31
1070
     0
1011
710.05343783821161
1021
0.0
1031
0.0
1021
438.58428874806191
1031
0.0
1002
}
1002
{
1000
UCS
1010
0.0
1020
0.0
1030
0.0
1010
1.0
1020
0.0
1030
0.0
1010
0.0
1020
1.0
1030
0.0
1002
}
1001
ACAD
1010
0.0
1020
0.0
1030
0.0
  0
LINE
  5
FFE8
  8
OS
 10
609.99747468306668
 20
429.2500000000083
 30
0.0
 11
624.9974746830668
 21
444.25000000000841
 31
0.0
1001
GENIUS_GENOBJ-N-HTC_13
1002
{
1000
OWNER
1000
GEN
1002
}
1001
GENIUS_GENODEF_13
1002
{
1000
HIER
1070
     0
1002
}
1002
{
1000
MANEDIT
1070
     0
1002
}
1002
{
1000
NOSEL
1070
     0
1002
}
1002
{
1000
BEHIND
1070
     0
1002
}
1002
{
1000
OTHER
1070
     0
1002
}
1002
{
1000
REACTOR
1002
}
1001
GENIUS_GENHATCH_13
1002
{
1000
DATA
1040
0.0
1042
0.5
1000
ANSI31
1070
     0
1011
710.05343783821161
1021
0.0
1031
0.0
1021
438.58428874806191
1031
0.0
1002
}
1002
{
1000
UCS
1010
0.0
1020
0.0
1030
0.0
1010
1.0
1020
0.0
1030
0.0
1010
0.0
1020
1.0
1030
0.0
1002
}
1001
ACAD
1010
0.0
1020
0.0
1030
0.0
  0
LINE
  5
FFE9
  8
OS
 10
619.89696961967854
 20
429.2500000000083
 30
0.0
 11
634.89696961967843
 21
444.2500000000083
 31
0.0
1001
GENIUS_GENOBJ-N-HTC_13
1002
{
1000
OWNER
1000
GEN
1002
}
1001
GENIUS_GENODEF_13
1002
{
1000
HIER
1070
     0
1002
}
1002
{
1000
MANEDIT
1070
     0
1002
}
1002
{
1000
NOSEL
1070
     0
1002
}
1002
{
1000
BEHIND
1070
     0
1002
}
1002
{
1000
OTHER
1070
     0
1002
}
1002
{
1000
REACTOR
1002
}
1001
GENIUS_GENHATCH_13
1002
{
1000
DATA
1040
0.0
1042
0.5
1000
ANSI31
1070
     0
1011
710.05343783821161
1021
0.0
1031
0.0
1021
438.58428874806191
1031
0.0
1002
}
1002
{
1000
UCS
1010
0.0
1020
0.0
1030
0.0
1010
1.0
1020
0.0
1030
0.0
1010
0.0
1020
1.0
1030
0.0
1002
}
1001
ACAD
1010
0.0
1020
0.0
1030
0.0
  0
LINE
  5
FFEA
  8
OS
 10
629.79646455629018
 20
429.2500000000083
 30
0.0
 11
644.79646455629006
 21
444.25000000000841
 31
0.0
1001
GENIUS_GENOBJ-N-HTC_13
1002
{
1000
OWNER
1000
GEN
1002
}
1001
GENIUS_GENODEF_13
1002
{
1000
HIER
1070
     0
1002
}
1002
{
1000
MANEDIT
1070
     0
1002
}
1002
{
1000
NOSEL
1070
     0
1002
}
1002
{
1000
BEHIND
1070
     0
1002
}
1002
{
1000
OTHER
1070
     0
1002
}
1002
{
1000
REACTOR
1002
}
1001
GENIUS_GENHATCH_13
1002
{
1000
DATA
1040
0.0
1042
0.5
1000
ANSI31
1070
     0
1011
710.05343783821161
1021
0.0
1031
0.0
1021
438.58428874806191
1031
0.0
1002
}
1002
{
1000
UCS
1010
0.0
1020
0.0
1030
0.0
1010
1.0
1020
0.0
1030
0.0
1010
0.0
1020
1.0
1030
0.0
1002
}
1001
ACAD
1010
0.0
1020
0.0
1030
0.0
  0
LINE
  5
FFEB
  8
OS
 10
639.69595949290169
 20
429.2500000000083
 30
0.0
 11
654.69595949290181
 21
444.25000000000841
 31
0.0
1001
GENIUS_GENOBJ-N-HTC_13
1002
{
1000
OWNER
1000
GEN
1002
}
1001
GENIUS_GENODEF_13
1002
{
1000
HIER
1070
     0
1002
}
1002
{
1000
MANEDIT
1070
     0
1002
}
1002
{
1000
NOSEL
1070
     0
1002
}
1002
{
1000
BEHIND
1070
     0
1002
}
1002
{
1000
OTHER
1070
     0
1002
}
1002
{
1000
REACTOR
1002
}
1001
GENIUS_GENHATCH_13
1002
{
1000
DATA
1040
0.0
1042
0.5
1000
ANSI31
1070
     0
1011
710.05343783821161
1021
0.0
1031
0.0
1021
438.58428874806191
1031
0.0
1002
}
1002
{
1000
UCS
1010
0.0
1020
0.0
1030
0.0
1010
1.0
1020
0.0
1030
0.0
1010
0.0
1020
1.0
1030
0.0
1002
}
1001
ACAD
1010
0.0
1020
0.0
1030
0.0
  0
LINE
  5
FFED
  8
OS
 10
649.59545442950537
 20
429.25000000000028
 30
0.0
 11
664.59545442951344
 21
444.25000000000841
 31
0.0
1001
GENIUS_GENOBJ-N-HTC_13
1002
{
1000
OWNER
1000
GEN
1002
}
1001
GENIUS_GENODEF_13
1002
{
1000
HIER
1070
     0
1002
}
1002
{
1000
MANEDIT
1070
     0
1002
}
1002
{
1000
NOSEL
1070
     0
1002
}
1002
{
1000
BEHIND
1070
     0
1002
}
1002
{
1000
OTHER
1070
     0
1002
}
1002
{
1000
REACTOR
1002
}
1001
GENIUS_GENHATCH_13
1002
{
1000
DATA
1040
0.0
1042
0.5
1000
ANSI31
1070
     0
1011
710.05343783821161
1021
0.0
1031
0.0
1021
438.58428874806191
1031
0.0
1002
}
1002
{
1000
UCS
1010
0.0
1020
0.0
1030
0.0
1010
1.0
1020
0.0
1030
0.0
1010
0.0
1020
1.0
1030
0.0
1002
}
1001
ACAD
1010
0.0
1020
0.0
1030
0.0
  0
LINE
  5
FFEE
  8
OS
 10
659.494949366117
 20
429.25000000000028
 30
0.0
 11
674.49494936612518
 21
444.25000000000841
 31
0.0
1001
GENIUS_GENOBJ-N-HTC_13
1002
{
1000
OWNER
1000
GEN
1002
}
1001
GENIUS_GENODEF_13
1002
{
1000
HIER
1070
     0
1002
}
1002
{
1000
MANEDIT
1070
     0
1002
}
1002
{
1000
NOSEL
1070
     0
1002
}
1002
{
1000
BEHIND
1070
     0
1002
}
1002
{
1000
OTHER
1070
     0
1002
}
1002
{
1000
REACTOR
1002
}
1001
GENIUS_GENHATCH_13
1002
{
1000
DATA
1040
0.0
1042
0.5
1000
ANSI31
1070
     0
1011
710.05343783821161
1021
0.0
1031
0.0
1021
438.58428874806191
1031
0.0
1002
}
1002
{
1000
UCS
1010
0.0
1020
0.0
1030
0.0
1010
1.0
1020
0.0
1030
0.0
1010
0.0
1020
1.0
1030
0.0
1002
}
1001
ACAD
1010
0.0
1020
0.0
1030
0.0
  0
LINE
  5
FFEF
  8
OS
 10
669.39444430272874
 20
429.25000000000028
 30
0.0
 11
684.39444430273682
 21
444.25000000000841
 31
0.0
1001
GENIUS_GENOBJ-N-HTC_13
1002
{
1000
OWNER
1000
GEN
1002
}
1001
GENIUS_GENODEF_13
1002
{
1000
HIER
1070
     0
1002
}
1002
{
1000
MANEDIT
1070
     0
1002
}
1002
{
1000
NOSEL
1070
     0
1002
}
1002
{
1000
BEHIND
1070
     0
1002
}
1002
{
1000
OTHER
1070
     0
1002
}
1002
{
1000
REACTOR
1002
}
1001
GENIUS_GENHATCH_13
1002
{
1000
DATA
1040
0.0
1042
0.5
1000
ANSI31
1070
     0
1011
710.05343783821161
1021
0.0
1031
0.0
1021
438.58428874806191
1031
0.0
1002
}
1002
{
1000
UCS
1010
0.0
1020
0.0
1030
0.0
1010
1.0
1020
0.0
1030
0.0
1010
0.0
1020
1.0
1030
0.0
1002
}
1001
ACAD
1010
0.0
1020
0.0
1030
0.0
  0
LINE
  5
FFF0
  8
OS
 10
679.29393923934026
 20
429.25000000000028
 30
0.0
 11
694.29393923934845
 21
444.25000000000841
 31
0.0
1001
GENIUS_GENOBJ-N-HTC_13
1002
{
1000
OWNER
1000
GEN
1002
}
1001
GENIUS_GENODEF_13
1002
{
1000
HIER
1070
     0
1002
}
1002
{
1000
MANEDIT
1070
     0
1002
}
1002
{
1000
NOSEL
1070
     0
1002
}
1002
{
1000
BEHIND
1070
     0
1002
}
1002
{
1000
OTHER
1070
     0
1002
}
1002
{
1000
REACTOR
1002
}
1001
GENIUS_GENHATCH_13
1002
{
1000
DATA
1040
0.0
1042
0.5
1000
ANSI31
1070
     0
1011
710.05343783821161
1021
0.0
1031
0.0
1021
438.58428874806191
1031
0.0
1002
}
1002
{
1000
UCS
1010
0.0
1020
0.0
1030
0.0
1010
1.0
1020
0.0
1030
0.0
1010
0.0
1020
1.0
1030
0.0
1002
}
1001
ACAD
1010
0.0
1020
0.0
1030
0.0
  0
LINE
  5
FFF1
  8
OS
 10
689.19343417595201
 20
429.25000000000028
 30
0.0
 11
704.19343417596019
 21
444.25000000000841
 31
0.0
1001
GENIUS_GENOBJ-N-HTC_13
1002
{
1000
OWNER
1000
GEN
1002
}
1001
GENIUS_GENODEF_13
1002
{
1000
HIER
1070
     0
1002
}
1002
{
1000
MANEDIT
1070
     0
1002
}
1002
{
1000
NOSEL
1070
     0
1002
}
1002
{
1000
BEHIND
1070
     0
1002
}
1002
{
1000
OTHER
1070
     0
1002
}
1002
{
1000
REACTOR
1002
}
1001
GENIUS_GENHATCH_13
1002
{
1000
DATA
1040
0.0
1042
0.5
1000
ANSI31
1070
     0
1011
710.05343783821161
1021
0.0
1031
0.0
1021
438.58428874806191
1031
0.0
1002
}
1002
{
1000
UCS
1010
0.0
1020
0.0
1030
0.0
1010
1.0
1020
0.0
1030
0.0
1010
0.0
1020
1.0
1030
0.0
1002
}
1001
ACAD
1010
0.0
1020
0.0
1030
0.0
  0
LINE
  5
FFF2
  8
OS
 10
699.09292911257182
 20
429.2500000000083
 30
0.0
 11
714.09292911257182
 21
444.25000000000841
 31
0.0
1001
GENIUS_GENOBJ-N-HTC_13
1002
{
1000
OWNER
1000
GEN
1002
}
1001
GENIUS_GENODEF_13
1002
{
1000
HIER
1070
     0
1002
}
1002
{
1000
MANEDIT
1070
     0
1002
}
1002
{
1000
NOSEL
1070
     0
1002
}
1002
{
1000
BEHIND
1070
     0
1002
}
1002
{
1000
OTHER
1070
     0
1002
}
1002
{
1000
REACTOR
1002
}
1001
GENIUS_GENHATCH_13
1002
{
1000
DATA
1040
0.0
1042
0.5
1000
ANSI31
1070
     0
1011
710.05343783821161
1021
0.0
1031
0.0
1021
438.58428874806191
1031
0.0
1002
}
1002
{
1000
UCS
1010
0.0
1020
0.0
1030
0.0
1010
1.0
1020
0.0
1030
0.0
1010
0.0
1020
1.0
1030
0.0
1002
}
1001
ACAD
1010
0.0
1020
0.0
1030
0.0
  0
LINE
  5
FFF3
  8
OS
 10
708.99242404918346
 20
429.2500000000083
 30
0.0
 11
723.99242404918346
 21
444.25000000000841
 31
0.0
1001
GENIUS_GENOBJ-N-HTC_13
1002
{
1000
OWNER
1000
GEN
1002
}
1001
GENIUS_GENODEF_13
1002
{
1000
HIER
1070
     0
1002
}
1002
{
1000
MANEDIT
1070
     0
1002
}
1002
{
1000
NOSEL
1070
     0
1002
}
1002
{
1000
BEHIND
1070
     0
1002
}
1002
{
1000
OTHER
1070
     0
1002
}
1002
{
1000
REACTOR
1002
}
1001
GENIUS_GENHATCH_13
1002
{
1000
DATA
1040
0.0
1042
0.5
1000
ANSI31
1070
     0
1011
710.05343783821161
1021
0.0
1031
0.0
1021
438.58428874806191
1031
0.0
1002
}
1002
{
1000
UCS
1010
0.0
1020
0.0
1030
0.0
1010
1.0
1020
0.0
1030
0.0
1010
0.0
1020
1.0
1030
0.0
1002
}
1001
ACAD
1010
0.0
1020
0.0
1030
0.0
  0
LINE
  5
FFF4
  8
OS
 10
718.89191898579509
 20
429.2500000000083
 30
0.0
 11
733.8919189857952
 21
444.25000000000841
 31
0.0
1001
GENIUS_GENOBJ-N-HTC_13
1002
{
1000
OWNER
1000
GEN
1002
}
1001
GENIUS_GENODEF_13
1002
{
1000
HIER
1070
     0
1002
}
1002
{
1000
MANEDIT
1070
     0
1002
}
1002
{
1000
NOSEL
1070
     0
1002
}
1002
{
1000
BEHIND
1070
     0
1002
}
1002
{
1000
OTHER
1070
     0
1002
}
1002
{
1000
REACTOR
1002
}
1001
GENIUS_GENHATCH_13
1002
{
1000
DATA
1040
0.0
1042
0.5
1000
ANSI31
1070
     0
1011
710.05343783821161
1021
0.0
1031
0.0
1021
438.58428874806191
1031
0.0
1002
}
1002
{
1000
UCS
1010
0.0
1020
0.0
1030
0.0
1010
1.0
1020
0.0
1030
0.0
1010
0.0
1020
1.0
1030
0.0
1002
}
1001
ACAD
1010
0.0
1020
0.0
1030
0.0
  0
LINE
  5
FFF5
  8
OS
 10
728.79141392240683
 20
429.2500000000083
 30
0.0
 11
743.39570600752825
 21
443.85429208512988
 31
0.0
1001
GENIUS_GENOBJ-N-HTC_13
1002
{
1000
OWNER
1000
GEN
1002
}
1001
GENIUS_GENODEF_13
1002
{
1000
HIER
1070
     0
1002
}
1002
{
1000
MANEDIT
1070
     0
1002
}
1002
{
1000
NOSEL
1070
     0
1002
}
1002
{
1000
BEHIND
1070
     0
1002
}
1002
{
1000
OTHER
1070
     0
1002
}
1002
{
1000
REACTOR
1002
}
1001
GENIUS_GENHATCH_13
1002
{
1000
DATA
1040
0.0
1042
0.5
1000
ANSI31
1070
     0
1011
710.05343783821161
1021
0.0
1031
0.0
1021
438.58428874806191
1031
0.0
1002
}
1002
{
1000
UCS
1010
0.0
1020
0.0
1030
0.0
1010
1.0
1020
0.0
1030
0.0
1010
0.0
1020
1.0
1030
0.0
1002
}
1001
ACAD
1010
0.0
1020
0.0
1030
0.0
  0
LINE
  5
FFF6
  8
OS
 10
738.69090885901846
 20
429.2500000000083
 30
0.0
 11
745.5
 21
436.05909114098989
 31
0.0
1001
GENIUS_GENOBJ-N-HTC_13
1002
{
1000
OWNER
1000
GEN
1002
}
1001
GENIUS_GENODEF_13
1002
{
1000
HIER
1070
     0
1002
}
1002
{
1000
MANEDIT
1070
     0
1002
}
1002
{
1000
NOSEL
1070
     0
1002
}
1002
{
1000
BEHIND
1070
     0
1002
}
1002
{
1000
OTHER
1070
     0
1002
}
1002
{
1000
REACTOR
1002
}
1001
GENIUS_GENHATCH_13
1002
{
1000
DATA
1040
0.0
1042
0.5
1000
ANSI31
1070
     0
1011
710.05343783821161
1021
0.0
1031
0.0
1021
438.58428874806191
1031
0.0
1002
}
1002
{
1000
UCS
1010
0.0
1020
0.0
1030
0.0
1010
1.0
1020
0.0
1030
0.0
1010
0.0
1020
1.0
1030
0.0
1002
}
1001
ACAD
1010
0.0
1020
0.0
1030
0.0
  0
ARC
  5
FFF7
  8
SU
 10
225.5
 20
391.74999999999238
 30
0.0
 40
0.6
 50
180.0
 51
0.0
  0
ARC
  5
FFF8
  8
SU
 10
225.5
 20
391.74999999999238
 30
0.0
 40
0.6
 50
0.0
 51
180.0
  0
ARC
  5
FFF9
  8
SU
 10
221.0
 20
391.74999999999233
 30
0.0
 40
0.6
 50
180.0
 51
0.0
  0
ARC
  5
FFFA
  8
SU
 10
221.0
 20
391.74999999999233
 30
0.0
 40
0.6
 50
0.0
 51
180.0
  0
ARC
  5
FFFB
  8
SU
 10
187.9999999999998
 20
391.74999999999238
 30
0.0
 40
0.6
 50
180.0
 51
0.0
  0
ARC
  5
FFFC
  8
SU
 10
187.9999999999998
 20
391.74999999999238
 30
0.0
 40
0.6
 50
0.0
 51
180.0
  0
ARC
  5
FFFD
  8
SU
 10
185.0
 20
391.74999999999233
 30
0.0
 40
0.6
 50
180.0
 51
0.0
  0
ARC
  5
FFFE
  8
SU
 10
185.0
 20
391.74999999999233
 30
0.0
 40
0.6
 50
0.0
 51
180.0
  0
ARC
  5
FFFF
  8
SU
 10
64.5
 20
391.74999999999233
 30
0.0
 40
0.6
 50
0.0
 51
180.0
  0
ARC
  5
10000
  8
SU
 10
64.5
 20
391.74999999999233
 30
0.0
 40
0.6
 50
180.0
 51
0.0
  0
ARC
  5
10001
  8
SU
 10
167.0
 20
391.74999999999233
 30
0.0
 40
0.6
 50
180.0
 51
0.0
  0
ARC
  5
10002
  8
SU
 10
167.0
 20
391.74999999999233
 30
0.0
 40
0.6
 50
0.0
 51
180.0
  0
ARC
  5
10003
  8
SU
 10
228.5
 20
361.74999999999238
 30
0.0
 40
0.6
 50
180.0
 51
0.0
  0
ARC
  5
10004
  8
SU
 10
228.5
 20
361.74999999999238
 30
0.0
 40
0.6
 50
0.0
 51
180.0
  0
ARC
  5
10005
  8
SU
 10
225.5
 20
361.74999999999233
 30
0.0
 40
0.6
 50
180.0
 51
0.0
  0
ARC
  5
10006
  8
SU
 10
225.5
 20
361.74999999999233
 30
0.0
 40
0.6
 50
0.0
 51
180.0
  0
ARC
  5
10007
  8
SU
 10
64.5
 20
361.74999999999233
 30
0.0
 40
0.6
 50
180.0
 51
0.0
  0
ARC
  5
10008
  8
SU
 10
64.5
 20
361.74999999999233
 30
0.0
 40
0.6
 50
0.0
 51
180.0
  0
ARC
  5
10009
  8
SU
 10
61.5
 20
361.74999999999233
 30
0.0
 40
0.6
 50
0.0
 51
180.0
  0
ARC
  5
1000A
  8
SU
 10
61.5
 20
361.74999999999233
 30
0.0
 40
0.6
 50
180.0
 51
0.0
  0
ARC
  5
10049
  8
SU
 10
748.5
 20
409.25
 30
0.0
 40
0.6
 50
180.0
 51
0.0
  0
ARC
  5
1004A
  8
SU
 10
748.5
 20
409.25
 30
0.0
 40
0.6
 50
0.0
 51
180.0
  0
ARC
  5
1004B
  8
SU
 10
581.5
 20
409.24999999999989
 30
0.0
 40
0.6
 50
0.0
 51
180.0
  0
ARC
  5
1004C
  8
SU
 10
581.5
 20
409.24999999999989
 30
0.0
 40
0.6
 50
180.0
 51
0.0
  0
ARC
  5
1004D
  8
SU
 10
584.49999999999989
 20
409.25000000000023
 30
0.0
 40
0.6
 50
0.0
 51
180.0
  0
ARC
  5
1004E
  8
SU
 10
584.49999999999989
 20
409.25000000000023
 30
0.0
 40
0.6
 50
180.0
 51
0.0
  0
ARC
  5
1004F
  8
SU
 10
745.5
 20
409.25000000000023
 30
0.0
 40
0.6
 50
180.0
 51
0.0
  0
ARC
  5
10050
  8
SU
 10
745.5
 20
409.25000000000023
 30
0.0
 40
0.6
 50
0.0
 51
180.0
  0
ARC
  5
10051
  8
SU
 10
488.49999999999977
 20
409.25000000000023
 30
0.0
 40
0.6
 50
180.0
 51
0.0
  0
ARC
  5
10052
  8
SU
 10
488.49999999999977
 20
409.25000000000023
 30
0.0
 40
0.6
 50
0.0
 51
180.0
  0
ARC
  5
10053
  8
SU
 10
452.99999999999972
 20
409.25000000000011
 30
0.0
 40
0.6
 50
0.0
 51
180.0
  0
ARC
  5
10054
  8
SU
 10
452.99999999999972
 20
409.25000000000011
 30
0.0
 40
0.6
 50
180.0
 51
0.0
  0
ARC
  5
10055
  8
SU
 10
477.99999999999972
 20
409.25000000000011
 30
0.0
 40
0.6
 50
180.0
 51
0.0
  0
ARC
  5
10056
  8
SU
 10
477.99999999999972
 20
409.25000000000011
 30
0.0
 40
0.6
 50
0.0
 51
180.0
  0
ARC
  5
10057
  8
SU
 10
803.5
 20
429.25000000000028
 30
0.0
 40
0.6
 50
90.0
 51
270.0
  0
ARC
  5
10058
  8
SU
 10
803.5
 20
429.25000000000028
 30
0.0
 40
0.6
 50
270.0
 51
90.0
  0
ARC
  5
10059
  8
SU
 10
788.49999999999977
 20
441.25000000000028
 30
0.0
 40
0.6
 50
90.0
 51
270.0
  0
ARC
  5
1005A
  8
SU
 10
788.49999999999977
 20
441.25000000000028
 30
0.0
 40
0.6
 50
270.0
 51
90.0
  0
ARC
  5
1005B
  8
SU
 10
788.49999999999977
 20
444.25000000000028
 30
0.0
 40
0.6
 50
90.0
 51
270.0
  0
ARC
  5
1005C
  8
SU
 10
788.49999999999977
 20
444.25000000000028
 30
0.0
 40
0.6
 50
270.0
 51
90.0
  0
ARC
  5
1005D
  8
SU
 10
788.49999999999989
 20
451.25000000000853
 30
0.0
 40
0.6
 50
90.0
 51
270.0
  0
ARC
  5
1005E
  8
SU
 10
788.49999999999989
 20
451.25000000000853
 30
0.0
 40
0.6
 50
270.0
 51
90.0
  0
ARC
  5
1005F
  8
SU
 10
558.49999999999989
 20
429.25000000000028
 30
0.0
 40
0.6
 50
90.0
 51
270.0
  0
ARC
  5
10060
  8
SU
 10
558.49999999999989
 20
429.25000000000028
 30
0.0
 40
0.6
 50
270.0
 51
90.0
  0
ARC
  5
10061
  8
SU
 10
488.49999999999989
 20
474.25000000000858
 30
0.0
 40
0.6
 50
180.0
 51
0.0
  0
ARC
  5
10062
  8
SU
 10
488.49999999999989
 20
474.25000000000858
 30
0.0
 40
0.6
 50
0.0
 51
180.0
  0
ARC
  5
10063
  8
SU
 10
445.0
 20
474.25000000000858
 30
0.0
 40
0.6
 50
0.0
 51
180.0
  0
ARC
  5
10064
  8
SU
 10
445.0
 20
474.25000000000858
 30
0.0
 40
0.6
 50
180.0
 51
0.0
  0
ARC
  5
10065
  8
SU
 10
485.99999999999972
 20
474.25000000000858
 30
0.0
 40
0.6
 50
180.0
 51
0.0
  0
ARC
  5
10066
  8
SU
 10
485.99999999999972
 20
474.25000000000858
 30
0.0
 40
0.6
 50
0.0
 51
180.0
  0
ARC
  5
10067
  8
SU
 10
543.49999999999966
 20
441.25000000000028
 30
0.0
 40
0.6
 50
270.0
 51
90.0
  0
ARC
  5
10068
  8
SU
 10
543.49999999999966
 20
441.25000000000028
 30
0.0
 40
0.6
 50
90.0
 51
270.0
  0
ARC
  5
10069
  8
SU
 10
543.49999999999977
 20
443.25000000000051
 30
0.0
 40
0.6
 50
90.0
 51
270.0
  0
ARC
  5
1006A
  8
SU
 10
543.49999999999977
 20
443.25000000000051
 30
0.0
 40
0.6
 50
270.0
 51
90.0
  0
ARC
  5
1006B
  8
SU
 10
543.5
 20
451.25000000000853
 30
0.0
 40
0.6
 50
90.0
 51
270.0
  0
ARC
  5
1006C
  8
SU
 10
543.5
 20
451.25000000000853
 30
0.0
 40
0.6
 50
270.0
 51
90.0
  0
ARC
  5
1006D
  8
SU
 10
228.5
 20
88.250000000000568
 30
0.0
 40
0.6
 50
180.0
 51
0.0
  0
ARC
  5
1006E
  8
SU
 10
228.5
 20
88.250000000000568
 30
0.0
 40
0.6
 50
0.0
 51
180.0
  0
ARC
  5
1006F
  8
SU
 10
185.5
 20
88.250000000000568
 30
0.0
 40
0.6
 50
0.0
 51
180.0
  0
ARC
  5
10070
  8
SU
 10
185.5
 20
88.250000000000568
 30
0.0
 40
0.6
 50
180.0
 51
0.0
  0
ARC
  5
10071
  8
SU
 10
223.5
 20
88.250000000000568
 30
0.0
 40
0.6
 50
180.0
 51
0.0
  0
ARC
  5
10072
  8
SU
 10
223.5
 20
88.250000000000568
 30
0.0
 40
0.6
 50
0.0
 51
180.0
  0
ARC
  5
10073
  8
SU
 10
283.49999999999977
 20
55.249999999992269
 30
0.0
 40
0.6
 50
90.0
 51
270.0
  0
ARC
  5
10074
  8
SU
 10
283.49999999999977
 20
55.249999999992269
 30
0.0
 40
0.6
 50
270.0
 51
90.0
  0
ARC
  5
10075
  8
SU
 10
283.49999999999989
 20
60.049999999992203
 30
0.0
 40
0.6
 50
90.0
 51
270.0
  0
ARC
  5
10076
  8
SU
 10
283.49999999999989
 20
60.049999999992203
 30
0.0
 40
0.6
 50
270.0
 51
90.0
  0
ARC
  5
10077
  8
SU
 10
283.49999999999989
 20
68.250000000000441
 30
0.0
 40
0.6
 50
90.0
 51
270.0
  0
ARC
  5
10078
  8
SU
 10
283.49999999999989
 20
68.250000000000441
 30
0.0
 40
0.6
 50
270.0
 51
90.0
  0
ARC
  5
10079
  8
SU
 10
228.5
 20
248.25000000000051
 30
0.0
 40
0.6
 50
180.0
 51
0.0
  0
ARC
  5
1007A
  8
SU
 10
228.5
 20
248.25000000000051
 30
0.0
 40
0.6
 50
0.0
 51
180.0
  0
ARC
  5
1007B
  8
SU
 10
185.0
 20
248.25000000000051
 30
0.0
 40
0.6
 50
0.0
 51
180.0
  0
ARC
  5
1007C
  8
SU
 10
185.0
 20
248.25000000000051
 30
0.0
 40
0.6
 50
180.0
 51
0.0
  0
ARC
  5
1007D
  8
SU
 10
225.9999999999998
 20
248.25000000000051
 30
0.0
 40
0.6
 50
180.0
 51
0.0
  0
ARC
  5
1007E
  8
SU
 10
225.9999999999998
 20
248.25000000000051
 30
0.0
 40
0.6
 50
0.0
 51
180.0
  0
ARC
  5
1007F
  8
SU
 10
228.5
 20
183.24999999999241
 30
0.0
 40
0.6
 50
180.0
 51
0.0
  0
ARC
  5
10080
  8
SU
 10
228.5
 20
183.24999999999241
 30
0.0
 40
0.6
 50
0.0
 51
180.0
  0
ARC
  5
10081
  8
SU
 10
192.99999999999989
 20
183.2499999999923
 30
0.0
 40
0.6
 50
0.0
 51
180.0
  0
ARC
  5
10082
  8
SU
 10
192.99999999999989
 20
183.2499999999923
 30
0.0
 40
0.6
 50
180.0
 51
0.0
  0
ARC
  5
10083
  8
SU
 10
217.99999999999989
 20
183.2499999999923
 30
0.0
 40
0.6
 50
180.0
 51
0.0
  0
ARC
  5
10084
  8
SU
 10
217.99999999999989
 20
183.2499999999923
 30
0.0
 40
0.6
 50
0.0
 51
180.0
  0
ARC
  5
10085
  8
SU
 10
283.5
 20
215.2499999999923
 30
0.0
 40
0.6
 50
270.0
 51
90.0
  0
ARC
  5
10086
  8
SU
 10
283.5
 20
215.2499999999923
 30
0.0
 40
0.6
 50
90.0
 51
270.0
  0
ARC
  5
10087
  8
SU
 10
283.50000000000011
 20
217.24999999999241
 30
0.0
 40
0.6
 50
90.0
 51
270.0
  0
ARC
  5
10088
  8
SU
 10
283.50000000000011
 20
217.24999999999241
 30
0.0
 40
0.6
 50
270.0
 51
90.0
  0
ARC
  5
10089
  8
SU
 10
283.5
 20
445.24999999999221
 30
0.0
 40
0.6
 50
270.0
 51
90.0
  0
ARC
  5
1008A
  8
SU
 10
283.5
 20
445.24999999999221
 30
0.0
 40
0.6
 50
90.0
 51
270.0
  0
ARC
  5
1008B
  8
SU
 10
283.50000000000023
 20
421.24999999999233
 30
0.0
 40
0.6
 50
270.0
 51
90.0
  0
ARC
  5
1008C
  8
SU
 10
283.50000000000023
 20
421.24999999999233
 30
0.0
 40
0.6
 50
90.0
 51
270.0
  0
ARC
  5
1008D
  8
SU
 10
283.49999999999989
 20
225.2500000000006
 30
0.0
 40
0.6
 50
90.0
 51
270.0
  0
ARC
  5
1008E
  8
SU
 10
283.49999999999989
 20
225.2500000000006
 30
0.0
 40
0.6
 50
270.0
 51
90.0
  0
ARC
  5
1008F
  8
SU
 10
283.5
 20
418.24999999999221
 30
0.0
 40
0.6
 50
270.0
 51
90.0
  0
ARC
  5
10090
  8
SU
 10
283.5
 20
418.24999999999221
 30
0.0
 40
0.6
 50
90.0
 51
270.0
  0
ARC
  5
10091
  8
SU
 10
41.499999999999943
 20
409.24999999999221
 30
0.0
 40
0.6
 50
90.0
 51
270.0
  0
ARC
  5
10092
  8
SU
 10
41.499999999999943
 20
409.24999999999221
 30
0.0
 40
0.6
 50
270.0
 51
90.0
  0
ARC
  5
10093
  8
SU
 10
41.500000000000007
 20
445.24999999999221
 30
0.0
 40
0.6
 50
270.0
 51
90.0
  0
ARC
  5
10094
  8
SU
 10
41.500000000000007
 20
445.24999999999221
 30
0.0
 40
0.6
 50
90.0
 51
270.0
  0
ARC
  5
10095
  8
SU
 10
41.5
 20
421.24999999999233
 30
0.0
 40
0.6
 50
90.0
 51
270.0
  0
ARC
  5
10096
  8
SU
 10
41.5
 20
421.24999999999233
 30
0.0
 40
0.6
 50
270.0
 51
90.0
  0
TEXT
  5
10FF7
  8
MJ
 10
392.5
 20
24.25
 30
0.0
 40
7.0
  1
ｖｒ０１ａ００３－ｄ
 41
0.8299999999999999
  0
TEXT
  5
10FF8
  8
MJ
 10
392.5
 20
60.25
 30
0.0
 40
7.0
  1
室内ドア　片開きドア・トイレドア
 41
0.8299999999999999
  0
TEXT
  5
10FF9
  8
MJ
 10
392.5
 20
33.25
 30
0.0
 40
7.0
  1
たて横断面
 41
0.8299999999999999
  0
TEXT
  5
10FFA
  8
MJ
 10
392.5
 20
42.25
 30
0.0
 40
7.0
  1
木製枠　枠見込み１６７ｍｍ（ノンケーシング枠）
 41
0.8299999999999999
  0
LINE
  5
10FFF
  8
KI1
 10
485.49999999999989
 20
234.75000000000799
 30
0.0
 11
581.49999999999977
 21
234.75000000000799
 31
0.0
1001
GENIUS_GENREC_14
1002
{
1000
PYDIR
1011
485.49999999999977
1021
0.0
1031
0.0
1021
201.7500000000241
1031
0.0
1002
}
1002
{
1000
PXDIR
1011
679.49999999999784
1021
0.0
1031
0.0
1021
234.75000000000799
1031
0.0
1002
}
1002
{
1000
PORI
1011
485.49999999999989
1021
0.0
1031
0.0
1021
234.75000000000799
1031
0.0
1002
}
1002
{
1000
PINS
1011
485.49999999999989
1021
0.0
1031
0.0
1021
234.75000000000799
1031
0.0
1002
}
1002
{
1000
PINS2
1011
679.49999999999784
1021
0.0
1031
0.0
1021
201.7500000000241
1031
0.0
1002
}
1002
{
1000
C
1070
     1
1002
}
1001
GENIUS_GENOBJ-N-REC_13
1002
{
1000
OWNER
1000
GEN
1002
}
1001
GENIUS_GENODEF_13
1002
{
1000
HIER
1070
     0
1002
}
1002
{
1000
MANEDIT
1070
     0
1002
}
1002
{
1000
NOSEL
1070
     0
1002
}
1002
{
1000
BEHIND
1070
     0
1002
}
1002
{
1000
OTHER
1070
     0
1002
}
1002
{
1000
REACTOR
1002
}
  0
LINE
  5
11000
  8
KI1
 10
583.49999999999989
 20
234.75000000000799
 30
0.0
 11
679.49999999999784
 21
234.75000000000799
 31
0.0
1001
GENIUS_GENREC_14
1002
{
1000
PYDIR
1011
485.49999999999977
1021
0.0
1031
0.0
1021
201.7500000000241
1031
0.0
1002
}
1002
{
1000
PXDIR
1011
679.49999999999784
1021
0.0
1031
0.0
1021
234.75000000000799
1031
0.0
1002
}
1002
{
1000
PORI
1011
485.49999999999989
1021
0.0
1031
0.0
1021
234.75000000000799
1031
0.0
1002
}
1002
{
1000
PINS
1011
485.49999999999989
1021
0.0
1031
0.0
1021
234.75000000000799
1031
0.0
1002
}
1002
{
1000
PINS2
1011
679.49999999999784
1021
0.0
1031
0.0
1021
201.7500000000241
1031
0.0
1002
}
1002
{
1000
C
1070
     1
1002
}
1001
GENIUS_GENOBJ-N-REC_13
1002
{
1000
OWNER
1000
GEN
1002
}
1001
GENIUS_GENODEF_13
1002
{
1000
HIER
1070
     0
1002
}
1002
{
1000
MANEDIT
1070
     0
1002
}
1002
{
1000
NOSEL
1070
     0
1002
}
1002
{
1000
BEHIND
1070
     0
1002
}
1002
{
1000
OTHER
1070
     0
1002
}
1002
{
1000
REACTOR
1002
}
  0
LINE
  5
11001
  8
KI1
 10
679.49999999999784
 20
234.75000000000799
 30
0.0
 11
679.49999999999784
 21
201.7500000000241
 31
0.0
1001
GENIUS_GENREC_14
1002
{
1000
PYDIR
1011
485.49999999999977
1021
0.0
1031
0.0
1021
201.7500000000241
1031
0.0
1002
}
1002
{
1000
PXDIR
1011
679.49999999999784
1021
0.0
1031
0.0
1021
234.75000000000799
1031
0.0
1002
}
1002
{
1000
PORI
1011
485.49999999999989
1021
0.0
1031
0.0
1021
234.75000000000799
1031
0.0
1002
}
1002
{
1000
PINS
1011
485.49999999999989
1021
0.0
1031
0.0
1021
234.75000000000799
1031
0.0
1002
}
1002
{
1000
PINS2
1011
679.49999999999784
1021
0.0
1031
0.0
1021
201.7500000000241
1031
0.0
1002
}
1002
{
1000
C
1070
     1
1002
}
1001
GENIUS_GENOBJ-N-REC_13
1002
{
1000
OWNER
1000
GEN
1002
}
1001
GENIUS_GENODEF_13
1002
{
1000
HIER
1070
     0
1002
}
1002
{
1000
MANEDIT
1070
     0
1002
}
1002
{
1000
NOSEL
1070
     0
1002
}
1002
{
1000
BEHIND
1070
     0
1002
}
1002
{
1000
OTHER
1070
     0
1002
}
1002
{
1000
REACTOR
1002
}
  0
LINE
  5
11002
  8
KI1
 10
679.49999999999784
 20
201.7500000000241
 30
0.0
 11
583.49999999999989
 21
201.7500000000241
 31
0.0
1001
GENIUS_GENREC_14
1002
{
1000
PYDIR
1011
485.49999999999977
1021
0.0
1031
0.0
1021
201.7500000000241
1031
0.0
1002
}
1002
{
1000
PXDIR
1011
679.49999999999784
1021
0.0
1031
0.0
1021
234.75000000000799
1031
0.0
1002
}
1002
{
1000
PORI
1011
485.49999999999989
1021
0.0
1031
0.0
1021
234.75000000000799
1031
0.0
1002
}
1002
{
1000
PINS
1011
485.49999999999989
1021
0.0
1031
0.0
1021
234.75000000000799
1031
0.0
1002
}
1002
{
1000
PINS2
1011
679.49999999999784
1021
0.0
1031
0.0
1021
201.7500000000241
1031
0.0
1002
}
1002
{
1000
C
1070
     1
1002
}
1001
GENIUS_GENOBJ-N-REC_13
1002
{
1000
OWNER
1000
GEN
1002
}
1001
GENIUS_GENODEF_13
1002
{
1000
HIER
1070
     0
1002
}
1002
{
1000
MANEDIT
1070
     0
1002
}
1002
{
1000
NOSEL
1070
     0
1002
}
1002
{
1000
BEHIND
1070
     0
1002
}
1002
{
1000
OTHER
1070
     0
1002
}
1002
{
1000
REACTOR
1002
}
  0
LINE
  5
11003
  8
KI1
 10
581.49999999999977
 20
201.7500000000241
 30
0.0
 11
485.49999999999989
 21
201.7500000000241
 31
0.0
1001
GENIUS_GENREC_14
1002
{
1000
PYDIR
1011
485.49999999999977
1021
0.0
1031
0.0
1021
201.7500000000241
1031
0.0
1002
}
1002
{
1000
PXDIR
1011
679.49999999999784
1021
0.0
1031
0.0
1021
234.75000000000799
1031
0.0
1002
}
1002
{
1000
PORI
1011
485.49999999999989
1021
0.0
1031
0.0
1021
234.75000000000799
1031
0.0
1002
}
1002
{
1000
PINS
1011
485.49999999999989
1021
0.0
1031
0.0
1021
234.75000000000799
1031
0.0
1002
}
1002
{
1000
PINS2
1011
679.49999999999784
1021
0.0
1031
0.0
1021
201.7500000000241
1031
0.0
1002
}
1002
{
1000
C
1070
     1
1002
}
1001
GENIUS_GENOBJ-N-REC_13
1002
{
1000
OWNER
1000
GEN
1002
}
1001
GENIUS_GENODEF_13
1002
{
1000
HIER
1070
     0
1002
}
1002
{
1000
MANEDIT
1070
     0
1002
}
1002
{
1000
NOSEL
1070
     0
1002
}
1002
{
1000
BEHIND
1070
     0
1002
}
1002
{
1000
OTHER
1070
     0
1002
}
1002
{
1000
REACTOR
1002
}
  0
LINE
  5
11004
  8
KI1
 10
485.49999999999989
 20
201.7500000000241
 30
0.0
 11
485.49999999999989
 21
234.75000000000799
 31
0.0
1001
GENIUS_GENREC_14
1002
{
1000
PYDIR
1011
485.49999999999977
1021
0.0
1031
0.0
1021
201.7500000000241
1031
0.0
1002
}
1002
{
1000
PXDIR
1011
879.5000000155768
1021
0.0
1031
0.0
1021
234.75000000000799
1031
0.0
1002
}
1002
{
1000
PORI
1011
485.49999999999989
1021
0.0
1031
0.0
1021
234.75000000000799
1031
0.0
1002
}
1002
{
1000
PINS
1011
485.49999999999989
1021
0.0
1031
0.0
1021
234.75000000000799
1031
0.0
1002
}
1002
{
1000
PINS2
1011
879.5000000155768
1021
0.0
1031
0.0
1021
201.7500000000241
1031
0.0
1002
}
1002
{
1000
C
1070
     1
1002
}
1001
GENIUS_GENOBJ-N-REC_13
1002
{
1000
OWNER
1000
GEN
1002
}
1001
GENIUS_GENODEF_13
1002
{
1000
HIER
1070
     0
1002
}
1002
{
1000
MANEDIT
1070
     0
1002
}
1002
{
1000
NOSEL
1070
     0
1002
}
1002
{
1000
BEHIND
1070
     0
1002
}
1002
{
1000
OTHER
1070
     0
1002
}
1002
{
1000
REACTOR
1002
}
  0
TEXT
  5
1103A
  8
MJ
 10
392.5
 20
51.25
 30
0.0
 40
7.0
  1
機能ドア　ペットドア
 41
0.8299999999999999
  0
LINE
  5
112E1
  8
TE
 10
468.10660171796269
 20
183.64339828236621
 30
0.0
 11
446.89339828203708
 21
204.85660171763379
 31
0.0
  0
LINE
  5
112E2
  8
TE
 10
446.8953197459283
 20
183.6414757736465
 30
0.0
 11
468.10468025407152
 21
204.85852422635341
 31
0.0
  0
LINE
  5
112E3
  8
TE
 10
718.10660171796269
 20
183.64339828236601
 30
0.0
 11
696.8933982820372
 21
204.85660171763359
 31
0.0
  0
LINE
  5
112E4
  8
TE
 10
696.89531974592842
 20
183.64147577364631
 30
0.0
 11
718.10468025407147
 21
204.85852422635321
 31
0.0
  0
LINE
  5
112E6
  8
SU
 10
620.99999999999784
 20
134.25000000001609
 30
0.0
 11
707.49999999999989
 21
134.25000000001609
 31
0.0
  0
LINE
  5
112E9
  8
SU
 10
493.49999999999977
 20
234.25000000000799
 30
0.0
 11
493.49999999999977
 21
131.25000000001609
 31
0.0
  0
LINE
  5
112EA
  8
SU
 10
620.99999999999784
 20
153.2500000000162
 30
0.0
 11
620.99999999999784
 21
131.25000000001609
 31
0.0
  0
LINE
  5
112EB
  8
SU
 10
493.49999999999977
 20
134.25000000001609
 30
0.0
 11
620.99999999999784
 21
134.25000000001609
 31
0.0
  0
LINE
  5
112EF
  8
SU
 10
683.49999999999784
 20
104.2500000000161
 30
0.0
 11
707.49999999999989
 21
104.2500000000161
 31
0.0
  0
LINE
  5
112F2
  8
SU
 10
683.49999999999784
 20
179.2500000000162
 30
0.0
 11
683.49999999999784
 21
101.250000000016
 31
0.0
  0
LINE
  5
112F3
  8
SU
 10
679.49999999999784
 20
104.250000000016
 30
0.0
 11
683.49999999999784
 21
104.250000000016
 31
0.0
  0
LINE
  5
112F4
  8
SU
 10
681.49999999999784
 20
104.250000000016
 30
0.0
 11
674.13974596215326
 21
119.2500000000161
 31
0.0
  0
LINE
  5
112F5
  8
SU
 10
674.13974596215326
 20
119.2500000000161
 30
0.0
 11
667.38974596215326
 21
119.2500000000161
 31
0.0
  0
LINE
  5
112F8
  8
SU
 10
679.49999999999784
 20
200.7500000000241
 30
0.0
 11
679.49999999999784
 21
101.2500000000162
 31
0.0
  0
LINE
  5
112F9
  8
SU
 10
485.49999999999989
 20
104.2500000000161
 30
0.0
 11
679.49999999999784
 21
104.2500000000161
 31
0.0
  0
LINE
  5
112FC
  8
SU
 10
485.49999999999989
 20
200.7500000000241
 30
0.0
 11
485.49999999999989
 21
101.2500000000162
 31
0.0
  0
LINE
  5
112FD
  8
SU
 10
481.49999999999977
 20
104.2500000000162
 30
0.0
 11
485.49999999999989
 21
104.2500000000162
 31
0.0
  0
LINE
  5
112FE
  8
SU
 10
483.49999999999989
 20
104.2500000000162
 30
0.0
 11
490.86025403784407
 21
119.2500000000161
 31
0.0
  0
LINE
  5
112FF
  8
SU
 10
490.86025403784407
 20
119.2500000000161
 30
0.0
 11
497.61025403784407
 21
119.2500000000161
 31
0.0
  0
LINE
  5
11302
  8
SU
 10
481.49999999999977
 20
193.25
 30
0.0
 11
481.49999999999977
 21
101.2500000000162
 31
0.0
  0
LINE
  5
11303
  8
SU
 10
481.49999999999977
 20
104.2500000000161
 30
0.0
 11
457.49999999999989
 21
104.2500000000161
 31
0.0
  0
LINE
  5
11307
  8
SU
 10
467.49999999999989
 20
95.249996200016227
 30
0.0
 11
467.49999999999989
 21
83.250000000016172
 31
0.0
  0
LINE
  5
11308
  8
SU
 10
467.30000019999989
 20
95.129996300016188
 30
0.0
 11
467.30000019999989
 21
83.369999900016197
 31
0.0
  0
LINE
  5
11309
  8
SU
 10
467.10000039999989
 20
95.009996400016135
 30
0.0
 11
467.10000039999989
 21
83.489999800016136
 31
0.0
  0
LINE
  5
1130A
  8
SU
 10
466.90000059999988
 20
94.889996500016224
 30
0.0
 11
466.90000059999988
 21
83.609999700016175
 31
0.0
  0
LINE
  5
1130B
  8
SU
 10
466.70000079999988
 20
94.769996600016185
 30
0.0
 11
466.70000079999988
 21
83.729999500016135
 31
0.0
  0
LINE
  5
1130C
  8
SU
 10
466.50000099999988
 20
94.649996800016226
 30
0.0
 11
466.50000099999988
 21
83.849999400016173
 31
0.0
  0
LINE
  5
1130D
  8
SU
 10
466.30000109999992
 20
94.529996900016187
 30
0.0
 11
466.30000109999992
 21
83.969999300016212
 31
0.0
  0
LINE
  5
1130E
  8
SU
 10
466.1000012999998
 20
94.409997900016165
 30
0.0
 11
466.1000012999998
 21
84.089999200016138
 31
0.0
  0
LINE
  5
1130F
  8
SU
 10
465.90000149999992
 20
94.28999810001622
 30
0.0
 11
465.90000149999992
 21
84.209999100016176
 31
0.0
  0
LINE
  5
11310
  8
SU
 10
465.70000169999992
 20
94.169998200016195
 30
0.0
 11
465.70000169999992
 21
84.329999000016215
 31
0.0
  0
LINE
  5
11311
  8
SU
 10
465.50000189999992
 20
94.049998300016142
 30
0.0
 11
465.50000189999992
 21
84.449998900016141
 31
0.0
  0
LINE
  5
11312
  8
SU
 10
465.30000209999992
 20
93.929998400016217
 30
0.0
 11
465.30000209999992
 21
84.569998700016214
 31
0.0
  0
LINE
  5
11313
  8
SU
 10
465.10000229999991
 20
93.809998500016178
 30
0.0
 11
465.10000229999991
 21
84.689998600016139
 31
0.0
  0
LINE
  5
11314
  8
SU
 10
464.90000249999991
 20
93.689998600016125
 30
0.0
 11
464.90000249999991
 21
84.809998500016178
 31
0.0
  0
LINE
  5
11315
  8
SU
 10
464.50000289999991
 20
93.449998900016155
 30
0.0
 11
464.50000289999991
 21
85.049998300016128
 31
0.0
  0
LINE
  5
11316
  8
SU
 10
464.7000026999998
 20
93.569998700016214
 30
0.0
 11
464.7000026999998
 21
84.929998400016217
 31
0.0
  0
LINE
  5
11317
  8
SU
 10
463.30000399999989
 20
92.729999500016135
 30
0.0
 11
463.30000399999989
 21
85.769997600016168
 31
0.0
  0
LINE
  5
11318
  8
SU
 10
463.10000419999989
 20
92.610000600016207
 30
0.0
 11
463.10000419999989
 21
85.889997500016221
 31
0.0
  0
LINE
  5
11319
  8
SU
 10
462.90000439999989
 20
92.490000700016168
 30
0.0
 11
462.90000439999989
 21
86.009997400016147
 31
0.0
  0
LINE
  5
1131A
  8
SU
 10
462.70000459999989
 20
92.370000800016115
 30
0.0
 11
462.70000459999989
 21
86.129997300016186
 31
0.0
  0
LINE
  5
1131B
  8
SU
 10
462.50000479999989
 20
92.250001000016169
 30
0.0
 11
462.50000479999989
 21
86.249997100016145
 31
0.0
  0
LINE
  5
1131C
  8
SU
 10
462.30000499999989
 20
92.130001100016145
 30
0.0
 11
462.30000499999989
 21
86.369997000016184
 31
0.0
  0
LINE
  5
1131D
  8
SU
 10
462.10000509999998
 20
92.010001200016205
 30
0.0
 11
462.10000509999998
 21
86.489996900016209
 31
0.0
  0
LINE
  5
1131E
  8
SU
 10
461.90000529999992
 20
91.890001300016166
 30
0.0
 11
461.90000529999992
 21
86.609996800016134
 31
0.0
  0
LINE
  5
1131F
  8
SU
 10
461.70000549999997
 20
91.770001400016127
 30
0.0
 11
461.70000549999997
 21
86.729996700016187
 31
0.0
  0
LINE
  5
11320
  8
SU
 10
461.50000569999992
 20
91.650001500016202
 30
0.0
 11
461.50000569999992
 21
86.849996600016226
 31
0.0
  0
LINE
  5
11321
  8
SU
 10
461.30000589999992
 20
91.530001600016149
 30
0.0
 11
461.30000589999992
 21
86.969996500016151
 31
0.0
  0
LINE
  5
11322
  8
SU
 10
461.10000609999992
 20
91.410002700016122
 30
0.0
 11
461.10000609999992
 21
87.089996300016224
 31
0.0
  0
LINE
  5
11323
  8
SU
 10
460.90000629999992
 20
91.290002800016197
 30
0.0
 11
460.90000629999992
 21
87.20999620001615
 31
0.0
  0
LINE
  5
11324
  8
SU
 10
460.70000649999997
 20
91.170002900016158
 30
0.0
 11
460.70000649999997
 21
87.329996100016174
 31
0.0
  0
LINE
  5
11325
  8
SU
 10
460.50000669999991
 20
91.050003100016184
 30
0.0
 11
460.50000669999991
 21
87.449996000016228
 31
0.0
  0
LINE
  5
11326
  8
SU
 10
460.30000690000003
 20
90.930003200016159
 30
0.0
 11
460.30000690000003
 21
87.569995900016153
 31
0.0
  0
LINE
  5
11327
  8
SU
 10
460.10000709999991
 20
90.810003300016135
 30
0.0
 11
460.10000709999991
 21
87.689995800016192
 31
0.0
  0
LINE
  5
11328
  8
SU
 10
459.90000719999989
 20
90.690003400016195
 30
0.0
 11
459.90000719999989
 21
87.809995700016117
 31
0.0
  0
LINE
  5
11329
  8
SU
 10
459.50000759999989
 20
90.450003600016117
 30
0.0
 11
459.50000759999989
 21
88.049995400016115
 31
0.0
  0
LINE
  5
1132A
  8
SU
 10
459.70000739999989
 20
90.570003500016156
 30
0.0
 11
459.70000739999989
 21
87.92999550001619
 31
0.0
  0
LINE
  5
1132B
  8
SU
 10
459.30000779999989
 20
90.330003700016192
 30
0.0
 11
459.30000779999989
 21
88.169995300016154
 31
0.0
  0
LINE
  5
1132C
  8
SU
 10
459.10000799999989
 20
90.210003850016179
 30
0.0
 11
459.10000799999989
 21
88.289995190016185
 31
0.0
  0
LINE
  5
1132D
  8
SU
 10
458.90000819999989
 20
90.09000397001617
 30
0.0
 11
458.90000819999989
 21
88.409995080016216
 31
0.0
  0
LINE
  5
1132E
  8
SU
 10
458.70000839999989
 20
89.970005040016218
 30
0.0
 11
458.70000839999989
 21
88.529994960016126
 31
0.0
  0
LINE
  5
1132F
  8
SU
 10
458.50000859999989
 20
89.850005150016187
 30
0.0
 11
458.50000859999989
 21
88.649994850016157
 31
0.0
  0
LINE
  5
11330
  8
SU
 10
458.10000895999991
 20
89.610002520016138
 30
0.0
 11
458.10000895999991
 21
88.889994620016211
 31
0.0
  0
LINE
  5
11331
  8
SU
 10
458.30000876999992
 20
89.730005260016156
 30
0.0
 11
458.30000876999992
 21
88.769994740016188
 31
0.0
  0
LINE
  5
11332
  8
SU
 10
457.90000916000002
 20
89.490002630016221
 30
0.0
 11
457.90000916000002
 21
89.009994510016128
 31
0.0
  0
LINE
  5
11333
  8
SU
 10
457.49999581902642
 20
89.25000202250547
 30
0.0
 11
467.49999959999991
 21
83.250000100016138
 31
0.0
  0
LINE
  5
11334
  8
SU
 10
457.7000122099999
 20
89.370007510016222
 30
0.0
 11
457.7000122099999
 21
89.129992490016136
 31
0.0
  0
LINE
  5
11335
  8
SU
 10
457.49999981984911
 20
89.249999938208177
 30
0.0
 11
467.49999989999992
 21
95.249995700016157
 31
0.0
  0
LINE
  5
11336
  8
SU
 10
463.50000379999989
 20
92.850000400016185
 30
0.0
 11
463.50000379999989
 21
85.649997700016144
 31
0.0
  0
LINE
  5
11337
  8
SU
 10
463.70000359999989
 20
92.97000030001621
 30
0.0
 11
463.70000359999989
 21
85.529997800016218
 31
0.0
  0
LINE
  5
11338
  8
SU
 10
463.90000339999989
 20
93.089999200016138
 30
0.0
 11
463.90000339999989
 21
85.409997900016194
 31
0.0
  0
LINE
  5
11339
  8
SU
 10
464.10000319999989
 20
93.209999100016176
 30
0.0
 11
464.10000319999989
 21
85.289998100016206
 31
0.0
  0
LINE
  5
1133A
  8
SU
 10
464.3000030999998
 20
93.329999000016215
 30
0.0
 11
464.3000030999998
 21
85.169998200016181
 31
0.0
  0
LINE
  5
1133B
  8
SU
 10
697.49999999999977
 20
95.249996200016227
 30
0.0
 11
697.49999999999977
 21
83.250000000016172
 31
0.0
  0
LINE
  5
1133C
  8
SU
 10
697.69999979999989
 20
95.129996300016188
 30
0.0
 11
697.69999979999989
 21
83.369999900016197
 31
0.0
  0
LINE
  5
1133D
  8
SU
 10
697.89999959999977
 20
95.009996400016135
 30
0.0
 11
697.89999959999977
 21
83.489999800016136
 31
0.0
  0
LINE
  5
1133E
  8
SU
 10
698.09999939999989
 20
94.889996500016224
 30
0.0
 11
698.09999939999989
 21
83.609999700016175
 31
0.0
  0
LINE
  5
1133F
  8
SU
 10
698.29999919999977
 20
94.769996600016185
 30
0.0
 11
698.29999919999977
 21
83.729999500016135
 31
0.0
  0
LINE
  5
11340
  8
SU
 10
698.49999899999978
 20
94.649996800016226
 30
0.0
 11
698.49999899999978
 21
83.849999400016173
 31
0.0
  0
LINE
  5
11341
  8
SU
 10
698.69999889999985
 20
94.529996900016187
 30
0.0
 11
698.69999889999985
 21
83.969999300016212
 31
0.0
  0
LINE
  5
11342
  8
SU
 10
698.89999869999986
 20
94.409997900016165
 30
0.0
 11
698.89999869999986
 21
84.089999200016138
 31
0.0
  0
LINE
  5
11343
  8
SU
 10
699.09999849999986
 20
94.28999810001622
 30
0.0
 11
699.09999849999986
 21
84.209999100016176
 31
0.0
  0
LINE
  5
11344
  8
SU
 10
699.29999829999986
 20
94.169998200016195
 30
0.0
 11
699.29999829999986
 21
84.329999000016215
 31
0.0
  0
LINE
  5
11345
  8
SU
 10
699.49999809999974
 20
94.049998300016142
 30
0.0
 11
699.49999809999974
 21
84.449998900016141
 31
0.0
  0
LINE
  5
11346
  8
SU
 10
699.69999789999986
 20
93.929998400016217
 30
0.0
 11
699.69999789999986
 21
84.569998700016214
 31
0.0
  0
LINE
  5
11347
  8
SU
 10
699.89999769999974
 20
93.809998500016178
 30
0.0
 11
699.89999769999974
 21
84.689998600016139
 31
0.0
  0
LINE
  5
11348
  8
SU
 10
700.09999749999986
 20
93.689998600016125
 30
0.0
 11
700.09999749999986
 21
84.809998500016178
 31
0.0
  0
LINE
  5
11349
  8
SU
 10
700.49999709999975
 20
93.449998900016155
 30
0.0
 11
700.49999709999975
 21
85.049998300016128
 31
0.0
  0
LINE
  5
1134A
  8
SU
 10
700.29999729999975
 20
93.569998700016214
 30
0.0
 11
700.29999729999975
 21
84.929998400016217
 31
0.0
  0
LINE
  5
1134B
  8
SU
 10
701.69999599999983
 20
92.729999500016135
 30
0.0
 11
701.69999599999983
 21
85.769997600016168
 31
0.0
  0
LINE
  5
1134C
  8
SU
 10
701.89999579999994
 20
92.610000600016207
 30
0.0
 11
701.89999579999994
 21
85.889997500016221
 31
0.0
  0
LINE
  5
1134D
  8
SU
 10
702.09999559999983
 20
92.490000700016168
 30
0.0
 11
702.09999559999983
 21
86.009997400016147
 31
0.0
  0
LINE
  5
1134E
  8
SU
 10
702.29999539999994
 20
92.370000800016115
 30
0.0
 11
702.29999539999994
 21
86.129997300016186
 31
0.0
  0
LINE
  5
1134F
  8
SU
 10
702.49999519999983
 20
92.250001000016169
 30
0.0
 11
702.49999519999983
 21
86.249997100016145
 31
0.0
  0
LINE
  5
11350
  8
SU
 10
702.69999499999994
 20
92.130001100016145
 30
0.0
 11
702.69999499999994
 21
86.369997000016184
 31
0.0
  0
LINE
  5
11351
  8
SU
 10
702.89999489999991
 20
92.010001200016205
 30
0.0
 11
702.89999489999991
 21
86.489996900016209
 31
0.0
  0
LINE
  5
11352
  8
SU
 10
703.0999946999998
 20
91.890001300016166
 30
0.0
 11
703.0999946999998
 21
86.609996800016134
 31
0.0
  0
LINE
  5
11353
  8
SU
 10
703.29999449999991
 20
91.770001400016127
 30
0.0
 11
703.29999449999991
 21
86.729996700016187
 31
0.0
  0
LINE
  5
11354
  8
SU
 10
703.4999942999998
 20
91.650001500016202
 30
0.0
 11
703.4999942999998
 21
86.849996600016226
 31
0.0
  0
LINE
  5
11355
  8
SU
 10
703.69999409999991
 20
91.530001600016149
 30
0.0
 11
703.69999409999991
 21
86.969996500016151
 31
0.0
  0
LINE
  5
11356
  8
SU
 10
703.89999389999991
 20
91.410002700016122
 30
0.0
 11
703.89999389999991
 21
87.089996300016224
 31
0.0
  0
LINE
  5
11357
  8
SU
 10
704.09999369999991
 20
91.290002800016197
 30
0.0
 11
704.09999369999991
 21
87.20999620001615
 31
0.0
  0
LINE
  5
11358
  8
SU
 10
704.29999349999991
 20
91.170002900016158
 30
0.0
 11
704.29999349999991
 21
87.329996100016174
 31
0.0
  0
LINE
  5
11359
  8
SU
 10
704.49999329999991
 20
91.050003100016184
 30
0.0
 11
704.49999329999991
 21
87.449996000016228
 31
0.0
  0
LINE
  5
1135A
  8
SU
 10
704.69999309999992
 20
90.930003200016159
 30
0.0
 11
704.69999309999992
 21
87.569995900016153
 31
0.0
  0
LINE
  5
1135B
  8
SU
 10
704.8999928999998
 20
90.810003300016135
 30
0.0
 11
704.8999928999998
 21
87.689995800016192
 31
0.0
  0
LINE
  5
1135C
  8
SU
 10
705.09999279999977
 20
90.690003400016195
 30
0.0
 11
705.09999279999977
 21
87.809995700016117
 31
0.0
  0
LINE
  5
1135D
  8
SU
 10
705.49999239999977
 20
90.450003600016117
 30
0.0
 11
705.49999239999977
 21
88.049995400016115
 31
0.0
  0
LINE
  5
1135E
  8
SU
 10
705.29999259999988
 20
90.570003500016156
 30
0.0
 11
705.29999259999988
 21
87.92999550001619
 31
0.0
  0
LINE
  5
1135F
  8
SU
 10
705.69999219999988
 20
90.330003700016192
 30
0.0
 11
705.69999219999988
 21
88.169995300016154
 31
0.0
  0
LINE
  5
11360
  8
SU
 10
705.89999199999977
 20
90.210003850016179
 30
0.0
 11
705.89999199999977
 21
88.289995190016185
 31
0.0
  0
LINE
  5
11361
  8
SU
 10
706.09999179999988
 20
90.09000397001617
 30
0.0
 11
706.09999179999988
 21
88.409995080016216
 31
0.0
  0
LINE
  5
11362
  8
SU
 10
706.29999159999977
 20
89.970005040016218
 30
0.0
 11
706.29999159999977
 21
88.529994960016126
 31
0.0
  0
LINE
  5
11363
  8
SU
 10
706.49999139999977
 20
89.850005150016187
 30
0.0
 11
706.49999139999977
 21
88.649994850016157
 31
0.0
  0
LINE
  5
11364
  8
SU
 10
706.89999103999992
 20
89.610002520016138
 30
0.0
 11
706.89999103999992
 21
88.889994620016211
 31
0.0
  0
LINE
  5
11365
  8
SU
 10
706.69999122999991
 20
89.730005260016156
 30
0.0
 11
706.69999122999991
 21
88.769994740016188
 31
0.0
  0
LINE
  5
11366
  8
SU
 10
707.09999083999992
 20
89.490002630016221
 30
0.0
 11
707.09999083999992
 21
89.009994510016128
 31
0.0
  0
LINE
  5
11367
  8
SU
 10
707.50000418097341
 20
89.25000202250547
 30
0.0
 11
697.50000039999986
 21
83.250000100016138
 31
0.0
  0
LINE
  5
11368
  8
SU
 10
707.29998778999993
 20
89.370007510016222
 30
0.0
 11
707.29998778999993
 21
89.129992490016136
 31
0.0
  0
LINE
  5
11369
  8
SU
 10
707.50000018015055
 20
89.249999938208177
 30
0.0
 11
697.50000009999985
 21
95.249995700016157
 31
0.0
  0
LINE
  5
1136A
  8
SU
 10
701.49999619999994
 20
92.850000400016185
 30
0.0
 11
701.49999619999994
 21
85.649997700016144
 31
0.0
  0
LINE
  5
1136B
  8
SU
 10
701.29999639999983
 20
92.97000030001621
 30
0.0
 11
701.29999639999983
 21
85.529997800016218
 31
0.0
  0
LINE
  5
1136C
  8
SU
 10
701.09999659999994
 20
93.089999200016138
 30
0.0
 11
701.09999659999994
 21
85.409997900016194
 31
0.0
  0
LINE
  5
1136D
  8
SU
 10
700.89999679999983
 20
93.209999100016176
 30
0.0
 11
700.89999679999983
 21
85.289998100016206
 31
0.0
  0
LINE
  5
1136E
  8
SU
 10
700.69999689999975
 20
93.329999000016215
 30
0.0
 11
700.69999689999975
 21
85.169998200016181
 31
0.0
  0
LINE
  5
1136F
  8
SU
 10
457.49999999999989
 20
193.25
 30
0.0
 11
457.49999999999989
 21
86.250000000016186
 31
0.0
  0
LINE
  5
11370
  8
SU
 10
707.49999999999989
 20
193.24999999999861
 30
0.0
 11
707.49999999999989
 21
86.250000000016186
 31
0.0
  0
LINE
  5
11371
  8
SU
 10
457.49999999999989
 20
89.250000000016172
 30
0.0
 11
707.49999999999989
 21
89.250000000016172
 31
0.0
  0
LINE
  5
11373
  8
SU
 10
526.0
 20
201.7500000000241
 30
0.0
 11
526.0
 21
194.25
 31
0.0
  0
LINE
  5
11374
  8
SU
 10
526.0
 20
194.25
 30
0.0
 11
526.0
 21
174.67666666666659
 31
0.0
  0
LINE
  5
11377
  8
SU
 10
486.49999999999989
 20
201.7500000000241
 30
0.0
 11
528.99999999999989
 21
201.7500000000241
 31
0.0
  0
LINE
  5
11378
  8
SU
 10
525.99999999999977
 20
234.75000000000799
 30
0.0
 11
525.99999999999977
 21
201.7500000000241
 31
0.0
  0
LINE
  5
1137B
  8
SU
 10
494.49999999999989
 20
234.75000000000799
 30
0.0
 11
528.99999999999977
 21
234.75000000000799
 31
0.0
  0
LINE
  5
1137C
  8
SU
 10
525.99999999999977
 20
237.75
 30
0.0
 11
525.99999999999977
 21
234.75000000000799
 31
0.0
  0
LINE
  5
1137D
  8
SU
 10
525.99999999999977
 20
236.25000000000401
 30
0.0
 11
510.99999999999989
 21
228.88974596215971
 31
0.0
  0
LINE
  5
1137E
  8
SU
 10
510.99999999999989
 20
228.88974596215971
 30
0.0
 11
510.99999999999989
 21
222.13974596215959
 31
0.0
  0
LINE
  5
11381
  8
SU
 10
494.49999999999989
 20
237.75
 30
0.0
 11
528.99999999999989
 21
237.75
 31
0.0
  0
LINE
  5
11382
  8
SU
 10
526.0
 20
255.7499999999996
 30
0.0
 11
525.99999999999977
 21
237.75
 31
0.0
  0
LINE
  5
11385
  8
SU
 10
494.49999999999989
 20
255.7499999999996
 30
0.0
 11
528.99999999999977
 21
255.7499999999996
 31
0.0
  0
LINE
  5
11386
  8
SU
 10
525.99999999999977
 20
361.25
 30
0.0
 11
525.99999999999977
 21
255.7499999999996
 31
0.0
  0
LINE
  5
1138A
  8
SU
 10
482.49999999999989
 20
361.25
 30
0.0
 11
543.99999999999977
 21
361.25
 31
0.0
  0
LINE
  5
1138B
  8
SU
 10
482.49999999999989
 20
194.25
 30
0.0
 11
543.99999999999966
 21
194.25
 31
0.0
  0
LINE
  5
1138C
  8
SU
 10
540.99999999999989
 20
361.25
 30
0.0
 11
540.99999999999966
 21
194.25
 31
0.0
  0
LINE
  5
11390
  8
SU
 10
671.49999999999977
 20
256.74999999999949
 30
0.0
 11
671.49999999999977
 21
384.24999999999989
 31
0.0
  0
LINE
  5
11391
  8
SU
 10
683.49999999999989
 20
381.24999999999989
 30
0.0
 11
671.49999999999977
 21
381.24999999999989
 31
0.0
  0
LINE
  5
11392
  8
SU
 10
671.49999999999977
 20
381.24999999999989
 30
0.0
 11
657.68998251149264
 21
381.24999999999989
 31
0.0
  0
LINE
  5
11395
  8
SU
 10
707.5
 20
362.24999999999858
 30
0.0
 11
707.5
 21
384.25
 31
0.0
  0
LINE
  5
11396
  8
SU
 10
683.49999999999989
 20
362.25
 30
0.0
 11
683.49999999999989
 21
384.25
 31
0.0
  0
LINE
  5
11397
  8
SU
 10
707.5
 20
381.25
 30
0.0
 11
683.49999999999989
 21
381.25
 31
0.0
  0
LINE
  5
1139B
  8
SU
 10
493.49999999999977
 20
256.74999999999949
 30
0.0
 11
493.49999999999977
 21
384.25
 31
0.0
  0
LINE
  5
1139C
  8
SU
 10
481.49999999999977
 20
381.25
 30
0.0
 11
493.49999999999977
 21
381.25
 31
0.0
  0
LINE
  5
1139D
  8
SU
 10
493.49999999999977
 20
381.25
 30
0.0
 11
511.2784163558967
 21
381.25
 31
0.0
  0
LINE
  5
113A0
  8
SU
 10
457.49999999999989
 20
362.25000000000142
 30
0.0
 11
457.49999999999989
 21
384.25
 31
0.0
  0
LINE
  5
113A1
  8
SU
 10
481.49999999999977
 20
362.25
 30
0.0
 11
481.49999999999977
 21
384.25
 31
0.0
  0
LINE
  5
113A2
  8
SU
 10
457.49999999999989
 20
381.25
 30
0.0
 11
481.49999999999977
 21
381.25
 31
0.0
  0
LINE
  5
113FF
  8
KI1
 10
481.49999999999977
 20
254.75004891630331
 30
0.0
 11
481.49999999999977
 21
358.75
 31
0.0
  0
LINE
  5
11402
  8
KI1
 10
481.49999999999977
 20
196.75
 30
0.0
 11
481.49999999999989
 21
238.75005091630311
 31
0.0
  0
LINE
  5
11404
  8
KI1
 10
478.99999999999989
 20
361.25
 30
0.0
 11
457.49999999999989
 21
361.25
 31
0.0
  0
LINE
  5
11405
  8
KI1
 10
478.99999999999989
 20
361.25
 30
0.0
 11
481.49999999999977
 21
358.75
 31
0.0
1001
GENIUS_GENFIL_13
1070
     0
1040
2.5
1040
2.5
1040
20.0
1040
0.0
1002
{
1002
}
1001
GENIUS_GENOBJ-N-CHA_13
1002
{
1000
OWNER
1000
GEN
1002
}
1001
GENIUS_GENODEF_13
1002
{
1000
HIER
1070
     0
1002
}
1002
{
1000
MANEDIT
1070
     0
1002
}
1002
{
1000
NOSEL
1070
     0
1002
}
1002
{
1000
BEHIND
1070
     0
1002
}
1002
{
1000
OTHER
1070
     0
1002
}
1002
{
1000
REACTOR
1002
}
  0
LINE
  5
11406
  8
KI1
 10
457.49999999999989
 20
361.25000000000142
 30
0.0
 11
457.49999999999989
 21
194.25
 31
0.0
  0
LINE
  5
11407
  8
KI1
 10
457.49999999999989
 20
194.25
 30
0.0
 11
478.99999999999989
 21
194.25
 31
0.0
  0
LINE
  5
11408
  8
KI1
 10
478.99999999999989
 20
194.25
 30
0.0
 11
481.49999999999977
 21
196.75
 31
0.0
1001
GENIUS_GENFIL_13
1070
     0
1040
2.5
1040
2.5
1040
20.0
1040
0.0
1002
{
1002
}
1001
GENIUS_GENOBJ-N-CHA_13
1002
{
1000
OWNER
1000
GEN
1002
}
1001
GENIUS_GENODEF_13
1002
{
1000
HIER
1070
     0
1002
}
1002
{
1000
MANEDIT
1070
     0
1002
}
1002
{
1000
NOSEL
1070
     0
1002
}
1002
{
1000
BEHIND
1070
     0
1002
}
1002
{
1000
OTHER
1070
     0
1002
}
1002
{
1000
REACTOR
1002
}
  0
LINE
  5
1140A
  8
KI1
 10
683.49999999999989
 20
254.75004891630331
 30
0.0
 11
683.49999999999989
 21
358.74999999999869
 31
0.0
  0
LINE
  5
1140D
  8
KI1
 10
683.49999999999989
 20
196.74999999999861
 30
0.0
 11
683.49999999999989
 21
238.75005091630311
 31
0.0
  0
LINE
  5
1140F
  8
KI1
 10
686.0
 20
361.24999999999858
 30
0.0
 11
707.5
 21
361.24999999999858
 31
0.0
  0
LINE
  5
11410
  8
KI1
 10
686.0
 20
361.24999999999858
 30
0.0
 11
683.49999999999989
 21
358.74999999999869
 31
0.0
1001
GENIUS_GENFIL_13
1070
     0
1040
2.5
1040
2.5
1040
20.0
1040
0.0
1002
{
1002
}
1001
GENIUS_GENOBJ-N-CHA_13
1002
{
1000
OWNER
1000
GEN
1002
}
1001
GENIUS_GENODEF_13
1002
{
1000
HIER
1070
     0
1002
}
1002
{
1000
MANEDIT
1070
     0
1002
}
1002
{
1000
NOSEL
1070
     0
1002
}
1002
{
1000
BEHIND
1070
     0
1002
}
1002
{
1000
OTHER
1070
     0
1002
}
1002
{
1000
REACTOR
1002
}
  0
LINE
  5
11411
  8
KI1
 10
707.5
 20
361.25
 30
0.0
 11
707.49999999999989
 21
194.24999999999861
 31
0.0
  0
LINE
  5
11412
  8
KI1
 10
707.49999999999989
 20
194.24999999999861
 30
0.0
 11
685.99999999999989
 21
194.24999999999861
 31
0.0
  0
LINE
  5
11413
  8
KI1
 10
685.99999999999989
 20
194.24999999999861
 30
0.0
 11
683.49999999999989
 21
196.74999999999861
 31
0.0
1001
GENIUS_GENFIL_13
1070
     0
1040
2.5
1040
2.5
1040
20.0
1040
0.0
1002
{
1002
}
1001
GENIUS_GENOBJ-N-CHA_13
1002
{
1000
OWNER
1000
GEN
1002
}
1001
GENIUS_GENODEF_13
1002
{
1000
HIER
1070
     0
1002
}
1002
{
1000
MANEDIT
1070
     0
1002
}
1002
{
1000
NOSEL
1070
     0
1002
}
1002
{
1000
BEHIND
1070
     0
1002
}
1002
{
1000
OTHER
1070
     0
1002
}
1002
{
1000
REACTOR
1002
}
  0
LINE
  5
11449
  8
PH
 10
622.99999999999784
 20
182.25000000001609
 30
0.0
 11
653.99999999999784
 21
182.25000000001609
 31
0.0
  0
LINE
  5
1144A
  8
PH
 10
653.99999999999784
 20
184.25000000001609
 30
0.0
 11
620.99999999999784
 21
184.25000000001609
 31
0.0
  0
LINE
  5
1144B
  8
PH
 10
651.24999999999784
 20
178.2500000000162
 30
0.0
 11
653.99999999999784
 21
178.2500000000162
 31
0.0
  0
LINE
  5
1144C
  8
KI2
 10
681.19999694824003
 20
234.7500000000162
 30
0.0
 11
681.19999694824003
 21
188.25000000001609
 31
0.0
  0
LINE
  5
1144D
  8
KI2
 10
683.49999999999784
 20
188.25000000001609
 30
0.0
 11
683.49999999999784
 21
234.7500000000162
 31
0.0
  0
LINE
  5
1144E
  8
PH
 10
653.99999999999784
 20
178.2500000000162
 30
0.0
 11
653.99999999999784
 21
184.25000000001609
 31
0.0
  0
LINE
  5
1144F
  8
KI2
 10
675.49999999999784
 20
189.7500000000162
 30
0.0
 11
681.19999694824003
 21
189.7500000000162
 31
0.0
  0
ARC
  5
11450
  8
KI2
 10
675.49999999999784
 20
180.2500000000162
 30
0.0
 40
9.5
 50
90.000002504481699
 51
0.0000100179106335
  0
CIRCLE
  5
11451
  8
KI2
 10
674.99999999999784
 20
180.2500000000162
 30
0.0
 40
8.0
  0
CIRCLE
  5
11452
  8
KI2
 10
675.49999999999784
 20
180.2500000000162
 30
0.0
 40
8.0
  0
LINE
  5
11453
  8
PH
 10
667.05125045776083
 20
179.72554206849759
 30
0.0
 11
653.99999999999784
 21
179.1488380432292
 31
0.0
  0
ARC
  5
11454
  8
PH
 10
667.09697723388399
 20
182.53028869630521
 30
0.0
 40
0.5
 50
272.53011562566809
 51
351.3369338919245
  0
LINE
  5
11455
  8
PH
 10
653.99999999999784
 20
181.45108556749051
 30
0.0
 11
667.11904525756574
 21
182.0307850837869
 31
0.0
  0
LINE
  5
11456
  8
PH
 10
658.96532058715593
 20
181.67049121858301
 30
0.0
 11
659.06685256957792
 21
179.3727302551431
 31
0.0
  0
LINE
  5
11457
  8
KI2
 10
683.49999999999784
 20
180.2500000000162
 30
0.0
 11
683.49999999999784
 21
188.25000000001609
 31
0.0
  0
LINE
  5
11458
  8
KI2
 10
681.19999694824003
 20
188.25000000001609
 30
0.0
 11
681.19999694824003
 21
185.86337661744821
 31
0.0
  0
LINE
  5
11459
  8
KI2
 10
683.49999999999784
 20
180.2500000000162
 30
0.0
 11
684.99999999999784
 21
180.2500000000162
 31
0.0
  0
LINE
  5
1145A
  8
KI2
 10
683.49999999999784
 20
188.25000000001609
 30
0.0
 11
681.19999694824003
 21
188.25000000001609
 31
0.0
  0
LINE
  5
1145B
  8
KI2
 10
681.19999694824003
 20
189.7500000000162
 30
0.0
 11
681.19999694824003
 21
187.84999847413809
 31
0.0
  0
LINE
  5
1145C
  8
PH
 10
620.99999999999784
 20
184.25000000001609
 30
0.0
 11
620.99999999999784
 21
178.2500000000162
 31
0.0
  0
LINE
  5
1145D
  8
PH
 10
625.49999999999784
 20
166.2500000000162
 30
0.0
 11
649.49999999999784
 21
166.2500000000162
 31
0.0
  0
LINE
  5
1145E
  8
PH
 10
649.49999999999784
 20
172.25000000001609
 30
0.0
 11
649.49999999999784
 21
166.2500000000162
 31
0.0
  0
LINE
  5
1145F
  8
PH
 10
651.24999999999784
 20
172.25000000001609
 30
0.0
 11
649.49999999999784
 21
172.25000000001609
 31
0.0
  0
LINE
  5
11460
  8
PH
 10
651.24999999999784
 20
172.25000000001609
 30
0.0
 11
651.24999999999784
 21
178.2500000000162
 31
0.0
  0
LINE
  5
11461
  8
PH
 10
625.49999999999784
 20
172.25000000001609
 30
0.0
 11
625.49999999999784
 21
166.2500000000162
 31
0.0
  0
LINE
  5
11462
  8
PH
 10
622.99999999999784
 20
182.25000000001609
 30
0.0
 11
622.99999999999784
 21
178.2500000000162
 31
0.0
  0
LINE
  5
11463
  8
PH
 10
623.74999999999784
 20
178.2500000000162
 30
0.0
 11
623.74999999999784
 21
172.25000000001609
 31
0.0
  0
LINE
  5
11464
  8
PH
 10
623.74999999999784
 20
172.25000000001609
 30
0.0
 11
625.49999999999784
 21
172.25000000001609
 31
0.0
  0
LINE
  5
11465
  8
PH
 10
620.99999999999784
 20
178.2500000000162
 30
0.0
 11
623.74999999999784
 21
178.2500000000162
 31
0.0
  0
LINE
  5
11466
  8
KI2
 10
683.49999999999784
 20
234.7500000000162
 30
0.0
 11
681.19999694824003
 21
234.7500000000162
 31
0.0
  0
LINE
  5
11467
  8
TS
 10
677.49999999999784
 20
232.7500000000162
 30
0.0
 11
677.49999999999784
 21
201.7500000000162
 31
0.0
  0
LINE
  5
11468
  8
TS
 10
679.49999999999784
 20
201.7500000000162
 30
0.0
 11
679.49999999999784
 21
234.7500000000162
 31
0.0
  0
LINE
  5
11469
  8
TS
 10
673.49999999999784
 20
204.5000000000162
 30
0.0
 11
673.49999999999784
 21
201.7500000000162
 31
0.0
  0
LINE
  5
1146A
  8
TS
 10
673.49999999999784
 20
201.7500000000162
 30
0.0
 11
679.49999999999784
 21
201.7500000000162
 31
0.0
  0
LINE
  5
1146B
  8
KI2
 10
674.97554206847929
 20
188.69874954225321
 30
0.0
 11
674.39883804321084
 21
201.7500000000162
 31
0.0
  0
ARC
  5
1146C
  8
KI2
 10
677.78028869628679
 20
188.65302276613011
 30
0.0
 40
0.5
 50
182.53011562566971
 51
261.33693389192428
  0
LINE
  5
1146D
  8
KI2
 10
676.70108556747221
 20
201.7500000000162
 30
0.0
 11
677.28078508376848
 21
188.6309547424481
 31
0.0
  0
LINE
  5
1146E
  8
KI2
 10
676.92049121856473
 20
196.7846794128582
 30
0.0
 11
674.62273025512479
 21
196.68314743043621
 31
0.0
  0
LINE
  5
1146F
  8
TS
 10
679.49999999999784
 20
234.7500000000162
 30
0.0
 11
673.49999999999784
 21
234.7500000000162
 31
0.0
  0
LINE
  5
11470
  8
TS
 10
661.49999999999784
 20
230.2500000000162
 30
0.0
 11
661.49999999999784
 21
206.2500000000162
 31
0.0
  0
LINE
  5
11471
  8
TS
 10
667.49999999999784
 20
206.2500000000162
 30
0.0
 11
661.49999999999784
 21
206.2500000000162
 31
0.0
  0
LINE
  5
11472
  8
TS
 10
667.49999999999784
 20
204.5000000000162
 30
0.0
 11
667.49999999999784
 21
206.2500000000162
 31
0.0
  0
LINE
  5
11473
  8
TS
 10
667.49999999999784
 20
204.5000000000162
 30
0.0
 11
673.49999999999784
 21
204.5000000000162
 31
0.0
  0
LINE
  5
11474
  8
TS
 10
667.49999999999784
 20
230.2500000000162
 30
0.0
 11
661.49999999999784
 21
230.2500000000162
 31
0.0
  0
LINE
  5
11475
  8
TS
 10
677.49999999999784
 20
232.7500000000162
 30
0.0
 11
673.49999999999784
 21
232.7500000000162
 31
0.0
  0
LINE
  5
11476
  8
TS
 10
673.49999999999784
 20
232.0000000000162
 30
0.0
 11
667.49999999999784
 21
232.0000000000162
 31
0.0
  0
LINE
  5
11477
  8
TS
 10
667.49999999999784
 20
232.0000000000162
 30
0.0
 11
667.49999999999784
 21
230.2500000000162
 31
0.0
  0
LINE
  5
11478
  8
TS
 10
673.49999999999784
 20
234.7500000000162
 30
0.0
 11
673.49999999999784
 21
232.0000000000162
 31
0.0
  0
LINE
  5
11479
  8
PH
 10
620.99999999999784
 20
184.25000000001609
 30
0.0
 11
620.99999999999784
 21
154.2500000000162
 31
0.0
  0
LINE
  5
1147A
  8
PH
 10
653.99999999999784
 20
154.2500000000162
 30
0.0
 11
653.99999999999784
 21
184.25000000001609
 31
0.0
  0
LINE
  5
1147B
  8
OS
 10
694.10808101421321
 20
194.24999999999861
 30
0.0
 11
683.49999999999989
 21
204.8580810142119
 31
0.0
1001
ACAD
1010
0.0
1020
0.0
1030
0.0
  0
LINE
  5
1147C
  8
OS
 10
704.00757595082473
 20
194.24999999999861
 30
0.0
 11
683.49999999999989
 21
214.75757595082359
 31
0.0
1001
ACAD
1010
0.0
1020
0.0
1030
0.0
  0
LINE
  5
1147D
  8
OS
 10
707.5
 20
200.65707088743511
 30
0.0
 11
683.49999999999989
 21
224.6570708874352
 31
0.0
1001
ACAD
1010
0.0
1020
0.0
1030
0.0
  0
LINE
  5
1147E
  8
OS
 10
707.5
 20
210.5565658240468
 30
0.0
 11
683.49999999999989
 21
234.55656582404691
 31
0.0
1001
ACAD
1010
0.0
1020
0.0
1030
0.0
  0
LINE
  5
1147F
  8
OS
 10
707.5
 20
220.4560607606584
 30
0.0
 11
689.20600984435544
 21
238.75005091630311
 31
0.0
1001
ACAD
1010
0.0
1020
0.0
1030
0.0
  0
LINE
  5
11480
  8
OS
 10
707.5
 20
230.35555569727009
 30
0.0
 11
686.50550578096704
 21
251.35004991630311
 31
0.0
1001
ACAD
1010
0.0
1020
0.0
1030
0.0
  0
LINE
  5
11481
  8
OS
 10
707.5
 20
240.25505063388181
 30
0.0
 11
683.49999999999989
 21
264.25505063388209
 31
0.0
1001
ACAD
1010
0.0
1020
0.0
1030
0.0
  0
LINE
  5
11483
  8
OS
 10
707.5
 20
250.15454557049341
 30
0.0
 11
683.49999999999989
 21
274.1545455704935
 31
0.0
1001
ACAD
1010
0.0
1020
0.0
1030
0.0
  0
LINE
  5
11484
  8
OS
 10
707.5
 20
260.05404050710501
 30
0.0
 11
683.49999999999989
 21
284.05404050710519
 31
0.0
1001
ACAD
1010
0.0
1020
0.0
1030
0.0
  0
LINE
  5
11485
  8
OS
 10
707.5
 20
269.95353544371682
 30
0.0
 11
683.49999999999989
 21
293.95353544371687
 31
0.0
1001
ACAD
1010
0.0
1020
0.0
1030
0.0
  0
LINE
  5
11486
  8
OS
 10
707.5
 20
279.85303038032839
 30
0.0
 11
683.49999999999989
 21
303.85303038032851
 31
0.0
1001
ACAD
1010
0.0
1020
0.0
1030
0.0
  0
LINE
  5
11487
  8
OS
 10
707.5
 20
289.75252531694008
 30
0.0
 11
683.49999999999989
 21
313.75252531694019
 31
0.0
1001
ACAD
1010
0.0
1020
0.0
1030
0.0
  0
LINE
  5
11488
  8
OS
 10
707.5
 20
299.65202025355171
 30
0.0
 11
683.49999999999977
 21
323.65202025355188
 31
0.0
1001
ACAD
1010
0.0
1020
0.0
1030
0.0
  0
LINE
  5
11489
  8
OS
 10
707.5
 20
309.5515151901634
 30
0.0
 11
683.49999999999989
 21
333.55151519016363
 31
0.0
1001
ACAD
1010
0.0
1020
0.0
1030
0.0
  0
LINE
  5
1148A
  8
OS
 10
707.5
 20
319.45101012677497
 30
0.0
 11
683.49999999999989
 21
343.45101012677532
 31
0.0
1001
ACAD
1010
0.0
1020
0.0
1030
0.0
  0
LINE
  5
1148B
  8
OS
 10
707.5
 20
329.35050506338678
 30
0.0
 11
683.49999999999989
 21
353.35050506338672
 31
0.0
1001
ACAD
1010
0.0
1020
0.0
1030
0.0
  0
LINE
  5
1148C
  8
OS
 10
707.5
 20
339.24999999999841
 30
0.0
 11
685.74999999999989
 21
360.99999999999852
 31
0.0
1001
ACAD
1010
0.0
1020
0.0
1030
0.0
  0
LINE
  5
1148D
  8
OS
 10
457.49999999999989
 20
339.24999999999977
 30
0.0
 11
479.25
 21
361.0
 31
0.0
1001
ACAD
1010
0.0
1020
0.0
1030
0.0
  0
LINE
  5
1148E
  8
OS
 10
457.49999999999989
 20
329.3505050633882
 30
0.0
 11
481.49999999999977
 21
353.35050506338808
 31
0.0
1001
ACAD
1010
0.0
1020
0.0
1030
0.0
  0
LINE
  5
1148F
  8
OS
 10
457.49999999999989
 20
319.45101012677651
 30
0.0
 11
481.49999999999977
 21
343.45101012677651
 31
0.0
1001
ACAD
1010
0.0
1020
0.0
1030
0.0
  0
LINE
  5
11490
  8
OS
 10
457.49999999999989
 20
309.55151519016482
 30
0.0
 11
481.49999999999977
 21
333.55151519016488
 31
0.0
1001
ACAD
1010
0.0
1020
0.0
1030
0.0
  0
LINE
  5
11491
  8
OS
 10
457.49999999999989
 20
299.65202025355319
 30
0.0
 11
481.49999999999977
 21
323.65202025355319
 31
0.0
1001
ACAD
1010
0.0
1020
0.0
1030
0.0
  0
LINE
  5
11492
  8
OS
 10
457.49999999999989
 20
289.7525253169415
 30
0.0
 11
481.49999999999977
 21
313.7525253169415
 31
0.0
1001
ACAD
1010
0.0
1020
0.0
1030
0.0
  0
LINE
  5
11493
  8
OS
 10
457.49999999999989
 20
279.85303038032993
 30
0.0
 11
481.49999999999977
 21
303.85303038032981
 31
0.0
1001
ACAD
1010
0.0
1020
0.0
1030
0.0
  0
LINE
  5
11494
  8
OS
 10
457.49999999999989
 20
269.95353544371818
 30
0.0
 11
481.49999999999977
 21
293.95353544371818
 31
0.0
1001
ACAD
1010
0.0
1020
0.0
1030
0.0
  0
LINE
  5
11495
  8
OS
 10
457.49999999999989
 20
260.05404050710661
 30
0.0
 11
481.49999999999977
 21
284.05404050710649
 31
0.0
1001
ACAD
1010
0.0
1020
0.0
1030
0.0
  0
LINE
  5
11496
  8
OS
 10
457.49999999999989
 20
250.15454557049489
 30
0.0
 11
481.49999999999977
 21
274.1545455704948
 31
0.0
1001
ACAD
1010
0.0
1020
0.0
1030
0.0
  0
LINE
  5
11497
  8
OS
 10
457.49999999999989
 20
240.2550506338832
 30
0.0
 11
481.49999999999977
 21
264.25505063388312
 31
0.0
1001
ACAD
1010
0.0
1020
0.0
1030
0.0
  0
LINE
  5
11499
  8
OS
 10
457.49999999999989
 20
230.3555556972716
 30
0.0
 11
478.49449421903142
 21
251.35004991630311
 31
0.0
1001
ACAD
1010
0.0
1020
0.0
1030
0.0
  0
LINE
  5
1149A
  8
OS
 10
457.49999999999989
 20
220.45606076065991
 30
0.0
 11
475.79399015564309
 21
238.75005091630311
 31
0.0
1001
ACAD
1010
0.0
1020
0.0
1030
0.0
  0
LINE
  5
1149B
  8
OS
 10
457.5
 20
210.55656582404819
 30
0.0
 11
481.49999999999977
 21
234.55656582404819
 31
0.0
1001
ACAD
1010
0.0
1020
0.0
1030
0.0
  0
LINE
  5
1149C
  8
OS
 10
457.5
 20
200.65707088743659
 30
0.0
 11
481.49999999999989
 21
224.6570708874365
 31
0.0
1001
ACAD
1010
0.0
1020
0.0
1030
0.0
  0
LINE
  5
1149D
  8
OS
 10
460.99242404917499
 20
194.25
 30
0.0
 11
481.49999999999977
 21
214.7575759508249
 31
0.0
1001
ACAD
1010
0.0
1020
0.0
1030
0.0
  0
LINE
  5
1149E
  8
OS
 10
470.89191898578667
 20
194.25
 30
0.0
 11
481.49999999999977
 21
204.85808101421321
 31
0.0
1001
ACAD
1010
0.0
1020
0.0
1030
0.0
  0
TEXT
  5
114AD
  8
SU
 10
463.82833333333321
 20
382.55000000000001
 30
0.0
 40
7.0
  1
24
 41
0.8299999999999999
  0
TEXT
  5
114B0
  8
SU
 10
496.11399999999992
 20
382.55000000000001
 30
0.0
 40
7.0
  1
12
 41
0.8299999999999999
  0
TEXT
  5
114B2
  8
SU
 10
689.82833333333315
 20
382.55000000000001
 30
0.0
 40
7.0
  1
24
 41
0.8299999999999999
  0
TEXT
  5
114B5
  8
SU
 10
656.96745054575695
 20
382.5499999999999
 30
0.0
 40
7.0
  1
12
 41
0.8299999999999999
  0
TEXT
  5
114B7
  8
SU
 10
539.69999999999982
 20
269.03500000000003
 30
0.0
 40
7.0
  1
167
 50
90.0
 41
0.8299999999999999
  0
TEXT
  5
114BA
  8
SU
 10
524.6999999999997
 20
298.81666666666649
 30
0.0
 40
7.0
  1
105.5
 50
90.0
 41
0.8299999999999999
  0
TEXT
  5
114BD
  8
SU
 10
524.69999999999982
 20
241.07833333333309
 30
0.0
 40
7.0
  1
18
 50
90.0
 41
0.8299999999999999
  0
TEXT
  5
114C0
  8
SU
 10
509.69999999999982
 20
222.88641262882621
 30
0.0
 40
7.0
  1
3
 50
90.0
 41
0.8299999999999999
  0
TEXT
  5
114C1
  8
SU
 10
524.69999999999982
 20
212.71666666668281
 30
0.0
 40
7.0
  1
33
 50
90.0
 41
0.8299999999999999
  0
TEXT
  5
114C3
  8
SU
 10
524.70000000000005
 20
175.1466666666667
 30
0.0
 40
7.0
  1
7.5
 50
90.0
 41
0.8299999999999999
  0
TEXT
  5
114C5
  8
SU
 10
577.75714285714275
 20
90.550000000016169
 30
0.0
 40
10.0
  1
W
 41
0.8299999999999999
  0
TEXT
  5
114C6
  8
SU
 10
463.82833333333321
 20
105.5500000000161
 30
0.0
 40
7.0
  1
24
 41
0.8299999999999999
  0
TEXT
  5
114CA
  8
SU
 10
491.33025403784421
 20
120.5500000000162
 30
0.0
 40
7.0
  1
4
 41
0.8299999999999999
  0
TEXT
  5
114CB
  8
SU
 10
542.02366666666558
 20
105.5500000000161
 30
0.0
 40
7.0
  1
ドアW（DW）=W-56
 41
0.8299999999999999
  0
TEXT
  5
114CE
  8
SU
 10
667.85974596215317
 20
120.5500000000162
 30
0.0
 40
7.0
  1
4
 41
0.8299999999999999
  0
TEXT
  5
114CF
  8
SU
 10
689.82833333333213
 20
105.5500000000161
 30
0.0
 40
7.0
  1
24
 41
0.8299999999999999
  0
TEXT
  5
114D1
  8
SU
 10
522.40766666666536
 20
135.55000000001621
 30
0.0
 40
7.0
  1
有効開口=W-122.5
 41
0.8299999999999999
  0
TEXT
  5
114D4
  8
SU
 10
654.56666666666536
 20
135.55000000001621
 30
0.0
 40
7.0
  1
86.5
 41
0.8299999999999999
  0
ARC
  5
114D6
  8
SU
 10
707.49999999999989
 20
134.25000000001609
 30
0.0
 40
0.6
 50
180.0
 51
0.0
  0
ARC
  5
114D7
  8
SU
 10
707.49999999999989
 20
134.25000000001609
 30
0.0
 40
0.6
 50
0.0
 51
180.0
  0
ARC
  5
114D8
  8
SU
 10
493.49999999999977
 20
134.25000000001609
 30
0.0
 40
0.6
 50
0.0
 51
180.0
  0
ARC
  5
114D9
  8
SU
 10
493.49999999999977
 20
134.25000000001609
 30
0.0
 40
0.6
 50
180.0
 51
0.0
  0
ARC
  5
114DA
  8
SU
 10
620.99999999999784
 20
134.25000000001609
 30
0.0
 40
0.6
 50
180.0
 51
0.0
  0
ARC
  5
114DB
  8
SU
 10
620.99999999999784
 20
134.25000000001609
 30
0.0
 40
0.6
 50
0.0
 51
180.0
  0
ARC
  5
114DC
  8
SU
 10
707.49999999999989
 20
104.2500000000161
 30
0.0
 40
0.6
 50
180.0
 51
0.0
  0
ARC
  5
114DD
  8
SU
 10
707.49999999999989
 20
104.2500000000161
 30
0.0
 40
0.6
 50
0.0
 51
180.0
  0
ARC
  5
114DE
  8
SU
 10
683.49999999999784
 20
104.250000000016
 30
0.0
 40
0.6
 50
180.0
 51
0.0
  0
ARC
  5
114DF
  8
SU
 10
683.49999999999784
 20
104.250000000016
 30
0.0
 40
0.6
 50
0.0
 51
180.0
  0
ARC
  5
114E0
  8
SU
 10
679.49999999999784
 20
104.2500000000161
 30
0.0
 40
0.6
 50
180.0
 51
0.0
  0
ARC
  5
114E1
  8
SU
 10
679.49999999999784
 20
104.2500000000161
 30
0.0
 40
0.6
 50
0.0
 51
180.0
  0
ARC
  5
114E2
  8
SU
 10
485.49999999999989
 20
104.2500000000162
 30
0.0
 40
0.6
 50
0.0
 51
180.0
  0
ARC
  5
114E3
  8
SU
 10
485.49999999999989
 20
104.2500000000162
 30
0.0
 40
0.6
 50
180.0
 51
0.0
  0
ARC
  5
114E4
  8
SU
 10
481.49999999999977
 20
104.2500000000161
 30
0.0
 40
0.6
 50
180.0
 51
0.0
  0
ARC
  5
114E5
  8
SU
 10
481.49999999999977
 20
104.2500000000161
 30
0.0
 40
0.6
 50
0.0
 51
180.0
  0
ARC
  5
114E6
  8
SU
 10
457.49999999999989
 20
104.2500000000161
 30
0.0
 40
0.6
 50
0.0
 51
180.0
  0
ARC
  5
114E7
  8
SU
 10
457.49999999999989
 20
104.2500000000161
 30
0.0
 40
0.6
 50
180.0
 51
0.0
  0
ARC
  5
114E8
  8
SU
 10
526.0
 20
194.25
 30
0.0
 40
0.6
 50
90.0
 51
270.0
  0
ARC
  5
114E9
  8
SU
 10
526.0
 20
194.25
 30
0.0
 40
0.6
 50
270.0
 51
90.0
  0
ARC
  5
114EA
  8
SU
 10
525.99999999999977
 20
201.7500000000241
 30
0.0
 40
0.6
 50
90.0
 51
270.0
  0
ARC
  5
114EB
  8
SU
 10
525.99999999999977
 20
201.7500000000241
 30
0.0
 40
0.6
 50
270.0
 51
90.0
  0
ARC
  5
114EC
  8
SU
 10
525.99999999999977
 20
234.75000000000799
 30
0.0
 40
0.6
 50
90.0
 51
270.0
  0
ARC
  5
114ED
  8
SU
 10
525.99999999999977
 20
234.75000000000799
 30
0.0
 40
0.6
 50
270.0
 51
90.0
  0
ARC
  5
114EE
  8
SU
 10
525.99999999999977
 20
237.75
 30
0.0
 40
0.6
 50
90.0
 51
270.0
  0
ARC
  5
114EF
  8
SU
 10
525.99999999999977
 20
237.75
 30
0.0
 40
0.6
 50
270.0
 51
90.0
  0
ARC
  5
114F0
  8
SU
 10
525.99999999999977
 20
361.25
 30
0.0
 40
0.6
 50
270.0
 51
90.0
  0
ARC
  5
114F1
  8
SU
 10
525.99999999999977
 20
361.25
 30
0.0
 40
0.6
 50
90.0
 51
270.0
  0
ARC
  5
114F2
  8
SU
 10
525.99999999999977
 20
255.7499999999996
 30
0.0
 40
0.6
 50
90.0
 51
270.0
  0
ARC
  5
114F3
  8
SU
 10
525.99999999999977
 20
255.7499999999996
 30
0.0
 40
0.6
 50
270.0
 51
90.0
  0
ARC
  5
114F4
  8
SU
 10
540.99999999999989
 20
361.25
 30
0.0
 40
0.6
 50
270.0
 51
90.0
  0
ARC
  5
114F5
  8
SU
 10
540.99999999999989
 20
361.25
 30
0.0
 40
0.6
 50
90.0
 51
270.0
  0
ARC
  5
114F6
  8
SU
 10
540.99999999999966
 20
194.25
 30
0.0
 40
0.6
 50
90.0
 51
270.0
  0
ARC
  5
114F7
  8
SU
 10
540.99999999999966
 20
194.25
 30
0.0
 40
0.6
 50
270.0
 51
90.0
  0
ARC
  5
114F8
  8
SU
 10
671.49999999999977
 20
381.24999999999989
 30
0.0
 40
0.6
 50
0.0
 51
180.0
  0
ARC
  5
114F9
  8
SU
 10
671.49999999999977
 20
381.24999999999989
 30
0.0
 40
0.6
 50
180.0
 51
0.0
  0
ARC
  5
114FA
  8
SU
 10
707.5
 20
381.25
 30
0.0
 40
0.6
 50
180.0
 51
0.0
  0
ARC
  5
114FB
  8
SU
 10
707.5
 20
381.25
 30
0.0
 40
0.6
 50
0.0
 51
180.0
  0
ARC
  5
114FC
  8
SU
 10
683.49999999999989
 20
381.25
 30
0.0
 40
0.6
 50
0.0
 51
180.0
  0
ARC
  5
114FD
  8
SU
 10
683.49999999999989
 20
381.25
 30
0.0
 40
0.6
 50
180.0
 51
0.0
  0
ARC
  5
114FE
  8
SU
 10
493.49999999999977
 20
381.25
 30
0.0
 40
0.6
 50
180.0
 51
0.0
  0
ARC
  5
114FF
  8
SU
 10
493.49999999999977
 20
381.25
 30
0.0
 40
0.6
 50
0.0
 51
180.0
  0
ARC
  5
11500
  8
SU
 10
457.49999999999989
 20
381.25
 30
0.0
 40
0.6
 50
0.0
 51
180.0
  0
ARC
  5
11501
  8
SU
 10
457.49999999999989
 20
381.25
 30
0.0
 40
0.6
 50
180.0
 51
0.0
  0
ARC
  5
11502
  8
SU
 10
481.49999999999977
 20
381.25
 30
0.0
 40
0.6
 50
180.0
 51
0.0
  0
ARC
  5
11503
  8
SU
 10
481.49999999999977
 20
381.25
 30
0.0
 40
0.6
 50
0.0
 51
180.0
  0
LINE
  5
1164C
  8
KI1
 10
185.0
 20
215.2499999999923
 30
0.0
 11
185.0
 21
317.24999999999233
 31
0.0
  0
LINE
  5
1164D
  8
KI1
 10
166.99999999999969
 20
409.74999999999289
 30
0.0
 11
166.9999999999998
 21
319.24999999999233
 31
0.0
  0
LINE
  5
1164E
  8
KI1
 10
180.59999999999991
 20
421.24999999999289
 30
0.0
 11
180.60000000000031
 21
429.24999999999289
 31
0.0
  0
LINE
  5
1164F
  8
KI1
 10
171.40000000000009
 20
421.24999999999289
 30
0.0
 11
171.40000000000009
 21
429.24999999999289
 31
0.0
  0
LINE
  5
11650
  8
KI1
 10
168.0000009999998
 20
421.24999999999221
 30
0.0
 11
168.0000009999998
 21
429.24999999999289
 31
0.0
  0
LINE
  5
11651
  8
KI1
 10
183.99999900000009
 20
421.24999999999233
 30
0.0
 11
183.99999900000009
 21
429.24999999999329
 31
0.0
  0
LINE
  5
11652
  8
KI1
 10
166.99999999999969
 20
409.74999999999289
 30
0.0
 11
166.99999999999969
 21
421.24989999999298
 31
0.0
  0
LINE
  5
11653
  8
KI1
 10
168.7999999999997
 20
411.04999999999279
 30
0.0
 11
168.7999999999997
 21
419.2526835830497
 31
0.0
  0
LINE
  5
11654
  8
KI1
 10
169.50003999999981
 20
428.24987999999257
 30
0.0
 11
170.50003000000009
 21
428.24987999999257
 31
0.0
  0
LINE
  5
11655
  8
KI1
 10
168.44997999999981
 20
426.24999999999301
 30
0.0
 11
169.10003999999981
 21
426.24999999999301
 31
0.0
  0
LINE
  5
11656
  8
KI1
 10
168.44997999999981
 20
424.24993999999242
 30
0.0
 11
169.10003999999981
 21
424.24993999999242
 31
0.0
  0
LINE
  5
11657
  8
KI1
 10
168.44997999999981
 20
422.24987999999252
 30
0.0
 11
169.10003999999981
 21
422.24987999999252
 31
0.0
  0
LINE
  5
11658
  8
KI1
 10
168.44997999999981
 20
424.24993999999242
 30
0.0
 11
169.10003999999981
 21
426.24999999999301
 31
0.0
  0
LINE
  5
11659
  8
KI1
 10
168.44997999999981
 20
422.24987999999252
 30
0.0
 11
169.10003999999981
 21
424.24993999999242
 31
0.0
  0
LINE
  5
1165A
  8
KI1
 10
168.44997999999981
 20
426.24999999999301
 30
0.0
 11
169.50003999999981
 21
428.24987999999257
 31
0.0
  0
LINE
  5
1165B
  8
KI1
 10
169.10003999999981
 20
421.0311699999927
 30
0.0
 11
169.10003999999981
 21
422.24987999999252
 31
0.0
  0
LINE
  5
1165C
  8
KI1
 10
166.99999999999969
 20
421.24989999999298
 30
0.0
 11
169.10003999999981
 21
421.0311699999927
 31
0.0
  0
LINE
  5
1165D
  8
KI1
 10
170.90003999999971
 20
426.24999999999301
 30
0.0
 11
171.55004000000031
 21
426.24999999999301
 31
0.0
  0
LINE
  5
1165E
  8
KI1
 10
170.90003999999971
 20
424.24993999999242
 30
0.0
 11
171.55004000000031
 21
424.24993999999242
 31
0.0
  0
LINE
  5
1165F
  8
KI1
 10
170.90003999999971
 20
422.24987999999252
 30
0.0
 11
171.55004000000031
 21
422.24987999999252
 31
0.0
  0
LINE
  5
11660
  8
KI1
 10
170.90003999999971
 20
424.24993999999242
 30
0.0
 11
171.55004000000031
 21
422.24987999999252
 31
0.0
  0
LINE
  5
11661
  8
KI1
 10
170.90003999999971
 20
426.24999999999301
 30
0.0
 11
171.55004000000031
 21
424.24993999999242
 31
0.0
  0
LINE
  5
11662
  8
KI1
 10
170.50003000000009
 20
428.24987999999257
 30
0.0
 11
171.55004000000031
 21
426.24999999999301
 31
0.0
  0
LINE
  5
11663
  8
KI1
 10
170.90003999999971
 20
422.24987999999252
 30
0.0
 11
170.90003999999971
 21
427.48800916181102
 31
0.0
  0
LINE
  5
11664
  8
KI1
 10
168.7999999999997
 20
419.2526835830497
 30
0.0
 11
170.90003999999971
 21
419.03395358304942
 31
0.0
  0
LINE
  5
11668
  8
KI1
 10
170.90003999999971
 20
419.03395358304942
 30
0.0
 11
170.90003999999971
 21
422.24987999999252
 31
0.0
  0
LINE
  5
11669
  8
KI1
 10
181.09996000000001
 20
419.03395358304942
 30
0.0
 11
181.09996000000001
 21
422.24987999999252
 31
0.0
  0
LINE
  5
1166D
  8
KI1
 10
183.19999999999999
 20
419.2526835830497
 30
0.0
 11
181.09996000000001
 21
419.03395358304942
 31
0.0
  0
ARC
  5
1166E
  8
KI1
 10
167.4999999999998
 20
409.74999999999289
 30
0.0
 40
0.5
 50
180.0
 51
270.0
  0
ARC
  5
1166F
  8
KI1
 10
167.4999999999998
 20
409.74999999999289
 30
0.0
 40
0.5
 50
270.0
 51
270.0
  0
ARC
  5
11670
  8
KI1
 10
184.5
 20
409.74999999999289
 30
0.0
 40
0.5
 50
270.0
 51
0.0
  0
LINE
  5
11671
  8
KI1
 10
183.19999999999999
 20
411.04999999999291
 30
0.0
 11
183.19999999999999
 21
419.2526835830497
 31
0.0
  0
LINE
  5
11672
  8
KI1
 10
183.19999999999999
 20
411.04999999999291
 30
0.0
 11
168.7999999999997
 21
411.04999999999279
 31
0.0
  0
LINE
  5
11673
  8
KI1
 10
181.09996000000001
 20
422.24987999999252
 30
0.0
 11
181.09996000000001
 21
427.48800916181102
 31
0.0
  0
LINE
  5
11674
  8
KI1
 10
181.49996999999959
 20
428.24987999999257
 30
0.0
 11
180.44995999999941
 21
426.24999999999301
 31
0.0
  0
LINE
  5
11675
  8
KI1
 10
181.09996000000001
 20
426.24999999999301
 30
0.0
 11
180.44995999999941
 21
424.24993999999242
 31
0.0
  0
LINE
  5
11676
  8
KI1
 10
181.09996000000001
 20
424.24993999999242
 30
0.0
 11
180.44995999999941
 21
422.24987999999252
 31
0.0
  0
LINE
  5
11677
  8
KI1
 10
181.09996000000001
 20
422.24987999999252
 30
0.0
 11
180.44995999999941
 21
422.24987999999252
 31
0.0
  0
LINE
  5
11678
  8
KI1
 10
181.09996000000001
 20
424.24993999999242
 30
0.0
 11
180.44995999999941
 21
424.24993999999242
 31
0.0
  0
LINE
  5
11679
  8
KI1
 10
181.09996000000001
 20
426.24999999999301
 30
0.0
 11
180.44995999999941
 21
426.24999999999301
 31
0.0
  0
LINE
  5
1167A
  8
KI1
 10
185.0
 20
421.24989999999298
 30
0.0
 11
182.89995999999991
 21
421.0311699999927
 31
0.0
  0
LINE
  5
1167B
  8
KI1
 10
182.89995999999991
 20
421.0311699999927
 30
0.0
 11
182.89995999999991
 21
422.24987999999252
 31
0.0
  0
LINE
  5
1167C
  8
KI1
 10
183.55001999999999
 20
426.24999999999301
 30
0.0
 11
182.49995999999999
 21
428.24987999999257
 31
0.0
  0
LINE
  5
1167D
  8
KI1
 10
183.55001999999999
 20
422.24987999999252
 30
0.0
 11
182.89995999999991
 21
424.24993999999242
 31
0.0
  0
LINE
  5
1167E
  8
KI1
 10
183.55001999999999
 20
424.24993999999242
 30
0.0
 11
182.89995999999991
 21
426.24999999999301
 31
0.0
  0
LINE
  5
1167F
  8
KI1
 10
183.55001999999999
 20
422.24987999999252
 30
0.0
 11
182.89995999999991
 21
422.24987999999252
 31
0.0
  0
LINE
  5
11680
  8
KI1
 10
183.55001999999999
 20
424.24993999999242
 30
0.0
 11
182.89995999999991
 21
424.24993999999242
 31
0.0
  0
LINE
  5
11681
  8
KI1
 10
183.55001999999999
 20
426.24999999999301
 30
0.0
 11
182.89995999999991
 21
426.24999999999301
 31
0.0
  0
LINE
  5
11682
  8
KI1
 10
182.49995999999999
 20
428.24987999999257
 30
0.0
 11
181.49996999999959
 21
428.24987999999257
 31
0.0
  0
LINE
  5
11683
  8
KI1
 10
185.0
 20
409.74999999999289
 30
0.0
 11
185.0
 21
421.24989999999298
 31
0.0
  0
LINE
  5
11684
  8
KI1
 10
184.5
 20
409.24999999999289
 30
0.0
 11
167.4999999999998
 21
409.24999999999289
 31
0.0
  0
LINE
  5
11685
  8
KI1
 10
180.59999999999991
 20
421.24999999999289
 30
0.0
 11
171.40000000000009
 21
421.24999999999289
 31
0.0
  0
LINE
  5
11686
  8
KI1
 10
180.60000000000031
 20
429.24999999999289
 30
0.0
 11
183.99999900000009
 21
429.24999999999289
 31
0.0
  0
LINE
  5
11687
  8
KI1
 10
168.0000009999998
 20
429.24999999999289
 30
0.0
 11
171.40000000000009
 21
429.24999999999289
 31
0.0
  0
LINE
  5
11689
  8
OS
 10
171.40000000000009
 20
425.23030252784719
 30
0.0
 11
191.4196974721452
 21
445.24999999999221
 31
0.0
1001
GENIUS_GENODEF_13
1002
{
1000
HIER
1070
     0
1002
}
1002
{
1000
MANEDIT
1070
     0
1002
}
1002
{
1000
NOSEL
1070
     0
1002
}
1002
{
1000
BEHIND
1070
     0
1002
}
1002
{
1000
OTHER
1070
     0
1002
}
1002
{
1000
REACTOR
1002
}
1001
GENIUS_GENOBJ-N-HTC_13
1002
{
1000
OWNER
1000
GEN
1002
}
1001
GENIUS_GENHATCH_13
1002
{
1000
DATA
1040
45.0
1042
2.5
1000
_U
1070
     0
1011
145.1058400677411
1021
0.0
1031
0.0
1021
433.29051750791461
1031
0.0
1002
}
1002
{
1000
UCS
1010
0.0
1020
0.0
1030
0.0
1010
1.0
1020
0.0
1030
0.0
1010
0.0
1020
1.0
1030
0.0
1002
}
1001
ACAD
1010
0.0
1020
0.0
1030
0.0
  0
LINE
  5
1168A
  8
OS
 10
183.99999900000009
 20
427.93080659123558
 30
0.0
 11
201.31919240875689
 21
445.24999999999233
 31
0.0
1001
GENIUS_GENODEF_13
1002
{
1000
HIER
1070
     0
1002
}
1002
{
1000
MANEDIT
1070
     0
1002
}
1002
{
1000
NOSEL
1070
     0
1002
}
1002
{
1000
BEHIND
1070
     0
1002
}
1002
{
1000
OTHER
1070
     0
1002
}
1002
{
1000
REACTOR
1002
}
1001
GENIUS_GENOBJ-N-HTC_13
1002
{
1000
OWNER
1000
GEN
1002
}
1001
GENIUS_GENHATCH_13
1002
{
1000
DATA
1040
45.0
1042
2.5
1000
_U
1070
     0
1011
145.1058400677411
1021
0.0
1031
0.0
1021
433.29051750791461
1031
0.0
1002
}
1002
{
1000
UCS
1010
0.0
1020
0.0
1030
0.0
1010
1.0
1020
0.0
1030
0.0
1010
0.0
1020
1.0
1030
0.0
1002
}
1001
ACAD
1010
0.0
1020
0.0
1030
0.0
  0
LINE
  5
116A8
  8
KI1
 10
166.9999999999998
 20
317.24999999999233
 30
0.0
 11
166.99999999999989
 21
260.25932748868371
 31
0.0
  0
LINE
  5
116A9
  8
KI1
 10
185.0
 20
319.24999999999233
 30
0.0
 11
185.0
 21
409.74999999999289
 31
0.0
  0
LINE
  5
116B5
  8
KI1
 10
166.99999999999989
 20
236.95794637689471
 30
0.0
 11
166.99999999999989
 21
215.2499999999923
 31
0.0
  0
LINE
  5
116C0
  8
KI1
 10
184.99999999999989
 20
55.249999999992241
 30
0.0
 11
184.99999999999989
 21
165.2499999999923
 31
0.0
  0
LINE
  5
116C1
  8
KI1
 10
166.9999999999998
 20
165.2499999999923
 30
0.0
 11
166.9999999999998
 21
100.2593274886836
 31
0.0
  0
LINE
  5
116C2
  8
KI1
 10
166.9999999999998
 20
76.957946376894711
 30
0.0
 11
166.9999999999998
 21
55.249999999992241
 31
0.0
  0
TEXT
  5
116E8
  8
SU
 10
282.19999999999999
 20
218.6145929224684
 30
0.0
 40
7.0
  1
8
 50
90.0
 41
0.8299999999999999
  0
LINE
  5
116F4
  8
KI1
 10
444.99999999999989
 20
441.25000000000028
 30
0.0
 11
444.99999999999989
 21
521.25000000000034
 31
0.0
  0
LINE
  5
116F5
  8
KI1
 10
426.99999999999972
 20
521.25000000000034
 30
0.0
 11
426.99999999999972
 21
486.25932748869172
 31
0.0
  0
LINE
  5
116F6
  8
KI1
 10
426.99999999999972
 20
462.95794637690278
 30
0.0
 11
426.99999999999972
 21
441.25000000000028
 31
0.0
  0
TEXT
  5
116F8
  8
SU
 10
542.1999999999997
 20
444.75682442043433
 30
0.0
 40
7.0
  1
8
 50
90.0
 41
0.8299999999999999
  0
TEXT
  5
116FA
  8
SU
 10
787.1999999999997
 20
445.0177339610903
 30
0.0
 40
7.0
  1
7
 50
90.0
 41
0.8299999999999999
  0
LINE
  5
11709
  8
KI1
 10
705.0
 20
444.25000000000841
 30
0.0
 11
705.0
 21
521.25000000000034
 31
0.0
  0
LINE
  5
1170A
  8
KI1
 10
686.99999999999989
 20
521.25000000000034
 30
0.0
 11
686.99999999999989
 21
444.25000000000841
 31
0.0
  0
LINE
  5
11740
  8
KI2
 10
170.90003999999971
 20
426.0839070677834
 30
0.0
 11
170.9407788534356
 21
426.12464592121933
 31
0.0
  0
LINE
  5
11741
  8
KI2
 10
170.90003999999971
 20
425.769598103546
 30
0.0
 11
171.01787175954129
 21
425.88742986308762
 31
0.0
  0
LINE
  5
11742
  8
KI2
 10
170.90003999999971
 20
425.4552891393086
 30
0.0
 11
171.0949646656469
 21
425.6502138049558
 31
0.0
  0
LINE
  5
11743
  8
KI2
 10
170.90003999999971
 20
425.14098017507121
 30
0.0
 11
171.17205757175259
 21
425.41299774682409
 31
0.0
  0
LINE
  5
11744
  8
KI2
 10
170.90003999999971
 20
424.82667121083369
 30
0.0
 11
171.24915047785831
 21
425.17578168869233
 31
0.0
  0
LINE
  5
11745
  8
KI2
 10
170.90003999999971
 20
424.51236224659641
 30
0.0
 11
171.326243383964
 21
424.93856563056062
 31
0.0
  0
LINE
  5
11746
  8
KI2
 10
170.9519267176332
 20
424.24993999999242
 30
0.0
 11
171.4033362900696
 21
424.7013495724288
 31
0.0
  0
LINE
  5
11747
  8
KI2
 10
171.2662356818706
 20
424.24993999999242
 30
0.0
 11
171.48042919617529
 21
424.46413351429709
 31
0.0
  0
LINE
  5
11748
  8
KI2
 10
170.90003999999979
 20
424.19805328235901
 30
0.0
 11
170.9127666425897
 21
424.21077992494878
 31
0.0
  0
LINE
  5
11749
  8
KI2
 10
170.90003999999971
 20
423.8837443181215
 30
0.0
 11
170.98985954869531
 21
423.97356386681707
 31
0.0
  0
LINE
  5
1174A
  8
KI2
 10
170.90003999999971
 20
423.5694353538841
 30
0.0
 11
171.066952454801
 21
423.73634780868531
 31
0.0
  0
LINE
  5
1174B
  8
KI2
 10
170.90003999999971
 20
423.2551263896467
 30
0.0
 11
171.14404536090669
 21
423.4991317505536
 31
0.0
  0
LINE
  5
1174C
  8
KI2
 10
170.90003999999971
 20
422.94081742540931
 30
0.0
 11
171.22113826701241
 21
423.26191569242189
 31
0.0
  0
LINE
  5
1174D
  8
KI2
 10
170.90003999999971
 20
422.6265084611718
 30
0.0
 11
171.2982311731181
 21
423.02469963429019
 31
0.0
  0
LINE
  5
1174E
  8
KI2
 10
170.90003999999971
 20
422.31219949693451
 30
0.0
 11
171.37532407922379
 21
422.78748357615848
 31
0.0
  0
LINE
  5
1174F
  8
KI2
 10
171.15202946729531
 20
422.24987999999257
 30
0.0
 11
171.45241698532951
 21
422.55026751802683
 31
0.0
  0
LINE
  5
11750
  8
KI2
 10
171.46633843153271
 20
422.24987999999252
 30
0.0
 11
171.5295098914352
 21
422.31305145989501
 31
0.0
  0
LINE
  5
11751
  8
KI2
 10
170.90003999999979
 20
427.34114292473322
 30
0.0
 11
170.95060281295179
 21
427.39170573768507
 31
0.0
  0
LINE
  5
11752
  8
KI2
 10
170.90003999999971
 20
427.02683396049582
 30
0.0
 11
171.05881247150961
 21
427.18560643200561
 31
0.0
  0
LINE
  5
11753
  8
KI2
 10
170.90003999999971
 20
426.71252499625831
 30
0.0
 11
171.16702213006741
 21
426.97950712632598
 31
0.0
  0
LINE
  5
11754
  8
KI2
 10
170.90003999999971
 20
426.39821603202091
 30
0.0
 11
171.27523178862529
 21
426.77340782064653
 31
0.0
  0
LINE
  5
11755
  8
KI2
 10
171.0661329322092
 20
426.24999999999301
 30
0.0
 11
171.3834414471832
 21
426.5673085149669
 31
0.0
  0
LINE
  5
11756
  8
KI2
 10
171.3804418964466
 20
426.24999999999301
 30
0.0
 11
171.491651105741
 21
426.36120920928732
 31
0.0
  0
LINE
  5
11757
  8
KI2
 10
180.6195581035532
 20
426.24999999999289
 30
0.0
 11
180.50834889425869
 21
426.36120920928732
 31
0.0
  0
LINE
  5
11758
  8
KI2
 10
180.9338670677906
 20
426.24999999999289
 30
0.0
 11
180.6165585528166
 21
426.5673085149669
 31
0.0
  0
LINE
  5
11759
  8
KI2
 10
181.09996000000001
 20
426.39821603202091
 30
0.0
 11
180.7247682113744
 21
426.77340782064653
 31
0.0
  0
LINE
  5
1175A
  8
KI2
 10
181.09996000000001
 20
426.71252499625842
 30
0.0
 11
180.83297786993231
 21
426.9795071263261
 31
0.0
  0
LINE
  5
1175B
  8
KI2
 10
181.09996000000001
 20
427.02683396049582
 30
0.0
 11
180.9411875284901
 21
427.18560643200561
 31
0.0
  0
LINE
  5
1175C
  8
KI2
 10
181.09996000000001
 20
427.34114292473322
 30
0.0
 11
181.04939718704799
 21
427.39170573768507
 31
0.0
  0
LINE
  5
1175D
  8
KI2
 10
180.7337643181292
 20
424.24993999999242
 30
0.0
 11
180.51957080382439
 21
424.46413351429709
 31
0.0
  0
LINE
  5
1175E
  8
KI2
 10
181.0480732823666
 20
424.24993999999242
 30
0.0
 11
180.59666370993011
 21
424.70134957242891
 31
0.0
  0
LINE
  5
1175F
  8
KI2
 10
181.09996000000001
 20
424.51236224659641
 30
0.0
 11
180.67375661603569
 21
424.93856563056062
 31
0.0
  0
LINE
  5
11760
  8
KI2
 10
181.09996000000001
 20
424.82667121083369
 30
0.0
 11
180.75084952214141
 21
425.17578168869233
 31
0.0
  0
LINE
  5
11761
  8
KI2
 10
181.09996000000001
 20
425.14098017507121
 30
0.0
 11
180.8279424282471
 21
425.41299774682409
 31
0.0
  0
LINE
  5
11762
  8
KI2
 10
181.09996000000001
 20
425.45528913930872
 30
0.0
 11
180.90503533435279
 21
425.65021380495591
 31
0.0
  0
LINE
  5
11763
  8
KI2
 10
181.09996000000001
 20
425.769598103546
 30
0.0
 11
180.98212824045839
 21
425.88742986308762
 31
0.0
  0
LINE
  5
11764
  8
KI2
 10
181.09996000000001
 20
426.0839070677834
 30
0.0
 11
181.05922114656411
 21
426.12464592121933
 31
0.0
  0
LINE
  5
11765
  8
KI2
 10
180.5336615684671
 20
422.2498799999924
 30
0.0
 11
180.47049010856449
 21
422.31305145989512
 31
0.0
  0
LINE
  5
11766
  8
KI2
 10
180.84797053270449
 20
422.24987999999252
 30
0.0
 11
180.54758301467021
 21
422.55026751802683
 31
0.0
  0
LINE
  5
11767
  8
KI2
 10
181.09996000000001
 20
422.31219949693451
 30
0.0
 11
180.6246759207759
 21
422.78748357615859
 31
0.0
  0
LINE
  5
11768
  8
KI2
 10
181.09996000000001
 20
422.62650846117191
 30
0.0
 11
180.70176882688159
 21
423.0246996342903
 31
0.0
  0
LINE
  5
11769
  8
KI2
 10
181.09996000000001
 20
422.94081742540931
 30
0.0
 11
180.77886173298731
 21
423.26191569242189
 31
0.0
  0
LINE
  5
1176A
  8
KI2
 10
181.09996000000001
 20
423.2551263896467
 30
0.0
 11
180.855954639093
 21
423.49913175055372
 31
0.0
  0
LINE
  5
1176B
  8
KI2
 10
181.09996000000001
 20
423.5694353538841
 30
0.0
 11
180.93304754519869
 21
423.73634780868531
 31
0.0
  0
LINE
  5
1176C
  8
KI2
 10
181.09996000000001
 20
423.8837443181215
 30
0.0
 11
181.01014045130441
 21
423.97356386681707
 31
0.0
  0
LINE
  5
1176D
  8
KI2
 10
181.09996000000001
 20
424.19805328235901
 30
0.0
 11
181.0872333574101
 21
424.21077992494878
 31
0.0
  0
LINE
  5
1181C
  8
KI2
 10
485.71194193327392
 20
234.9391075067164
 30
0.0
 11
483.99975148934487
 21
236.6512979506453
 31
0.0
  0
LINE
  5
1181D
  8
KI2
 10
486.7926936581095
 20
234.7563813939876
 30
0.0
 11
485.44168853338908
 21
236.10738651870801
 31
0.0
  0
LINE
  5
1181E
  8
KI2
 10
487.65650592477812
 20
234.7905947394259
 30
0.0
 11
486.67991250129279
 21
235.7671881629112
 31
0.0
  0
LINE
  5
1181F
  8
KI2
 10
488.39631225553097
 20
234.94881402077991
 30
0.0
 11
487.55864220260793
 21
235.78648407370301
 31
0.0
  0
LINE
  5
11820
  8
KI2
 10
489.04661588915991
 20
235.19653599925789
 30
0.0
 11
488.28067216495128
 21
235.9624797234666
 31
0.0
  0
LINE
  5
11821
  8
KI2
 10
489.6239318684398
 20
235.51724563208501
 30
0.0
 11
488.89676428827079
 21
236.24441321225399
 31
0.0
  0
LINE
  5
11822
  8
KI2
 10
490.13667034589952
 20
235.90253276673221
 30
0.0
 11
489.42714707398119
 21
236.61205603865039
 31
0.0
  0
LINE
  5
11823
  8
KI2
 10
488.78915319632881
 20
237.2500499163028
 30
0.0
 11
488.49999999999989
 21
237.53920311263181
 31
0.0
  0
LINE
  5
11824
  8
KI2
 10
490.49999999999989
 20
236.4372287247387
 30
0.0
 11
489.1871788084357
 21
237.7500499163028
 31
0.0
  0
LINE
  5
11825
  8
KI2
 10
490.49999999999989
 20
237.33525433684571
 30
0.0
 11
490.0852044205426
 21
237.75004991630291
 31
0.0
  0
ARC
  5
11826
  8
KI1
 10
487.03767810319982
 20
239.4928402113851
 30
0.0
 40
3.742790324371021
 50
229.8206620447869
 51
311.13869412240649
  0
ARC
  5
11827
  8
KI1
 10
484.2999999999999
 20
236.25148445431589
 30
0.0
 40
0.5000000000000001
 50
49.774858778821311
 51
229.90103194042169
  0
LINE
  5
11828
  8
KI1
 10
488.49999999999989
 20
237.2500499163028
 30
0.0
 11
489.49999999999989
 21
237.2500499163028
 31
0.0
  0
LINE
  5
11829
  8
KI1
 10
488.49999999999989
 20
237.7500499163028
 30
0.0
 11
488.49999999999989
 21
237.2500499163028
 31
0.0
  0
LINE
  5
1182A
  8
KI1
 10
489.49999999999989
 20
237.2500499163028
 30
0.0
 11
489.49999999999977
 21
236.67407269902361
 31
0.0
  0
ARC
  5
1182B
  8
KI1
 10
487.03767863685567
 20
239.49283907328831
 30
0.0
 40
4.7427891569855003
 50
229.82429237099251
 51
316.88790145844598
  0
LINE
  5
1182C
  8
KI1
 10
490.49999999999989
 20
237.7500499163028
 30
0.0
 11
490.49999999999989
 21
236.2514844543158
 31
0.0
  0
LINE
  5
1182D
  8
KI1
 10
492.99999999999977
 20
255.75004991630311
 30
0.0
 11
481.5000999999998
 21
255.75004991630311
 31
0.0
  0
LINE
  5
1182E
  8
KI1
 10
491.69999999999987
 20
253.9500499163031
 30
0.0
 11
483.49731641694308
 21
253.9500499163031
 31
0.0
  0
LINE
  5
1182F
  8
KI1
 10
474.50012000000021
 20
253.25000991630321
 30
0.0
 11
474.50012000000021
 21
252.25001991630279
 31
0.0
  0
LINE
  5
11830
  8
KI1
 10
476.49999999999977
 20
254.3000699163031
 30
0.0
 11
476.49999999999977
 21
253.65000991630311
 31
0.0
  0
LINE
  5
11831
  8
KI1
 10
478.50006000000042
 20
254.3000699163031
 30
0.0
 11
478.50006000000042
 21
253.65000991630311
 31
0.0
  0
LINE
  5
11832
  8
KI1
 10
480.50012000000032
 20
254.3000699163031
 30
0.0
 11
480.50012000000032
 21
253.65000991630299
 31
0.0
  0
LINE
  5
11833
  8
KI1
 10
478.50006000000042
 20
254.3000699163031
 30
0.0
 11
476.49999999999977
 21
253.65000991630311
 31
0.0
  0
LINE
  5
11834
  8
KI1
 10
480.50012000000032
 20
254.3000699163031
 30
0.0
 11
478.50006000000042
 21
253.65000991630311
 31
0.0
  0
LINE
  5
11835
  8
KI1
 10
476.49999999999977
 20
254.3000699163031
 30
0.0
 11
474.50012000000021
 21
253.25000991630321
 31
0.0
  0
LINE
  5
11836
  8
KI1
 10
481.71883000000008
 20
253.65000991630299
 30
0.0
 11
480.50012000000032
 21
253.65000991630299
 31
0.0
  0
LINE
  5
11837
  8
KI1
 10
481.5000999999998
 20
255.75004991630311
 30
0.0
 11
481.71883000000008
 21
253.65000991630299
 31
0.0
  0
LINE
  5
11838
  8
KI1
 10
476.49999999999977
 20
251.85000991630321
 30
0.0
 11
476.49999999999977
 21
251.20000991630249
 31
0.0
  0
LINE
  5
11839
  8
KI1
 10
478.50006000000042
 20
251.85000991630321
 30
0.0
 11
478.50006000000042
 21
251.20000991630249
 31
0.0
  0
LINE
  5
1183A
  8
KI1
 10
480.50012000000032
 20
251.85000991630321
 30
0.0
 11
480.50012000000032
 21
251.20000991630249
 31
0.0
  0
LINE
  5
1183B
  8
KI1
 10
478.50006000000042
 20
251.85000991630321
 30
0.0
 11
480.50012000000032
 21
251.20000991630249
 31
0.0
  0
LINE
  5
1183C
  8
KI1
 10
476.49999999999977
 20
251.85000991630321
 30
0.0
 11
478.50006000000042
 21
251.20000991630249
 31
0.0
  0
LINE
  5
1183D
  8
KI1
 10
474.50012000000021
 20
252.25001991630279
 30
0.0
 11
476.49999999999977
 21
251.20000991630249
 31
0.0
  0
LINE
  5
1183E
  8
KI1
 10
480.50012000000032
 20
251.85000991630321
 30
0.0
 11
475.2619908381817
 21
251.85000991630321
 31
0.0
  0
LINE
  5
1183F
  8
KI1
 10
483.49731641694308
 20
253.9500499163031
 30
0.0
 11
483.71604641694341
 21
251.85000991630309
 31
0.0
  0
LINE
  5
11840
  8
KI2
 10
478.50006000000042
 20
251.4838142344322
 30
0.0
 11
478.28586648569569
 21
251.26962072012751
 31
0.0
  0
LINE
  5
11841
  8
KI2
 10
478.50006000000042
 20
251.79812319866971
 30
0.0
 11
478.04865042756393
 21
251.34671362623311
 31
0.0
  0
LINE
  5
11842
  8
KI2
 10
478.23763775339648
 20
251.85000991630321
 30
0.0
 11
477.81143436943222
 21
251.42380653233889
 31
0.0
  0
LINE
  5
11843
  8
KI2
 10
477.92332878915909
 20
251.85000991630321
 30
0.0
 11
477.5742183113004
 21
251.50089943844449
 31
0.0
  0
LINE
  5
11844
  8
KI2
 10
477.60901982492157
 20
251.85000991630321
 30
0.0
 11
477.33700225316869
 21
251.57799234455021
 31
0.0
  0
LINE
  5
11845
  8
KI2
 10
477.29471086068418
 20
251.85000991630321
 30
0.0
 11
477.09978619503698
 21
251.6550852506559
 31
0.0
  0
LINE
  5
11846
  8
KI2
 10
476.98040189644678
 20
251.85000991630321
 30
0.0
 11
476.86257013690522
 21
251.73217815676159
 31
0.0
  0
LINE
  5
11847
  8
KI2
 10
476.66609293220932
 20
251.85000991630321
 30
0.0
 11
476.62535407877351
 21
251.80927106286731
 31
0.0
  0
LINE
  5
11848
  8
KI2
 10
476.49999999999977
 20
251.36960801985629
 30
0.0
 11
476.3887907907054
 21
251.2583988105618
 31
0.0
  0
LINE
  5
11849
  8
KI2
 10
476.49999999999977
 20
251.68391698409371
 30
0.0
 11
476.18269148502588
 21
251.36660846911971
 31
0.0
  0
LINE
  5
1184A
  8
KI2
 10
476.35178396797193
 20
251.85000991630321
 30
0.0
 11
475.97659217934631
 21
251.47481812767751
 31
0.0
  0
LINE
  5
1184B
  8
KI2
 10
476.03747500373453
 20
251.85000991630321
 30
0.0
 11
475.7704928736668
 21
251.5830277862355
 31
0.0
  0
LINE
  5
1184C
  8
KI2
 10
475.72316603949707
 20
251.85000991630321
 30
0.0
 11
475.56439356798722
 21
251.6912374447933
 31
0.0
  0
LINE
  5
1184D
  8
KI2
 10
475.40885707525968
 20
251.85000991630321
 30
0.0
 11
475.35829426230771
 21
251.7994471033511
 31
0.0
  0
LINE
  5
1184E
  8
KI2
 10
480.50012000000032
 20
251.28371148477021
 30
0.0
 11
480.43694854009772
 21
251.22054002486769
 31
0.0
  0
LINE
  5
1184F
  8
KI2
 10
480.50012000000032
 20
251.59802044900749
 30
0.0
 11
480.19973248196612
 21
251.29763293097329
 31
0.0
  0
LINE
  5
11850
  8
KI2
 10
480.43780050305838
 20
251.85000991630321
 30
0.0
 11
479.96251642383419
 21
251.37472583707901
 31
0.0
  0
LINE
  5
11851
  8
KI2
 10
480.12349153882087
 20
251.85000991630321
 30
0.0
 11
479.72530036570259
 21
251.4518187431847
 31
0.0
  0
LINE
  5
11852
  8
KI2
 10
479.80918257458347
 20
251.85000991630321
 30
0.0
 11
479.48808430757077
 21
251.52891164929039
 31
0.0
  0
LINE
  5
11853
  8
KI2
 10
479.49487361034619
 20
251.85000991630321
 30
0.0
 11
479.25086824943918
 21
251.60600455539611
 31
0.0
  0
LINE
  5
11854
  8
KI2
 10
479.18056464610868
 20
251.85000991630321
 30
0.0
 11
479.01365219130741
 21
251.6830974615018
 31
0.0
  0
LINE
  5
11855
  8
KI2
 10
478.86625568187128
 20
251.85000991630321
 30
0.0
 11
478.77643613317571
 21
251.76019036760749
 31
0.0
  0
LINE
  5
11856
  8
KI2
 10
478.55194671763388
 20
251.85000991630321
 30
0.0
 11
478.539220075044
 21
251.8372832737133
 31
0.0
  0
LINE
  5
11857
  8
KI1
 10
483.71604641694341
 20
251.85000991630309
 30
0.0
 11
480.50012000000032
 21
251.85000991630321
 31
0.0
  0
LINE
  5
11858
  8
KI1
 10
483.71604641694341
 20
241.65008991630279
 30
0.0
 11
480.50012000000032
 21
241.65008991630279
 31
0.0
  0
LINE
  5
11859
  8
KI2
 10
478.55194671763388
 20
241.6500899163029
 30
0.0
 11
478.539220075044
 21
241.66281655889281
 31
0.0
  0
LINE
  5
1185A
  8
KI2
 10
478.86625568187128
 20
241.65008991630279
 30
0.0
 11
478.77643613317571
 21
241.7399094649985
 31
0.0
  0
LINE
  5
1185B
  8
KI2
 10
479.18056464610868
 20
241.65008991630279
 30
0.0
 11
479.01365219130741
 21
241.81700237110419
 31
0.0
  0
LINE
  5
1185C
  8
KI2
 10
479.49487361034608
 20
241.65008991630279
 30
0.0
 11
479.25086824943912
 21
241.89409527720991
 31
0.0
  0
LINE
  5
1185D
  8
KI2
 10
479.80918257458347
 20
241.65008991630279
 30
0.0
 11
479.48808430757077
 21
241.9711881833156
 31
0.0
  0
LINE
  5
1185E
  8
KI2
 10
480.12349153882087
 20
241.65008991630279
 30
0.0
 11
479.72530036570259
 21
242.04828108942129
 31
0.0
  0
LINE
  5
1185F
  8
KI2
 10
480.43780050305833
 20
241.65008991630279
 30
0.0
 11
479.96251642383419
 21
242.12537399552701
 31
0.0
  0
LINE
  5
11860
  8
KI2
 10
480.50012000000032
 20
241.90207938359831
 30
0.0
 11
480.19973248196601
 21
242.2024669016327
 31
0.0
  0
LINE
  5
11861
  8
KI2
 10
480.50012000000032
 20
242.2163883478357
 30
0.0
 11
480.43694854009772
 21
242.27955980773831
 31
0.0
  0
LINE
  5
11862
  8
KI2
 10
475.40885707525962
 20
241.6500899163029
 30
0.0
 11
475.3582942623076
 21
241.7006527292549
 31
0.0
  0
LINE
  5
11863
  8
KI2
 10
475.72316603949707
 20
241.6500899163029
 30
0.0
 11
475.56439356798722
 21
241.8088623878127
 31
0.0
  0
LINE
  5
11864
  8
KI2
 10
476.03747500373453
 20
241.65008991630279
 30
0.0
 11
475.7704928736668
 21
241.91707204637049
 31
0.0
  0
LINE
  5
11865
  8
KI2
 10
476.35178396797193
 20
241.6500899163029
 30
0.0
 11
475.97659217934631
 21
242.02528170492849
 31
0.0
  0
LINE
  5
11866
  8
KI2
 10
476.49999999999977
 20
241.81618284851231
 30
0.0
 11
476.18269148502588
 21
242.13349136348631
 31
0.0
  0
LINE
  5
11867
  8
KI2
 10
476.49999999999977
 20
242.1304918127498
 30
0.0
 11
476.3887907907054
 21
242.2417010220442
 31
0.0
  0
LINE
  5
11868
  8
KI2
 10
476.66609293220921
 20
241.6500899163029
 30
0.0
 11
476.62535407877351
 21
241.6908287697388
 31
0.0
  0
LINE
  5
11869
  8
KI2
 10
476.98040189644672
 20
241.6500899163029
 30
0.0
 11
476.86257013690522
 21
241.76792167584449
 31
0.0
  0
LINE
  5
1186A
  8
KI2
 10
477.29471086068418
 20
241.6500899163029
 30
0.0
 11
477.09978619503698
 21
241.84501458195021
 31
0.0
  0
LINE
  5
1186B
  8
KI2
 10
477.60901982492157
 20
241.6500899163029
 30
0.0
 11
477.33700225316858
 21
241.92210748805579
 31
0.0
  0
LINE
  5
1186C
  8
KI2
 10
477.92332878915897
 20
241.6500899163029
 30
0.0
 11
477.5742183113004
 21
241.99920039416151
 31
0.0
  0
LINE
  5
1186D
  8
KI2
 10
478.23763775339643
 20
241.6500899163029
 30
0.0
 11
477.81143436943222
 21
242.07629330026711
 31
0.0
  0
LINE
  5
1186E
  8
KI2
 10
478.50006000000042
 20
241.7019766339364
 30
0.0
 11
478.04865042756393
 21
242.15338620637289
 31
0.0
  0
LINE
  5
1186F
  8
KI2
 10
478.50006000000042
 20
242.01628559817379
 30
0.0
 11
478.28586648569569
 21
242.23047911247849
 31
0.0
  0
LINE
  5
11870
  8
KI1
 10
483.49731641694308
 20
239.5500499163029
 30
0.0
 11
483.71604641694341
 21
241.65008991630279
 31
0.0
  0
ARC
  5
11871
  8
KI1
 10
492.99999999999977
 20
255.25004991630311
 30
0.0
 40
0.5
 50
0.0
 51
90.0
  0
ARC
  5
11872
  8
KI1
 10
492.99999999999977
 20
255.25004991630311
 30
0.0
 40
0.5
 50
0.0
 51
0.0
  0
ARC
  5
11873
  8
KI1
 10
492.99999999999989
 20
238.2500499163028
 30
0.0
 40
0.5
 50
270.0
 51
0.0
  0
LINE
  5
11874
  8
KI1
 10
491.69999999999987
 20
239.5500499163029
 30
0.0
 11
483.49731641694308
 21
239.5500499163029
 31
0.0
  0
LINE
  5
11875
  8
KI1
 10
491.69999999999987
 20
239.5500499163029
 30
0.0
 11
491.69999999999987
 21
253.9500499163031
 31
0.0
  0
LINE
  5
11876
  8
KI1
 10
480.50012000000032
 20
241.65008991630279
 30
0.0
 11
475.2619908381817
 21
241.6500899163029
 31
0.0
  0
LINE
  5
11877
  8
KI1
 10
474.50012000000032
 20
241.25007991630329
 30
0.0
 11
476.49999999999989
 21
242.30008991630351
 31
0.0
  0
LINE
  5
11878
  8
KI1
 10
476.49999999999989
 20
241.6500899163029
 30
0.0
 11
478.50006000000042
 21
242.30008991630351
 31
0.0
  0
LINE
  5
11879
  8
KI1
 10
478.50006000000042
 20
241.6500899163029
 30
0.0
 11
480.50012000000032
 21
242.30008991630351
 31
0.0
  0
LINE
  5
1187A
  8
KI1
 10
480.50012000000032
 20
241.65008991630279
 30
0.0
 11
480.50012000000032
 21
242.30008991630351
 31
0.0
  0
LINE
  5
1187B
  8
KI1
 10
478.50006000000042
 20
241.6500899163029
 30
0.0
 11
478.50006000000042
 21
242.30008991630351
 31
0.0
  0
LINE
  5
1187C
  8
KI1
 10
476.49999999999989
 20
241.6500899163029
 30
0.0
 11
476.49999999999989
 21
242.30008991630351
 31
0.0
  0
LINE
  5
1187D
  8
KI1
 10
481.50009999999992
 20
237.7500499163028
 30
0.0
 11
481.7188300000002
 21
239.85008991630289
 31
0.0
  0
LINE
  5
1187E
  8
KI1
 10
481.7188300000002
 20
239.85008991630289
 30
0.0
 11
480.50012000000032
 21
239.85008991630289
 31
0.0
  0
LINE
  5
1187F
  8
KI1
 10
476.49999999999989
 20
239.2000299163029
 30
0.0
 11
474.50012000000032
 21
240.25008991630301
 31
0.0
  0
LINE
  5
11880
  8
KI1
 10
480.50012000000032
 20
239.2000299163029
 30
0.0
 11
478.50006000000042
 21
239.85008991630289
 31
0.0
  0
LINE
  5
11881
  8
KI1
 10
478.50006000000042
 20
239.2000299163029
 30
0.0
 11
476.49999999999989
 21
239.85008991630289
 31
0.0
  0
LINE
  5
11882
  8
KI1
 10
480.50012000000032
 20
239.2000299163029
 30
0.0
 11
480.50012000000032
 21
239.85008991630289
 31
0.0
  0
LINE
  5
11883
  8
KI1
 10
478.50006000000042
 20
239.2000299163029
 30
0.0
 11
478.50006000000042
 21
239.85008991630289
 31
0.0
  0
LINE
  5
11884
  8
KI1
 10
476.49999999999989
 20
239.2000299163029
 30
0.0
 11
476.49999999999989
 21
239.85008991630289
 31
0.0
  0
LINE
  5
11885
  8
KI1
 10
474.50012000000032
 20
240.25008991630301
 30
0.0
 11
474.50012000000032
 21
241.25007991630329
 31
0.0
  0
LINE
  5
11886
  8
KI1
 10
492.99999999999989
 20
237.7500499163028
 30
0.0
 11
481.50009999999992
 21
237.7500499163028
 31
0.0
  0
LINE
  5
11887
  8
KI1
 10
493.49999999999989
 20
238.2500499163028
 30
0.0
 11
493.49999999999977
 21
255.25004991630311
 31
0.0
  0
LINE
  5
11888
  8
KI1
 10
481.49999999999977
 20
242.15004991630329
 30
0.0
 11
481.49999999999977
 21
251.35004991630311
 31
0.0
  0
LINE
  5
11889
  8
KI1
 10
473.49999999999977
 20
254.75004891630331
 30
0.0
 11
473.49999999999977
 21
251.35004991630311
 31
0.0
  0
LINE
  5
1188A
  8
KI1
 10
473.49999999999977
 20
242.15004991630281
 30
0.0
 11
473.49999999999977
 21
238.75005091630311
 31
0.0
  0
LINE
  5
1188B
  8
KI1
 10
481.49999999999977
 20
242.15004991630329
 30
0.0
 11
473.49999999999977
 21
242.15004991630281
 31
0.0
  0
LINE
  5
1188C
  8
KI1
 10
481.49999999999977
 20
251.35004991630311
 30
0.0
 11
473.49999999999977
 21
251.35004991630311
 31
0.0
  0
LINE
  5
1188D
  8
KI1
 10
481.49999999999977
 20
254.75004891630331
 30
0.0
 11
473.49999999999977
 21
254.75004891630331
 31
0.0
  0
LINE
  5
1188E
  8
KI1
 10
481.49999999999989
 20
238.75005091630311
 30
0.0
 11
473.49999999999977
 21
238.75005091630311
 31
0.0
  0
LINE
  5
1188F
  8
OS
 10
479.19398915564312
 20
242.15004991630309
 30
0.0
 11
481.49999999999977
 21
244.4560607606598
 31
0.0
1001
ACAD
1010
0.0
1020
0.0
1030
0.0
  0
LINE
  5
118F9
  8
KI1
 10
672.00000000212947
 20
255.75004991630331
 30
0.0
 11
683.49990000212961
 21
255.75004991630331
 31
0.0
  0
LINE
  5
118FA
  8
KI1
 10
673.30000000212954
 20
253.9500499163033
 30
0.0
 11
681.50268358518633
 21
253.9500499163033
 31
0.0
  0
LINE
  5
118FB
  8
KI1
 10
690.49988000212909
 20
253.2500099163033
 30
0.0
 11
690.49988000212909
 21
252.2500199163029
 31
0.0
  0
LINE
  5
118FC
  8
KI1
 10
688.50000000212947
 20
254.30006991630319
 30
0.0
 11
688.50000000212947
 21
253.6500099163033
 31
0.0
  0
LINE
  5
118FD
  8
KI1
 10
686.49994000212905
 20
254.30006991630319
 30
0.0
 11
686.49994000212905
 21
253.6500099163033
 31
0.0
  0
LINE
  5
118FE
  8
KI1
 10
684.4998800021292
 20
254.30006991630319
 30
0.0
 11
684.4998800021292
 21
253.6500099163033
 31
0.0
  0
LINE
  5
118FF
  8
KI1
 10
686.49994000212905
 20
254.30006991630319
 30
0.0
 11
688.50000000212947
 21
253.6500099163033
 31
0.0
  0
LINE
  5
11900
  8
KI1
 10
684.4998800021292
 20
254.30006991630319
 30
0.0
 11
686.49994000212905
 21
253.6500099163033
 31
0.0
  0
LINE
  5
11901
  8
KI1
 10
688.50000000212947
 20
254.30006991630319
 30
0.0
 11
690.49988000212909
 21
253.2500099163033
 31
0.0
  0
LINE
  5
11902
  8
KI1
 10
683.28117000212933
 20
253.6500099163033
 30
0.0
 11
684.4998800021292
 21
253.6500099163033
 31
0.0
  0
LINE
  5
11903
  8
KI1
 10
683.49990000212961
 20
255.75004991630331
 30
0.0
 11
683.28117000212933
 21
253.6500099163033
 31
0.0
  0
LINE
  5
11904
  8
KI1
 10
688.50000000212947
 20
251.85000991630329
 30
0.0
 11
688.50000000212947
 21
251.2000099163028
 31
0.0
  0
LINE
  5
11905
  8
KI1
 10
686.49994000212905
 20
251.85000991630329
 30
0.0
 11
686.49994000212905
 21
251.2000099163028
 31
0.0
  0
LINE
  5
11906
  8
KI1
 10
684.4998800021292
 20
251.85000991630329
 30
0.0
 11
684.4998800021292
 21
251.2000099163028
 31
0.0
  0
LINE
  5
11907
  8
KI1
 10
686.49994000212905
 20
251.85000991630329
 30
0.0
 11
684.4998800021292
 21
251.2000099163028
 31
0.0
  0
LINE
  5
11908
  8
KI1
 10
688.50000000212947
 20
251.85000991630329
 30
0.0
 11
686.49994000212905
 21
251.2000099163028
 31
0.0
  0
LINE
  5
11909
  8
KI1
 10
690.49988000212909
 20
252.2500199163029
 30
0.0
 11
688.50000000212947
 21
251.2000099163028
 31
0.0
  0
LINE
  5
1190A
  8
KI1
 10
684.4998800021292
 20
251.85000991630329
 30
0.0
 11
689.73800916394771
 21
251.85000991630329
 31
0.0
  0
LINE
  5
1190B
  8
KI1
 10
681.50268358518633
 20
253.9500499163033
 30
0.0
 11
681.28395358518605
 21
251.85000991630329
 31
0.0
  0
LINE
  5
1190C
  8
KI2
 10
688.3339070699202
 20
251.85000991630321
 30
0.0
 11
688.37464592335596
 21
251.8092710628674
 31
0.0
  0
LINE
  5
1190D
  8
KI2
 10
688.01959810568269
 20
251.85000991630329
 30
0.0
 11
688.13742986522425
 21
251.73217815676171
 31
0.0
  0
LINE
  5
1190E
  8
KI2
 10
687.70528914144529
 20
251.85000991630329
 30
0.0
 11
687.90021380709254
 21
251.65508525065599
 31
0.0
  0
LINE
  5
1190F
  8
KI2
 10
687.39098017720789
 20
251.85000991630329
 30
0.0
 11
687.66299774896083
 21
251.5779923445503
 31
0.0
  0
LINE
  5
11910
  8
KI2
 10
687.0766712129705
 20
251.85000991630329
 30
0.0
 11
687.42578169082901
 21
251.5008994384448
 31
0.0
  0
LINE
  5
11911
  8
KI2
 10
686.7623622487331
 20
251.85000991630329
 30
0.0
 11
687.1885656326973
 21
251.42380653233911
 31
0.0
  0
LINE
  5
11912
  8
KI2
 10
686.49994000212905
 20
251.7981231986698
 30
0.0
 11
686.95134957456537
 21
251.3467136262334
 31
0.0
  0
LINE
  5
11913
  8
KI2
 10
686.49994000212905
 20
251.4838142344324
 30
0.0
 11
686.71413351643355
 21
251.26962072012779
 31
0.0
  0
LINE
  5
11914
  8
KI2
 10
689.59114292686968
 20
251.85000991630329
 30
0.0
 11
689.64170573982165
 21
251.7994471033513
 31
0.0
  0
LINE
  5
11915
  8
KI2
 10
689.27683396263228
 20
251.85000991630321
 30
0.0
 11
689.43560643414219
 21
251.69123744479339
 31
0.0
  0
LINE
  5
11916
  8
KI2
 10
688.962524998395
 20
251.85000991630321
 30
0.0
 11
689.22950712846261
 21
251.58302778623559
 31
0.0
  0
LINE
  5
11917
  8
KI2
 10
688.6482160341576
 20
251.85000991630321
 30
0.0
 11
689.02340782278316
 21
251.47481812767759
 31
0.0
  0
LINE
  5
11918
  8
KI2
 10
688.50000000212947
 20
251.6839169840938
 30
0.0
 11
688.81730851710347
 21
251.3666084691198
 31
0.0
  0
LINE
  5
11919
  8
KI2
 10
688.50000000212947
 20
251.3696080198564
 30
0.0
 11
688.61120921142401
 21
251.258398810562
 31
0.0
  0
LINE
  5
1191A
  8
KI2
 10
686.44805328449559
 20
251.85000991630329
 30
0.0
 11
686.46077992708547
 21
251.83728327371341
 31
0.0
  0
LINE
  5
1191B
  8
KI2
 10
686.13374432025807
 20
251.85000991630329
 30
0.0
 11
686.22356386895365
 21
251.76019036760769
 31
0.0
  0
LINE
  5
1191C
  8
KI2
 10
685.81943535602068
 20
251.85000991630329
 30
0.0
 11
685.98634781082205
 21
251.68309746150189
 31
0.0
  0
LINE
  5
1191D
  8
KI2
 10
685.50512639178316
 20
251.85000991630329
 30
0.0
 11
685.74913175269035
 21
251.6060045553962
 31
0.0
  0
LINE
  5
1191E
  8
KI2
 10
685.19081742754577
 20
251.85000991630329
 30
0.0
 11
685.51191569455864
 21
251.52891164929051
 31
0.0
  0
LINE
  5
1191F
  8
KI2
 10
684.87650846330837
 20
251.85000991630329
 30
0.0
 11
685.27469963642693
 21
251.45181874318479
 31
0.0
  0
LINE
  5
11920
  8
KI2
 10
684.56219949907097
 20
251.85000991630329
 30
0.0
 11
685.037483578295
 21
251.3747258370793
 31
0.0
  0
LINE
  5
11921
  8
KI2
 10
684.4998800021292
 20
251.59802044900781
 30
0.0
 11
684.80026752016352
 21
251.29763293097349
 31
0.0
  0
LINE
  5
11922
  8
KI2
 10
684.4998800021292
 20
251.28371148477041
 30
0.0
 11
684.56305146203169
 21
251.2205400248678
 31
0.0
  0
LINE
  5
11923
  8
KI1
 10
681.28395358518605
 20
251.85000991630329
 30
0.0
 11
684.4998800021292
 21
251.85000991630329
 31
0.0
  0
LINE
  5
11924
  8
KI1
 10
681.28395358518605
 20
241.65008991630299
 30
0.0
 11
684.4998800021292
 21
241.65008991630299
 31
0.0
  0
LINE
  5
11925
  8
KI2
 10
684.49988000212932
 20
242.2163883478361
 30
0.0
 11
684.56305146203169
 21
242.27955980773859
 31
0.0
  0
LINE
  5
11926
  8
KI2
 10
684.4998800021292
 20
241.90207938359859
 30
0.0
 11
684.80026752016352
 21
242.2024669016329
 31
0.0
  0
LINE
  5
11927
  8
KI2
 10
684.56219949907097
 20
241.65008991630299
 30
0.0
 11
685.037483578295
 21
242.1253739955271
 31
0.0
  0
LINE
  5
11928
  8
KI2
 10
684.87650846330837
 20
241.65008991630299
 30
0.0
 11
685.27469963642682
 21
242.04828108942141
 31
0.0
  0
LINE
  5
11929
  8
KI2
 10
685.19081742754577
 20
241.65008991630299
 30
0.0
 11
685.51191569455852
 21
241.97118818331569
 31
0.0
  0
LINE
  5
1192A
  8
KI2
 10
685.50512639178316
 20
241.65008991630299
 30
0.0
 11
685.74913175269023
 21
241.89409527721
 31
0.0
  0
LINE
  5
1192B
  8
KI2
 10
685.81943535602068
 20
241.65008991630299
 30
0.0
 11
685.98634781082205
 21
241.81700237110439
 31
0.0
  0
LINE
  5
1192C
  8
KI2
 10
686.13374432025807
 20
241.65008991630319
 30
0.0
 11
686.22356386895365
 21
241.7399094649987
 31
0.0
  0
LINE
  5
1192D
  8
KI2
 10
686.44805328449559
 20
241.65008991630299
 30
0.0
 11
686.46077992708547
 21
241.6628165588929
 31
0.0
  0
LINE
  5
1192E
  8
KI2
 10
688.50000000212947
 20
242.13049181274991
 30
0.0
 11
688.61120921142401
 21
242.2417010220444
 31
0.0
  0
LINE
  5
1192F
  8
KI2
 10
688.50000000212947
 20
241.81618284851251
 30
0.0
 11
688.81730851710347
 21
242.13349136348651
 31
0.0
  0
LINE
  5
11930
  8
KI2
 10
688.6482160341576
 20
241.65008991630319
 30
0.0
 11
689.02340782278316
 21
242.02528170492869
 31
0.0
  0
LINE
  5
11931
  8
KI2
 10
688.962524998395
 20
241.65008991630319
 30
0.0
 11
689.22950712846273
 21
241.91707204637089
 31
0.0
  0
LINE
  5
11932
  8
KI2
 10
689.27683396263228
 20
241.65008991630319
 30
0.0
 11
689.43560643414219
 21
241.80886238781301
 31
0.0
  0
LINE
  5
11933
  8
KI2
 10
689.59114292686968
 20
241.65008991630319
 30
0.0
 11
689.64170573982165
 21
241.7006527292551
 31
0.0
  0
LINE
  5
11934
  8
KI2
 10
686.49994000212905
 20
242.01628559817399
 30
0.0
 11
686.71413351643378
 21
242.23047911247869
 31
0.0
  0
LINE
  5
11935
  8
KI2
 10
686.49994000212905
 20
241.70197663393651
 30
0.0
 11
686.95134957456537
 21
242.15338620637289
 31
0.0
  0
LINE
  5
11936
  8
KI2
 10
686.7623622487331
 20
241.65008991630299
 30
0.0
 11
687.1885656326973
 21
242.07629330026731
 31
0.0
  0
LINE
  5
11937
  8
KI2
 10
687.0766712129705
 20
241.65008991630299
 30
0.0
 11
687.42578169082901
 21
241.99920039416159
 31
0.0
  0
LINE
  5
11938
  8
KI2
 10
687.39098017720789
 20
241.65008991630299
 30
0.0
 11
687.66299774896061
 21
241.9221074880559
 31
0.0
  0
LINE
  5
11939
  8
KI2
 10
687.70528914144529
 20
241.65008991630299
 30
0.0
 11
687.90021380709254
 21
241.84501458195029
 31
0.0
  0
LINE
  5
1193A
  8
KI2
 10
688.01959810568269
 20
241.65008991630299
 30
0.0
 11
688.13742986522425
 21
241.7679216758446
 31
0.0
  0
LINE
  5
1193B
  8
KI2
 10
688.33390706991997
 20
241.65008991630299
 30
0.0
 11
688.37464592335596
 21
241.69082876973891
 31
0.0
  0
LINE
  5
1193C
  8
KI1
 10
681.50268358518633
 20
239.55004991630301
 30
0.0
 11
681.28395358518605
 21
241.65008991630299
 31
0.0
  0
ARC
  5
1193D
  8
KI1
 10
672.00000000212947
 20
255.25004991630331
 30
0.0
 40
0.5
 50
90.0
 51
180.0
  0
ARC
  5
1193E
  8
KI1
 10
672.00000000212947
 20
255.25004991630331
 30
0.0
 40
0.5
 50
180.0
 51
180.0
  0
ARC
  5
1193F
  8
KI1
 10
672.00000000212947
 20
238.25004991630311
 30
0.0
 40
0.5
 50
180.0
 51
270.0
  0
LINE
  5
11940
  8
KI1
 10
673.30000000212954
 20
239.55004991630301
 30
0.0
 11
681.50268358518633
 21
239.55004991630301
 31
0.0
  0
LINE
  5
11941
  8
KI1
 10
673.30000000212954
 20
239.55004991630301
 30
0.0
 11
673.30000000212954
 21
253.9500499163033
 31
0.0
  0
LINE
  5
11942
  8
KI1
 10
684.4998800021292
 20
241.65008991630299
 30
0.0
 11
689.73800916394771
 21
241.65008991630299
 31
0.0
  0
LINE
  5
11943
  8
KI1
 10
690.49988000212909
 20
241.25007991630341
 30
0.0
 11
688.50000000212947
 21
242.30008991630359
 31
0.0
  0
LINE
  5
11944
  8
KI1
 10
688.50000000212947
 20
241.65008991630299
 30
0.0
 11
686.49994000212905
 21
242.30008991630359
 31
0.0
  0
LINE
  5
11945
  8
KI1
 10
686.49994000212905
 20
241.65008991630299
 30
0.0
 11
684.4998800021292
 21
242.30008991630359
 31
0.0
  0
LINE
  5
11946
  8
KI1
 10
684.4998800021292
 20
241.65008991630299
 30
0.0
 11
684.4998800021292
 21
242.30008991630359
 31
0.0
  0
LINE
  5
11947
  8
KI1
 10
686.49994000212905
 20
241.65008991630299
 30
0.0
 11
686.49994000212905
 21
242.30008991630359
 31
0.0
  0
LINE
  5
11948
  8
KI1
 10
688.50000000212947
 20
241.65008991630299
 30
0.0
 11
688.50000000212947
 21
242.30008991630359
 31
0.0
  0
LINE
  5
11949
  8
KI1
 10
683.49990000212961
 20
237.750049916303
 30
0.0
 11
683.28117000212933
 21
239.85008991630309
 31
0.0
  0
LINE
  5
1194A
  8
KI1
 10
683.28117000212933
 20
239.85008991630309
 30
0.0
 11
684.4998800021292
 21
239.85008991630309
 31
0.0
  0
LINE
  5
1194B
  8
KI1
 10
688.50000000212947
 20
239.20002991630301
 30
0.0
 11
690.49988000212909
 21
240.2500899163031
 31
0.0
  0
LINE
  5
1194C
  8
KI1
 10
684.4998800021292
 20
239.20002991630301
 30
0.0
 11
686.49994000212905
 21
239.85008991630309
 31
0.0
  0
LINE
  5
1194D
  8
KI1
 10
686.49994000212905
 20
239.20002991630301
 30
0.0
 11
688.50000000212947
 21
239.85008991630309
 31
0.0
  0
LINE
  5
1194E
  8
KI1
 10
684.4998800021292
 20
239.20002991630301
 30
0.0
 11
684.4998800021292
 21
239.85008991630309
 31
0.0
  0
LINE
  5
1194F
  8
KI1
 10
686.49994000212905
 20
239.20002991630301
 30
0.0
 11
686.49994000212905
 21
239.85008991630309
 31
0.0
  0
LINE
  5
11950
  8
KI1
 10
688.50000000212947
 20
239.20002991630301
 30
0.0
 11
688.50000000212947
 21
239.85008991630309
 31
0.0
  0
LINE
  5
11951
  8
KI1
 10
690.49988000212909
 20
240.2500899163031
 30
0.0
 11
690.49988000212909
 21
241.25007991630341
 31
0.0
  0
LINE
  5
11952
  8
KI1
 10
672.00000000212947
 20
237.750049916303
 30
0.0
 11
683.49990000212961
 21
237.750049916303
 31
0.0
  0
LINE
  5
11953
  8
KI1
 10
671.50000000212947
 20
238.25004991630311
 30
0.0
 11
671.50000000212947
 21
255.25004991630331
 31
0.0
  0
LINE
  5
11954
  8
KI1
 10
683.49999999999989
 20
238.75005091630311
 30
0.0
 11
691.50000000213004
 21
238.75005091630311
 31
0.0
  0
LINE
  5
11955
  8
KI1
 10
683.49999999999989
 20
254.75004891630331
 30
0.0
 11
691.50000000212947
 21
254.75004891630331
 31
0.0
  0
LINE
  5
11956
  8
KI1
 10
683.50000000212947
 20
251.35004991630311
 30
0.0
 11
691.50000000212947
 21
251.35004991630311
 31
0.0
  0
LINE
  5
11957
  8
KI1
 10
683.50000000212947
 20
242.15004991630329
 30
0.0
 11
691.50000000212947
 21
242.15004991630281
 31
0.0
  0
LINE
  5
11958
  8
KI1
 10
691.50000000212947
 20
242.15004991630281
 30
0.0
 11
691.50000000212947
 21
238.75005091630311
 31
0.0
  0
LINE
  5
11959
  8
KI1
 10
691.50000000212947
 20
254.75004891630331
 30
0.0
 11
691.50000000212947
 21
251.35004991630311
 31
0.0
  0
LINE
  5
1195A
  8
KI1
 10
683.50000000212947
 20
242.15004991630329
 30
0.0
 11
683.50000000212947
 21
251.35004991630311
 31
0.0
  0
LINE
  5
1195B
  8
OS
 10
685.80601084435523
 20
242.15004991630309
 30
0.0
 11
683.49999999999989
 21
244.45606076065849
 31
0.0
1001
ACAD
1010
0.0
1020
0.0
1030
0.0
  0
LINE
  5
11B11
  8
OS
 10
64.5
 20
437.12424176718707
 30
0.0
 11
72.625758232805211
 21
445.24999999999238
 31
0.0
1001
ACAD
1010
0.0
1020
0.0
1030
0.0
1001
GENIUS_GENODEF_13
1002
{
1000
HIER
1070
     0
1002
}
1002
{
1000
MANEDIT
1070
     0
1002
}
1002
{
1000
NOSEL
1070
     0
1002
}
1002
{
1000
BEHIND
1070
     0
1002
}
1002
{
1000
OTHER
1070
     0
1002
}
1002
{
1000
REACTOR
1002
}
1001
GENIUS_GENOBJ-N-HTC_13
1002
{
1000
OWNER
1000
GEN
1002
}
1001
GENIUS_GENHATCH_13
1002
{
1000
DATA
1040
45.0
1042
2.5
1000
_U
1070
     0
1011
135.2063451311295
1021
0.0
1031
0.0
1021
433.29051750791461
1031
0.0
1002
}
1002
{
1000
UCS
1010
0.0
1020
0.0
1030
0.0
1010
1.0
1020
0.0
1030
0.0
1010
0.0
1020
1.0
1030
0.0
1002
}
  0
LINE
  5
11BB0
  8
SU
 10
72.5
 20
487.25000000000028
 30
0.0
 11
72.5
 21
524.25000000000034
 31
0.0
  0
LINE
  5
11BB1
  8
SU
 10
61.5
 20
446.24999999999233
 30
0.0
 11
61.5
 21
524.25000000000034
 31
0.0
  0
LINE
  5
11BB2
  8
SU
 10
72.5
 20
521.25000000000034
 30
0.0
 11
61.5
 21
521.25000000000034
 31
0.0
  0
ARC
  5
11BB3
  8
SU
 10
72.5
 20
521.25000000000034
 30
0.0
 40
0.6
 50
180.0
 51
0.0
  0
ARC
  5
11BB4
  8
SU
 10
72.5
 20
521.25000000000034
 30
0.0
 40
0.6
 50
0.0
 51
180.0
  0
ARC
  5
11BB5
  8
SU
 10
61.5
 20
521.25000000000034
 30
0.0
 40
0.6
 50
0.0
 51
180.0
  0
ARC
  5
11BB6
  8
SU
 10
61.5
 20
521.25000000000034
 30
0.0
 40
0.6
 50
180.0
 51
0.0
  0
TEXT
  5
11BB7
  8
SU
 10
61.881666666666661
 20
522.55000000000018
 30
0.0
 40
7.0
  1
11
 41
0.8299999999999999
  0
LINE
  5
11BB8
  8
SU
 10
217.49999999999969
 20
487.25000000000028
 30
0.0
 11
217.49999999999969
 21
524.25000000000034
 31
0.0
  0
LINE
  5
11BB9
  8
SU
 10
72.5
 20
521.25000000000034
 30
0.0
 11
217.49999999999969
 21
521.25000000000034
 31
0.0
  0
ARC
  5
11BBA
  8
SU
 10
217.49999999999969
 20
521.25000000000034
 30
0.0
 40
0.6
 50
180.0
 51
0.0
  0
ARC
  5
11BBB
  8
SU
 10
217.49999999999969
 20
521.25000000000034
 30
0.0
 40
0.6
 50
0.0
 51
180.0
  0
TEXT
  5
11BBC
  8
SU
 10
136.2849999999998
 20
522.55000000000018
 30
0.0
 40
7.0
  1
145
 41
0.8299999999999999
  0
LINE
  5
11BBD
  8
SU
 10
228.5
 20
446.24999999999233
 30
0.0
 11
228.5
 21
524.25000000000045
 31
0.0
  0
LINE
  5
11BBE
  8
SU
 10
217.49999999999969
 20
521.25000000000045
 30
0.0
 11
228.5
 21
521.25000000000045
 31
0.0
  0
ARC
  5
11BBF
  8
SU
 10
228.5
 20
521.25000000000045
 30
0.0
 40
0.6
 50
180.0
 51
0.0
  0
ARC
  5
11BC0
  8
SU
 10
228.5
 20
521.25000000000045
 30
0.0
 40
0.6
 50
0.0
 51
180.0
  0
TEXT
  5
11BC1
  8
SU
 10
217.88166666666649
 20
522.5500000000003
 30
0.0
 40
7.0
  1
11
 41
0.8299999999999999
  0
LINE
  5
11BC2
  8
SU
 10
85.0
 20
487.25000000000028
 30
0.0
 11
85.0
 21
509.25000000000028
 31
0.0
  0
LINE
  5
11BC3
  8
SU
 10
204.99999999999969
 20
487.25000000000028
 30
0.0
 11
204.99999999999969
 21
509.25000000000028
 31
0.0
  0
LINE
  5
11BC4
  8
SU
 10
85.0
 20
506.25000000000028
 30
0.0
 11
204.99999999999969
 21
506.25000000000028
 31
0.0
  0
ARC
  5
11BC5
  8
SU
 10
85.0
 20
506.25000000000028
 30
0.0
 40
0.6
 50
0.0
 51
180.0
  0
ARC
  5
11BC6
  8
SU
 10
85.0
 20
506.25000000000028
 30
0.0
 40
0.6
 50
180.0
 51
0.0
  0
ARC
  5
11BC7
  8
SU
 10
204.99999999999969
 20
506.25000000000028
 30
0.0
 40
0.6
 50
180.0
 51
0.0
  0
ARC
  5
11BC8
  8
SU
 10
204.99999999999969
 20
506.25000000000028
 30
0.0
 40
0.6
 50
0.0
 51
180.0
  0
TEXT
  5
11BC9
  8
SU
 10
136.2849999999998
 20
507.55000000000041
 30
0.0
 40
7.0
  1
120
 41
0.8299999999999999
  0
LINE
  5
11BCA
  8
SU
 10
85.0
 20
506.2500000000004
 30
0.0
 11
72.5
 21
506.2500000000004
 31
0.0
  0
LINE
  5
11BCB
  8
SU
 10
40.495113612111368
 20
506.2500000000004
 30
0.0
 11
72.5
 21
506.2500000000004
 31
0.0
  0
TEXT
  5
11BCC
  8
SU
 10
40.135113612111383
 20
507.55000000000052
 30
0.0
 40
7.0
  1
12.5
 41
0.8299999999999999
  0
ARC
  5
11BCD
  8
SU
 10
72.5
 20
506.2500000000004
 30
0.0
 40
0.6
 50
0.0
 51
180.0
  0
ARC
  5
11BCE
  8
SU
 10
72.5
 20
506.2500000000004
 30
0.0
 40
0.6
 50
180.0
 51
0.0
  0
LINE
  5
11BCF
  8
SU
 10
204.99999999999969
 20
506.2500000000004
 30
0.0
 11
217.49999999999969
 21
506.2500000000004
 31
0.0
  0
LINE
  5
11BD0
  8
SU
 10
249.5394439712681
 20
506.2500000000004
 30
0.0
 11
217.49999999999969
 21
506.2500000000004
 31
0.0
  0
TEXT
  5
11BD1
  8
SU
 10
229.7027773046014
 20
507.55000000000052
 30
0.0
 40
7.0
  1
12.5
 41
0.8299999999999999
  0
ARC
  5
11BD2
  8
SU
 10
217.49999999999969
 20
506.2500000000004
 30
0.0
 40
0.6
 50
180.0
 51
0.0
  0
ARC
  5
11BD3
  8
SU
 10
217.49999999999969
 20
506.2500000000004
 30
0.0
 40
0.6
 50
0.0
 51
180.0
  0
LINE
  5
11BD4
  8
OS
 10
171.400107558927
 20
486.25000000000028
 30
0.0
 11
85.000053405761946
 21
450.24986219405349
 31
0.0
  0
LINE
  5
11BD5
  8
OS
 10
215.5
 20
486.25000000000028
 30
0.0
 11
215.5
 21
445.24999999999221
 31
0.0
  0
LINE
  5
11BD6
  8
OS
 10
207.0
 20
486.25000000000028
 30
0.0
 11
207.0
 21
445.24999999999221
 31
0.0
  0
LINE
  5
11BD7
  8
OS
 10
217.5
 20
486.25000000000028
 30
0.0
 11
217.5
 21
445.24999999999221
 31
0.0
  0
LINE
  5
11BD8
  8
OS
 10
205.0
 20
486.25000000000028
 30
0.0
 11
205.0
 21
445.24999999999221
 31
0.0
  0
LINE
  5
11BD9
  8
OS
 10
72.5
 20
486.25000000000028
 30
0.0
 11
72.5
 21
445.24999999999221
 31
0.0
  0
LINE
  5
11BDA
  8
OS
 10
83.0
 20
486.25000000000028
 30
0.0
 11
83.0
 21
445.24999999999221
 31
0.0
  0
LINE
  5
11BDB
  8
OS
 10
74.5
 20
486.25000000000028
 30
0.0
 11
74.5
 21
445.24999999999221
 31
0.0
  0
LINE
  5
11BDC
  8
OS
 10
85.0
 20
486.25000000000028
 30
0.0
 11
85.0
 21
445.24999999999221
 31
0.0
  0
LINE
  5
11BDD
  8
OS
 10
205.0
 20
450.24999999999233
 30
0.0
 11
85.0
 21
450.24999999999233
 31
0.0
  0
LINE
  5
11BDE
  8
OS
 10
217.5
 20
445.24999999999221
 30
0.0
 11
72.5
 21
445.24999999999221
 31
0.0
  0
LINE
  5
11BDF
  8
OS
 10
205.00000762939399
 20
445.25004438841597
 30
0.0
 11
85.0
 21
450.25004482268508
 31
0.0
  0
LINE
  5
11C0E
  8
OS
 10
457.49999999999989
 20
349.1494949366114
 30
0.0
 11
469.60050506338848
 21
361.25000000000011
 31
0.0
1001
ACAD
1010
0.0
1020
0.0
1030
0.0
  0
LINE
  5
11C0F
  8
OS
 10
457.49999999999989
 20
359.04898987322309
 30
0.0
 11
459.70101012677679
 21
361.25000000000011
 31
0.0
1001
ACAD
1010
0.0
1020
0.0
1030
0.0
  0
LINE
  5
11C10
  8
OS
 10
707.5
 20
349.14949493660998
 30
0.0
 11
695.3994949366114
 21
361.24999999999869
 31
0.0
1001
ACAD
1010
0.0
1020
0.0
1030
0.0
  0
LINE
  5
11C11
  8
OS
 10
707.5
 20
359.04898987322167
 30
0.0
 11
705.29898987322304
 21
361.24999999999869
 31
0.0
1001
ACAD
1010
0.0
1020
0.0
1030
0.0
  0
LINE
  5
11C57
  8
SU
 10
381.49999999999989
 20
350.24999999999869
 30
0.0
 11
344.49999999999989
 21
350.24999999999869
 31
0.0
  0
LINE
  5
11C58
  8
SU
 10
456.49999999999977
 20
361.25
 30
0.0
 11
344.49999999999989
 21
361.25000000000011
 31
0.0
  0
LINE
  5
11C59
  8
SU
 10
347.5
 20
350.24999999999869
 30
0.0
 11
347.5
 21
361.25000000000011
 31
0.0
  0
ARC
  5
11C5A
  8
SU
 10
347.5
 20
350.24999999999869
 30
0.0
 40
0.6
 50
90.0
 51
270.0
  0
ARC
  5
11C5B
  8
SU
 10
347.5
 20
350.24999999999869
 30
0.0
 40
0.6
 50
270.0
 51
90.0
  0
ARC
  5
11C5C
  8
SU
 10
347.5
 20
361.25000000000011
 30
0.0
 40
0.6
 50
270.0
 51
90.0
  0
ARC
  5
11C5D
  8
SU
 10
347.5
 20
361.25000000000011
 30
0.0
 40
0.6
 50
90.0
 51
270.0
  0
TEXT
  5
11C5E
  8
SU
 10
346.19999999999987
 20
350.63166666666609
 30
0.0
 40
7.0
  1
11
 50
90.0
 41
0.8299999999999999
  0
LINE
  5
11C5F
  8
SU
 10
381.49999999999989
 20
205.24999999999861
 30
0.0
 11
344.49999999999989
 21
205.24999999999861
 31
0.0
  0
LINE
  5
11C60
  8
SU
 10
347.5
 20
350.24999999999869
 30
0.0
 11
347.5
 21
205.24999999999861
 31
0.0
  0
ARC
  5
11C61
  8
SU
 10
347.5
 20
205.24999999999861
 30
0.0
 40
0.6
 50
90.0
 51
270.0
  0
ARC
  5
11C62
  8
SU
 10
347.5
 20
205.24999999999861
 30
0.0
 40
0.6
 50
270.0
 51
90.0
  0
TEXT
  5
11C63
  8
SU
 10
346.19999999999987
 20
269.03499999999872
 30
0.0
 40
7.0
  1
145
 50
90.0
 41
0.8299999999999999
  0
LINE
  5
11C64
  8
SU
 10
456.49999999999989
 20
194.25
 30
0.0
 11
344.49999999999989
 21
194.25
 31
0.0
  0
LINE
  5
11C65
  8
SU
 10
347.5
 20
205.24999999999861
 30
0.0
 11
347.5
 21
194.25
 31
0.0
  0
ARC
  5
11C66
  8
SU
 10
347.5
 20
194.25
 30
0.0
 40
0.6
 50
90.0
 51
270.0
  0
ARC
  5
11C67
  8
SU
 10
347.5
 20
194.25
 30
0.0
 40
0.6
 50
270.0
 51
90.0
  0
TEXT
  5
11C68
  8
SU
 10
346.19999999999987
 20
194.63166666666601
 30
0.0
 40
7.0
  1
11
 50
90.0
 41
0.8299999999999999
  0
LINE
  5
11C69
  8
SU
 10
381.49999999999989
 20
337.74999999999869
 30
0.0
 11
359.49999999999989
 21
337.74999999999869
 31
0.0
  0
LINE
  5
11C6A
  8
SU
 10
362.5
 20
337.74999999999869
 30
0.0
 11
362.5
 21
350.24999999999869
 31
0.0
  0
LINE
  5
11C6B
  8
SU
 10
362.5
 20
382.15518605916611
 30
0.0
 11
362.5
 21
350.24999999999869
 31
0.0
  0
TEXT
  5
11C6C
  8
SU
 10
361.19999999999987
 20
362.31851939249941
 30
0.0
 40
7.0
  1
12.5
 50
90.0
 41
0.8299999999999999
  0
ARC
  5
11C6D
  8
SU
 10
362.5
 20
337.74999999999869
 30
0.0
 40
0.6
 50
90.0
 51
270.0
  0
ARC
  5
11C6E
  8
SU
 10
362.5
 20
337.74999999999869
 30
0.0
 40
0.6
 50
270.0
 51
90.0
  0
ARC
  5
11C6F
  8
SU
 10
362.5
 20
350.24999999999869
 30
0.0
 40
0.6
 50
270.0
 51
90.0
  0
ARC
  5
11C70
  8
SU
 10
362.5
 20
350.24999999999869
 30
0.0
 40
0.6
 50
90.0
 51
270.0
  0
LINE
  5
11C71
  8
SU
 10
381.49999999999989
 20
217.74999999999861
 30
0.0
 11
359.49999999999989
 21
217.74999999999861
 31
0.0
  0
LINE
  5
11C72
  8
SU
 10
362.5
 20
337.74999999999869
 30
0.0
 11
362.5
 21
217.74999999999861
 31
0.0
  0
ARC
  5
11C73
  8
SU
 10
362.5
 20
217.74999999999861
 30
0.0
 40
0.6
 50
90.0
 51
270.0
  0
ARC
  5
11C74
  8
SU
 10
362.5
 20
217.74999999999861
 30
0.0
 40
0.6
 50
270.0
 51
90.0
  0
TEXT
  5
11C75
  8
SU
 10
361.19999999999987
 20
269.03499999999872
 30
0.0
 40
7.0
  1
120
 50
90.0
 41
0.8299999999999999
  0
LINE
  5
11C76
  8
SU
 10
362.5
 20
217.74999999999861
 30
0.0
 11
362.5
 21
205.24999999999861
 31
0.0
  0
LINE
  5
11C77
  8
SU
 10
362.5
 20
174.2905973582277
 30
0.0
 11
362.5
 21
205.24999999999861
 31
0.0
  0
TEXT
  5
11C78
  8
SU
 10
361.19999999999987
 20
173.93059735822769
 30
0.0
 40
7.0
  1
12.5
 50
90.0
 41
0.8299999999999999
  0
ARC
  5
11C79
  8
SU
 10
362.5
 20
205.24999999999861
 30
0.0
 40
0.6
 50
90.0
 51
270.0
  0
ARC
  5
11C7A
  8
SU
 10
362.5
 20
205.24999999999861
 30
0.0
 40
0.6
 50
270.0
 51
90.0
  0
LINE
  5
11C7B
  8
OS
 10
782.49999999999966
 20
337.74999999999869
 30
0.0
 11
707.49999998442081
 21
337.74999999999869
 31
0.0
  0
LINE
  5
11C7C
  8
OS
 10
782.49999999999966
 20
217.74999999999861
 30
0.0
 11
707.49999998442081
 21
217.74999999999861
 31
0.0
  0
LINE
  5
11C7D
  8
OS
 10
712.49999998442081
 20
337.74999999999869
 30
0.0
 11
712.49999998442081
 21
217.74999999999861
 31
0.0
  0
LINE
  5
11C7E
  8
OS
 10
707.49999998442081
 20
337.74999999999869
 30
0.0
 11
712.49999998442081
 21
217.74999999999861
 31
0.0
  0
LINE
  5
11C7F
  8
OS
 10
782.49999999999966
 20
205.24999999999861
 30
0.0
 11
707.49999998442081
 21
205.24999999999861
 31
0.0
  0
LINE
  5
11C80
  8
OS
 10
782.49999999999966
 20
350.24999999999869
 30
0.0
 11
707.49999998442081
 21
350.24999999999869
 31
0.0
  0
LINE
  5
11C81
  8
OS
 10
782.49999999999966
 20
207.24999999999861
 30
0.0
 11
707.49999998442081
 21
207.24999999999861
 31
0.0
  0
LINE
  5
11C82
  8
OS
 10
782.49999999999966
 20
215.74999999999861
 30
0.0
 11
707.49999998442081
 21
215.74999999999861
 31
0.0
  0
LINE
  5
11C83
  8
OS
 10
782.49999999999966
 20
339.74999999999869
 30
0.0
 11
707.49999998442081
 21
339.74999999999869
 31
0.0
  0
LINE
  5
11C84
  8
OS
 10
782.49999999999966
 20
348.24999999999869
 30
0.0
 11
707.49999998442081
 21
348.24999999999869
 31
0.0
  0
LINE
  5
11C85
  8
OS
 10
707.49999998442081
 20
350.24999999999869
 30
0.0
 11
707.49999998442081
 21
205.24999999999861
 31
0.0
  0
LINE
  5
11C86
  8
OS
 10
782.49999999999966
 20
287.7500000155776
 30
0.0
 11
712.49999998442081
 21
217.74999999999861
 31
0.0
  0
LINE
  5
11C87
  8
OS
 10
782.49999999999966
 20
267.74999998441967
 30
0.0
 11
712.49999998442081
 21
337.74999999999869
 31
0.0
  0
LINE
  5
11C88
  8
OS
 10
382.49999999999989
 20
337.74999999999869
 30
0.0
 11
457.50000001557891
 21
337.74999999999869
 31
0.0
  0
LINE
  5
11C89
  8
OS
 10
382.49999999999989
 20
217.74999999999861
 30
0.0
 11
457.50000001557891
 21
217.74999999999861
 31
0.0
  0
LINE
  5
11C8A
  8
OS
 10
452.50000001557891
 20
337.74999999999869
 30
0.0
 11
452.50000001557891
 21
217.74999999999861
 31
0.0
  0
LINE
  5
11C8B
  8
OS
 10
457.50000001557891
 20
217.74999999999861
 30
0.0
 11
452.50000001557891
 21
337.74999999999869
 31
0.0
  0
LINE
  5
11C8C
  8
OS
 10
382.49999999999989
 20
205.24999999999861
 30
0.0
 11
457.50000001557891
 21
205.24999999999861
 31
0.0
  0
LINE
  5
11C8D
  8
OS
 10
382.49999999999989
 20
350.24999999999869
 30
0.0
 11
457.50000001557891
 21
350.24999999999869
 31
0.0
  0
LINE
  5
11C8E
  8
OS
 10
382.49999999999989
 20
207.24999999999861
 30
0.0
 11
457.50000001557891
 21
207.24999999999861
 31
0.0
  0
LINE
  5
11C8F
  8
OS
 10
382.49999999999989
 20
215.74999999999861
 30
0.0
 11
457.50000001557891
 21
215.74999999999861
 31
0.0
  0
LINE
  5
11C90
  8
OS
 10
382.49999999999989
 20
339.74999999999869
 30
0.0
 11
457.50000001557891
 21
339.74999999999869
 31
0.0
  0
LINE
  5
11C91
  8
OS
 10
382.49999999999989
 20
348.24999999999869
 30
0.0
 11
457.50000001557891
 21
348.24999999999869
 31
0.0
  0
LINE
  5
11C92
  8
OS
 10
457.50000001557891
 20
350.24999999999869
 30
0.0
 11
457.50000001557891
 21
205.24999999999861
 31
0.0
  0
LINE
  5
11C93
  8
OS
 10
382.49999999999989
 20
287.7500000155776
 30
0.0
 11
452.50000001557891
 21
217.74999999999861
 31
0.0
  0
LINE
  5
11C94
  8
OS
 10
382.49999999999989
 20
267.74999998441967
 30
0.0
 11
452.50000001557891
 21
337.74999999999869
 31
0.0
  0
LINE
  5
11DAC
  8
OS
 10
584.49999999999989
 20
433.45101012677662
 30
0.0
 11
595.29898987323156
 21
444.2500000000083
 31
0.0
1001
ACAD
1010
0.0
1020
0.0
1030
0.0
1001
GENIUS_GENOBJ-N-HTC_13
1002
{
1000
OWNER
1000
GEN
1002
}
1001
GENIUS_GENODEF_13
1002
{
1000
HIER
1070
     0
1002
}
1002
{
1000
MANEDIT
1070
     0
1002
}
1002
{
1000
NOSEL
1070
     0
1002
}
1002
{
1000
BEHIND
1070
     0
1002
}
1002
{
1000
OTHER
1070
     0
1002
}
1002
{
1000
REACTOR
1002
}
1001
GENIUS_GENHATCH_13
1002
{
1000
DATA
1040
0.0
1042
0.5
1000
ANSI31
1070
     0
1011
700.15394290159975
1021
0.0
1031
0.0
1021
438.58428874806191
1031
0.0
1002
}
1002
{
1000
UCS
1010
0.0
1020
0.0
1030
0.0
1010
1.0
1020
0.0
1030
0.0
1010
0.0
1020
1.0
1030
0.0
1002
}
  0
ENDSEC
  0
EOF
